ISO-10303-21;
HEADER;
FILE_DESCRIPTION (( 'STEP AP214' ),
    '1' );
FILE_NAME ('Micro_MMBM-012-7X.STEP',
    '2021-09-03T16:28:34',
    ( '' ),
    ( '' ),
    'SwSTEP 2.0',
    'SolidWorks 2020',
    '' );
FILE_SCHEMA (( 'AUTOMOTIVE_DESIGN' ));
ENDSEC;

DATA;
#1 = EDGE_LOOP ( 'NONE', ( #71, #46, #7, #13 ) ) ;
#2 = EDGE_CURVE ( 'NONE', #128, #363, #139, .T. ) ;
#3 = CIRCLE ( 'NONE', #218, 0.02263800000000003310 ) ;
#4 = DIRECTION ( 'NONE',  ( -1.000000000000000000, 0.0000000000000000000, 0.0000000000000000000 ) ) ;
#5 = VERTEX_POINT ( 'NONE', #138 ) ;
#6 = DIRECTION ( 'NONE',  ( -0.0000000000000000000, -0.0000000000000000000, -1.000000000000000000 ) ) ;
#7 = ORIENTED_EDGE ( 'NONE', *, *, #163, .F. ) ;
#8 = CARTESIAN_POINT ( 'NONE',  ( 0.02263800000000001922, 2.772355423909780569E-18, 0.0000000000000000000 ) ) ;
#9 = ORIENTED_EDGE ( 'NONE', *, *, #235, .T. ) ;
#10 = CARTESIAN_POINT ( 'NONE',  ( 0.02361963780000000609, 2.892571382878983863E-18, 0.0000000000000000000 ) ) ;
#11 = ORIENTED_EDGE ( 'NONE', *, *, #365, .F. ) ;
#12 = PLANE ( 'NONE',  #180 ) ;
#13 = ORIENTED_EDGE ( 'NONE', *, *, #276, .F. ) ;
#14 = UNCERTAINTY_MEASURE_WITH_UNIT (LENGTH_MEASURE( 1.000000000000000082E-05 ), #328, 'distance_accuracy_value', 'NONE');
#15 =( CONVERSION_BASED_UNIT ( 'INCH', #164 ) LENGTH_UNIT ( ) NAMED_UNIT ( #57 ) );
#16 = CARTESIAN_POINT ( 'NONE',  ( -0.02361963780000000609, 0.0000000000000000000, 0.0000000000000000000 ) ) ;
#17 = DIRECTION ( 'NONE',  ( 0.0000000000000000000, 0.0000000000000000000, -1.000000000000000000 ) ) ;
#18 = ORIENTED_EDGE ( 'NONE', *, *, #271, .F. ) ;
#19 = LINE ( 'NONE', #305, #63 ) ;
#20 = CARTESIAN_POINT ( 'NONE',  ( 0.0000000000000000000, 0.0000000000000000000, 0.05281114460858953724 ) ) ;
#21 = CIRCLE ( 'NONE', #61, 0.1181100000000000066 ) ;
#22 = LENGTH_MEASURE_WITH_UNIT ( LENGTH_MEASURE( 0.02539999999999999897 ), #177 );
#23 = FACE_OUTER_BOUND ( 'NONE', #277, .T. ) ;
#24 = CARTESIAN_POINT ( 'NONE',  ( 0.0000000000000000000, 0.0000000000000000000, 0.2755909999999999749 ) ) ;
#25 = DIMENSIONAL_EXPONENTS ( 1.000000000000000000, 0.0000000000000000000, 0.0000000000000000000, 0.0000000000000000000, 0.0000000000000000000, 0.0000000000000000000, 0.0000000000000000000 ) ;
#26 = APPLICATION_PROTOCOL_DEFINITION ( 'draft international standard', 'automotive_design', 1998, #299 ) ;
#27 = AXIS2_PLACEMENT_3D ( 'NONE', #176, #226, #264 ) ;
#28 = FILL_AREA_STYLE ('',( #323 ) ) ;
#29 = AXIS2_PLACEMENT_3D ( 'NONE', #285, #17, #47 ) ;
#30 = LINE ( 'NONE', #379, #247 ) ;
#31 = EDGE_LOOP ( 'NONE', ( #322, #191, #126, #343 ) ) ;
#32 = EDGE_CURVE ( 'NONE', #284, #187, #245, .T. ) ;
#33 = DIRECTION ( 'NONE',  ( -1.000000000000000000, 0.0000000000000000000, 0.0000000000000000000 ) ) ;
#34 = VECTOR ( 'NONE', #151, 39.37007874015748143 ) ;
#35 = ADVANCED_FACE ( 'NONE', ( #375 ), #295, .T. ) ;
#36 = DIRECTION ( 'NONE',  ( -0.0000000000000000000, -0.0000000000000000000, -1.000000000000000000 ) ) ;
#37 = ORIENTED_EDGE ( 'NONE', *, *, #42, .T. ) ;
#38 = LINE ( 'NONE', #125, #34 ) ;
#39 = PRODUCT_DEFINITION_SHAPE ( 'NONE', 'NONE',  #251 ) ;
#40 = ORIENTED_EDGE ( 'NONE', *, *, #378, .F. ) ;
#41 = DIRECTION ( 'NONE',  ( 0.0000000000000000000, 0.0000000000000000000, 1.000000000000000000 ) ) ;
#42 = EDGE_CURVE ( 'NONE', #363, #128, #123, .T. ) ;
#43 = ORIENTED_EDGE ( 'NONE', *, *, #32, .F. ) ;
#44 = DIRECTION ( 'NONE',  ( 1.000000000000000000, 0.0000000000000000000, -0.0000000000000000000 ) ) ;
#45 = ORIENTED_EDGE ( 'NONE', *, *, #145, .F. ) ;
#46 = ORIENTED_EDGE ( 'NONE', *, *, #341, .T. ) ;
#47 = DIRECTION ( 'NONE',  ( -1.000000000000000000, 0.0000000000000000000, 0.0000000000000000000 ) ) ;
#48 = LINE ( 'NONE', #8, #148 ) ;
#49 = CARTESIAN_POINT ( 'NONE',  ( 0.02361963780000000609, 2.892571382878983863E-18, 0.0000000000000000000 ) ) ;
#50 = DIRECTION ( 'NONE',  ( -0.0000000000000000000, -0.0000000000000000000, -1.000000000000000000 ) ) ;
#51 = SURFACE_STYLE_USAGE ( .BOTH. , #171 ) ;
#52 = CARTESIAN_POINT ( 'NONE',  ( -0.02263800000000003310, 0.0000000000000000000, 0.2755909999999999749 ) ) ;
#53 = CIRCLE ( 'NONE', #270, 0.1181100000000000066 ) ;
#54 = DIRECTION ( 'NONE',  ( 0.0000000000000000000, 0.0000000000000000000, -1.000000000000000000 ) ) ;
#55 = ADVANCED_FACE ( 'NONE', ( #319 ), #326, .T. ) ;
#56 = CARTESIAN_POINT ( 'NONE',  ( 0.0000000000000000000, 0.0000000000000000000, 0.04724400000000000127 ) ) ;
#57 = DIMENSIONAL_EXPONENTS ( 1.000000000000000000, 0.0000000000000000000, 0.0000000000000000000, 0.0000000000000000000, 0.0000000000000000000, 0.0000000000000000000, 0.0000000000000000000 ) ;
#58 = CARTESIAN_POINT ( 'NONE',  ( 0.0000000000000000000, 0.0000000000000000000, 0.0000000000000000000 ) ) ;
#59 = EDGE_CURVE ( 'NONE', #205, #5, #165, .T. ) ;
#60 = AXIS2_PLACEMENT_3D ( 'NONE', #260, #54, #342 ) ;
#61 = AXIS2_PLACEMENT_3D ( 'NONE', #272, #261, #101 ) ;
#62 = DIRECTION ( 'NONE',  ( -1.000000000000000000, 0.0000000000000000000, 0.0000000000000000000 ) ) ;
#63 = VECTOR ( 'NONE', #259, 39.37007874015748854 ) ;
#64 = ORIENTED_EDGE ( 'NONE', *, *, #378, .T. ) ;
#65 = PRODUCT ( 'Micro_MMBM-012-7X', 'Micro_MMBM-012-7X', '', ( #346 ) ) ;
#66 =( NAMED_UNIT ( * ) SI_UNIT ( $, .STERADIAN. ) SOLID_ANGLE_UNIT ( ) );
#67 = VERTEX_POINT ( 'NONE', #52 ) ;
#68 = DIRECTION ( 'NONE',  ( -1.000000000000000000, 0.0000000000000000000, 0.0000000000000000000 ) ) ;
#69 = STYLED_ITEM ( 'NONE', ( #212 ), #147 ) ;
#70 = CONICAL_SURFACE ( 'NONE', #92, 0.02361963780000000609, 0.1745329251994333919 ) ;
#71 = ORIENTED_EDGE ( 'NONE', *, *, #32, .T. ) ;
#72 = FACE_OUTER_BOUND ( 'NONE', #31, .T. ) ;
#73 = ORIENTED_EDGE ( 'NONE', *, *, #242, .F. ) ;
#74 = ORIENTED_EDGE ( 'NONE', *, *, #129, .F. ) ;
#75 =( NAMED_UNIT ( * ) PLANE_ANGLE_UNIT ( ) SI_UNIT ( $, .RADIAN. ) );
#76 = DIRECTION ( 'NONE',  ( -1.000000000000000000, 0.0000000000000000000, 0.0000000000000000000 ) ) ;
#77 = CIRCLE ( 'NONE', #154, 0.02361963780000000609 ) ;
#78 = CARTESIAN_POINT ( 'NONE',  ( 0.02263800000000000187, 2.832463403394381638E-18, 0.05281114460858953724 ) ) ;
#79 = DIRECTION ( 'NONE',  ( -1.000000000000000000, 0.0000000000000000000, 0.0000000000000000000 ) ) ;
#80 = EDGE_CURVE ( 'NONE', #131, #67, #3, .T. ) ;
#81 = SURFACE_STYLE_FILL_AREA ( #28 ) ;
#82 = DIRECTION ( 'NONE',  ( -0.0000000000000000000, -0.0000000000000000000, -1.000000000000000000 ) ) ;
#83 = DIRECTION ( 'NONE',  ( 0.0000000000000000000, 0.0000000000000000000, 1.000000000000000000 ) ) ;
#84 = AXIS2_PLACEMENT_3D ( 'NONE', #330, #243, #302 ) ;
#85 = VECTOR ( 'NONE', #98, 39.37007874015748143 ) ;
#86 = CARTESIAN_POINT ( 'NONE',  ( 0.02263800000000003310, 0.0000000000000000000, 0.2755909999999999749 ) ) ;
#87 = SHAPE_DEFINITION_REPRESENTATION ( #39, #354 ) ;
#88 = DIRECTION ( 'NONE',  ( -0.0000000000000000000, -0.0000000000000000000, -1.000000000000000000 ) ) ;
#89 = CYLINDRICAL_SURFACE ( 'NONE', #241, 0.1181100000000000066 ) ;
#90 = AXIS2_PLACEMENT_3D ( 'NONE', #86, #320, #170 ) ;
#91 = CIRCLE ( 'NONE', #144, 0.1181100000000000066 ) ;
#92 = AXIS2_PLACEMENT_3D ( 'NONE', #364, #307, #198 ) ;
#93 = LINE ( 'NONE', #143, #339 ) ;
#94 = VERTEX_POINT ( 'NONE', #16 ) ;
#95 = VERTEX_POINT ( 'NONE', #142 ) ;
#96 = SURFACE_SIDE_STYLE ('',( #289 ) ) ;
#97 = ORIENTED_EDGE ( 'NONE', *, *, #235, .F. ) ;
#98 = DIRECTION ( 'NONE',  ( -0.0000000000000000000, -0.0000000000000000000, -1.000000000000000000 ) ) ;
#99 = MECHANICAL_DESIGN_GEOMETRIC_PRESENTATION_REPRESENTATION (  '', ( #69 ), #262 ) ;
#100 = EDGE_LOOP ( 'NONE', ( #40, #37, #329, #97 ) ) ;
#101 = DIRECTION ( 'NONE',  ( -1.000000000000000000, 0.0000000000000000000, 0.0000000000000000000 ) ) ;
#102 = ORIENTED_EDGE ( 'NONE', *, *, #2, .T. ) ;
#103 = LINE ( 'NONE', #161, #114 ) ;
#104 = ORIENTED_EDGE ( 'NONE', *, *, #341, .F. ) ;
#105 = LINE ( 'NONE', #158, #85 ) ;
#106 = DIRECTION ( 'NONE',  ( 1.000000000000000000, 0.0000000000000000000, -0.0000000000000000000 ) ) ;
#107 = AXIS2_PLACEMENT_3D ( 'NONE', #268, #179, #296 ) ;
#108 = CARTESIAN_POINT ( 'NONE',  ( -0.1181100000000000066, 0.0000000000000000000, 2.229093999999999465 ) ) ;
#109 = DIRECTION ( 'NONE',  ( -0.0000000000000000000, -0.0000000000000000000, -1.000000000000000000 ) ) ;
#110 = EDGE_LOOP ( 'NONE', ( #11, #244, #185, #74 ) ) ;
#111 = CLOSED_SHELL ( 'NONE', ( #159, #310, #350, #290, #370, #181, #312, #55, #124, #35, #230, #120, #117 ) ) ;
#112 = DIRECTION ( 'NONE',  ( -1.000000000000000000, 0.0000000000000000000, 0.0000000000000000000 ) ) ;
#113 = AXIS2_PLACEMENT_3D ( 'NONE', #20, #228, #112 ) ;
#114 = VECTOR ( 'NONE', #336, 39.37007874015748854 ) ;
#115 = CARTESIAN_POINT ( 'NONE',  ( 0.0000000000000000000, 0.0000000000000000000, 2.229093999999999465 ) ) ;
#116 = DIRECTION ( 'NONE',  ( -0.0000000000000000000, -0.0000000000000000000, -1.000000000000000000 ) ) ;
#117 = ADVANCED_FACE ( 'NONE', ( #23 ), #266, .F. ) ;
#118 = COLOUR_RGB ( '',0.7921568627450980005, 0.8196078431372548767, 0.9333333333333333481 ) ;
#119 = CIRCLE ( 'NONE', #356, 0.1031100000000002570 ) ;
#120 = ADVANCED_FACE ( 'NONE', ( #202 ), #317, .T. ) ;
#121 = DIRECTION ( 'NONE',  ( 0.0000000000000000000, 0.0000000000000000000, -1.000000000000000000 ) ) ;
#122 = EDGE_LOOP ( 'NONE', ( #160, #222, #215, #248 ) ) ;
#123 = CIRCLE ( 'NONE', #113, 0.02263800000000000187 ) ;
#124 = ADVANCED_FACE ( 'NONE', ( #282, #371 ), #265, .T. ) ;
#125 = CARTESIAN_POINT ( 'NONE',  ( -0.1181100000000000066, 0.0000000000000000000, 2.244094000000000033 ) ) ;
#126 = ORIENTED_EDGE ( 'NONE', *, *, #2, .F. ) ;
#127 = DIRECTION ( 'NONE',  ( -1.000000000000000000, 0.0000000000000000000, 0.0000000000000000000 ) ) ;
#128 = VERTEX_POINT ( 'NONE', #200 ) ;
#129 = EDGE_CURVE ( 'NONE', #256, #95, #287, .T. ) ;
#130 = DIRECTION ( 'NONE',  ( -0.0000000000000000000, -0.0000000000000000000, -1.000000000000000000 ) ) ;
#131 = VERTEX_POINT ( 'NONE', #135 ) ;
#132 = FACE_OUTER_BOUND ( 'NONE', #253, .T. ) ;
#133 = ORIENTED_EDGE ( 'NONE', *, *, #271, .T. ) ;
#134 = CARTESIAN_POINT ( 'NONE',  ( 0.0000000000000000000, 0.0000000000000000000, 2.244094000000000033 ) ) ;
#135 = CARTESIAN_POINT ( 'NONE',  ( 0.02263800000000003657, 2.772355423909782110E-18, 0.2755909999999999749 ) ) ;
#136 = DIMENSIONAL_EXPONENTS ( 1.000000000000000000, 0.0000000000000000000, 0.0000000000000000000, 0.0000000000000000000, 0.0000000000000000000, 0.0000000000000000000, 0.0000000000000000000 ) ;
#137 = DIRECTION ( 'NONE',  ( 0.0000000000000000000, 0.0000000000000000000, 1.000000000000000000 ) ) ;
#138 = CARTESIAN_POINT ( 'NONE',  ( 0.1031100000000002570, 1.354581824536888722E-17, 2.244094000000000033 ) ) ;
#139 = CIRCLE ( 'NONE', #27, 0.02263800000000000187 ) ;
#140 = CARTESIAN_POINT ( 'NONE',  ( 0.0000000000000000000, 0.0000000000000000000, 0.2755909999999999749 ) ) ;
#141 = CARTESIAN_POINT ( 'NONE',  ( 0.0000000000000000000, 0.0000000000000000000, 0.04724400000000000127 ) ) ;
#142 = CARTESIAN_POINT ( 'NONE',  ( -0.1181100000000000066, 0.0000000000000000000, 0.2755909999999999749 ) ) ;
#143 = CARTESIAN_POINT ( 'NONE',  ( -0.02361963780000000609, 0.0000000000000000000, 0.04724400000000000127 ) ) ;
#144 = AXIS2_PLACEMENT_3D ( 'NONE', #115, #239, #150 ) ;
#145 = EDGE_CURVE ( 'NONE', #205, #258, #232, .T. ) ;
#146 = DIRECTION ( 'NONE',  ( -0.0000000000000000000, -0.0000000000000000000, -1.000000000000000000 ) ) ;
#147 = MANIFOLD_SOLID_BREP ( 'Cut-Revolve1', #111 ) ;
#148 = VECTOR ( 'NONE', #88, 39.37007874015748143 ) ;
#149 = PRODUCT_DEFINITION_FORMATION_WITH_SPECIFIED_SOURCE ( 'ANY', '', #65, .NOT_KNOWN. ) ;
#150 = DIRECTION ( 'NONE',  ( 1.000000000000000000, 0.0000000000000000000, 0.0000000000000000000 ) ) ;
#151 = DIRECTION ( 'NONE',  ( -0.0000000000000000000, -0.0000000000000000000, -1.000000000000000000 ) ) ;
#152 = ORIENTED_EDGE ( 'NONE', *, *, #345, .T. ) ;
#153 = VECTOR ( 'NONE', #315, 39.37007874015748854 ) ;
#154 = AXIS2_PLACEMENT_3D ( 'NONE', #227, #367, #340 ) ;
#155 =( NAMED_UNIT ( * ) PLANE_ANGLE_UNIT ( ) SI_UNIT ( $, .RADIAN. ) );
#156 = EDGE_CURVE ( 'NONE', #131, #363, #48, .T. ) ;
#157 = EDGE_LOOP ( 'NONE', ( #366, #224, #361, #250 ) ) ;
#158 = CARTESIAN_POINT ( 'NONE',  ( 0.1181100000000000066, 1.446430334472939084E-17, 2.244094000000000033 ) ) ;
#159 = ADVANCED_FACE ( 'NONE', ( #186 ), #294, .T. ) ;
#160 = ORIENTED_EDGE ( 'NONE', *, *, #297, .F. ) ;
#161 = CARTESIAN_POINT ( 'NONE',  ( 0.02361963780000000609, 2.892571382878983863E-18, 0.04724400000000000127 ) ) ;
#162 = EDGE_LOOP ( 'NONE', ( #301, #217 ) ) ;
#163 = EDGE_CURVE ( 'NONE', #94, #303, #254, .T. ) ;
#164 = LENGTH_MEASURE_WITH_UNIT ( LENGTH_MEASURE( 0.02539999999999999897 ), #309 );
#165 = CIRCLE ( 'NONE', #274, 0.1031100000000002570 ) ;
#166 = STYLED_ITEM ( 'NONE', ( #175 ), #354 ) ;
#167 = ORIENTED_EDGE ( 'NONE', *, *, #203, .F. ) ;
#168 = CARTESIAN_POINT ( 'NONE',  ( 0.0000000000000000000, 0.0000000000000000000, 2.244094000000000033 ) ) ;
#169 = CYLINDRICAL_SURFACE ( 'NONE', #281, 0.1181100000000000066 ) ;
#170 = DIRECTION ( 'NONE',  ( -1.000000000000000000, 0.0000000000000000000, 0.0000000000000000000 ) ) ;
#171 = SURFACE_SIDE_STYLE ('',( #81 ) ) ;
#172 = EDGE_CURVE ( 'NONE', #258, #95, #38, .T. ) ;
#173 = FILL_AREA_STYLE ('',( #318 ) ) ;
#174 = CIRCLE ( 'NONE', #352, 0.02361963780000000609 ) ;
#175 = PRESENTATION_STYLE_ASSIGNMENT (( #51 ) ) ;
#176 = CARTESIAN_POINT ( 'NONE',  ( 0.0000000000000000000, 0.0000000000000000000, 0.05281114460858953724 ) ) ;
#177 =( LENGTH_UNIT ( ) NAMED_UNIT ( * ) SI_UNIT ( $, .METRE. ) );
#178 = CARTESIAN_POINT ( 'NONE',  ( -0.1031100000000002570, 0.0000000000000000000, 2.244094000000000033 ) ) ;
#179 = DIRECTION ( 'NONE',  ( 0.0000000000000000000, 0.0000000000000000000, 1.000000000000000000 ) ) ;
#180 = AXIS2_PLACEMENT_3D ( 'NONE', #134, #41, #44 ) ;
#181 = ADVANCED_FACE ( 'NONE', ( #355 ), #89, .T. ) ;
#182 = CARTESIAN_POINT ( 'NONE',  ( 0.0000000000000000000, 0.0000000000000000000, 0.04724400000000000127 ) ) ;
#183 = AXIS2_PLACEMENT_3D ( 'NONE', #56, #201, #376 ) ;
#184 = VECTOR ( 'NONE', #196, 39.37007874015748143 ) ;
#185 = ORIENTED_EDGE ( 'NONE', *, *, #172, .T. ) ;
#186 = FACE_OUTER_BOUND ( 'NONE', #1, .T. ) ;
#187 = VERTEX_POINT ( 'NONE', #207 ) ;
#188 = PRESENTATION_LAYER_ASSIGNMENT (  '', '', ( #69 ) ) ;
#189 = AXIS2_PLACEMENT_3D ( 'NONE', #269, #36, #4 ) ;
#190 = CARTESIAN_POINT ( 'NONE',  ( -0.02361963780000000609, 0.0000000000000000000, 0.0000000000000000000 ) ) ;
#191 = ORIENTED_EDGE ( 'NONE', *, *, #156, .T. ) ;
#192 = CARTESIAN_POINT ( 'NONE',  ( 0.1181100000000000066, 1.446430334472939084E-17, 0.2755909999999999749 ) ) ;
#193 = EDGE_LOOP ( 'NONE', ( #167, #306 ) ) ;
#194 = ORIENTED_EDGE ( 'NONE', *, *, #210, .F. ) ;
#195 = PRODUCT_DEFINITION_CONTEXT ( 'detailed design', #299, 'design' ) ;
#196 = DIRECTION ( 'NONE',  ( -0.0000000000000000000, -0.0000000000000000000, -1.000000000000000000 ) ) ;
#197 = CARTESIAN_POINT ( 'NONE',  ( 0.0000000000000000000, 0.0000000000000000000, 2.244094000000000033 ) ) ;
#198 = DIRECTION ( 'NONE',  ( -1.000000000000000000, 0.0000000000000000000, 0.0000000000000000000 ) ) ;
#199 = ORIENTED_EDGE ( 'NONE', *, *, #59, .T. ) ;
#200 = CARTESIAN_POINT ( 'NONE',  ( -0.02263800000000000187, 0.0000000000000000000, 0.05281114460858953724 ) ) ;
#201 = DIRECTION ( 'NONE',  ( -0.0000000000000000000, -0.0000000000000000000, -1.000000000000000000 ) ) ;
#202 = FACE_OUTER_BOUND ( 'NONE', #213, .T. ) ;
#203 = EDGE_CURVE ( 'NONE', #67, #131, #288, .T. ) ;
#204 = DIRECTION ( 'NONE',  ( 1.000000000000000000, 0.0000000000000000000, 0.0000000000000000000 ) ) ;
#205 = VERTEX_POINT ( 'NONE', #178 ) ;
#206 =( NAMED_UNIT ( * ) SI_UNIT ( $, .STERADIAN. ) SOLID_ANGLE_UNIT ( ) );
#207 = CARTESIAN_POINT ( 'NONE',  ( 0.02361963780000000609, 2.892571382878983863E-18, 0.04724400000000000127 ) ) ;
#208 = AXIS2_PLACEMENT_3D ( 'NONE', #347, #50, #79 ) ;
#209 = ORIENTED_EDGE ( 'NONE', *, *, #163, .T. ) ;
#210 = EDGE_CURVE ( 'NONE', #128, #284, #93, .T. ) ;
#211 = MECHANICAL_DESIGN_GEOMETRIC_PRESENTATION_REPRESENTATION (  '', ( #166 ), #275 ) ;
#212 = PRESENTATION_STYLE_ASSIGNMENT (( #249 ) ) ;
#213 = EDGE_LOOP ( 'NONE', ( #104, #9, #335, #331 ) ) ;
#214 = EDGE_CURVE ( 'NONE', #67, #128, #30, .T. ) ;
#215 = ORIENTED_EDGE ( 'NONE', *, *, #145, .T. ) ;
#216 = CARTESIAN_POINT ( 'NONE',  ( 0.0000000000000000000, 0.0000000000000000000, 2.244094000000000033 ) ) ;
#217 = ORIENTED_EDGE ( 'NONE', *, *, #129, .T. ) ;
#218 = AXIS2_PLACEMENT_3D ( 'NONE', #24, #109, #233 ) ;
#219 = COLOUR_RGB ( '',0.7921568627450980005, 0.8196078431372548767, 0.9333333333333333481 ) ;
#220 = CARTESIAN_POINT ( 'NONE',  ( 0.0000000000000000000, 0.0000000000000000000, 2.244094000000000033 ) ) ;
#221 = EDGE_CURVE ( 'NONE', #333, #258, #91, .T. ) ;
#222 = ORIENTED_EDGE ( 'NONE', *, *, #59, .F. ) ;
#223 = DIRECTION ( 'NONE',  ( -0.0000000000000000000, -0.0000000000000000000, -1.000000000000000000 ) ) ;
#224 = ORIENTED_EDGE ( 'NONE', *, *, #80, .T. ) ;
#225 = APPLICATION_CONTEXT ( 'automotive_design' ) ;
#226 = DIRECTION ( 'NONE',  ( -0.0000000000000000000, -0.0000000000000000000, -1.000000000000000000 ) ) ;
#227 = CARTESIAN_POINT ( 'NONE',  ( 0.0000000000000000000, 0.0000000000000000000, 0.0000000000000000000 ) ) ;
#228 = DIRECTION ( 'NONE',  ( -0.0000000000000000000, -0.0000000000000000000, -1.000000000000000000 ) ) ;
#229 = EDGE_CURVE ( 'NONE', #258, #333, #53, .T. ) ;
#230 = ADVANCED_FACE ( 'NONE', ( #321 ), #325, .T. ) ;
#231 = LINE ( 'NONE', #190, #184 ) ;
#232 = LINE ( 'NONE', #374, #153 ) ;
#233 = DIRECTION ( 'NONE',  ( -1.000000000000000000, 0.0000000000000000000, 0.0000000000000000000 ) ) ;
#234 =( CONVERSION_BASED_UNIT ( 'INCH', #22 ) LENGTH_UNIT ( ) NAMED_UNIT ( #25 ) );
#235 = EDGE_CURVE ( 'NONE', #187, #284, #174, .T. ) ;
#236 = CARTESIAN_POINT ( 'NONE',  ( 0.0000000000000000000, 0.0000000000000000000, 0.0000000000000000000 ) ) ;
#237 = AXIS2_PLACEMENT_3D ( 'NONE', #257, #255, #68 ) ;
#238 =( NAMED_UNIT ( * ) SI_UNIT ( $, .STERADIAN. ) SOLID_ANGLE_UNIT ( ) );
#239 = DIRECTION ( 'NONE',  ( 0.0000000000000000000, 0.0000000000000000000, -1.000000000000000000 ) ) ;
#240 = AXIS2_PLACEMENT_3D ( 'NONE', #140, #82, #76 ) ;
#241 = AXIS2_PLACEMENT_3D ( 'NONE', #216, #358, #360 ) ;
#242 = EDGE_CURVE ( 'NONE', #95, #256, #21, .T. ) ;
#243 = DIRECTION ( 'NONE',  ( -0.0000000000000000000, -0.0000000000000000000, -1.000000000000000000 ) ) ;
#244 = ORIENTED_EDGE ( 'NONE', *, *, #221, .T. ) ;
#245 = CIRCLE ( 'NONE', #183, 0.02361963780000000609 ) ;
#246 = UNCERTAINTY_MEASURE_WITH_UNIT (LENGTH_MEASURE( 1.000000000000000082E-05 ), #234, 'distance_accuracy_value', 'NONE');
#247 = VECTOR ( 'NONE', #116, 39.37007874015748143 ) ;
#248 = ORIENTED_EDGE ( 'NONE', *, *, #221, .F. ) ;
#249 = SURFACE_STYLE_USAGE ( .BOTH. , #96 ) ;
#250 = ORIENTED_EDGE ( 'NONE', *, *, #42, .F. ) ;
#251 = PRODUCT_DEFINITION ( 'UNKNOWN', '', #149, #195 ) ;
#252 = FACE_OUTER_BOUND ( 'NONE', #359, .T. ) ;
#253 = EDGE_LOOP ( 'NONE', ( #102, #64, #43, #194 ) ) ;
#254 = CIRCLE ( 'NONE', #314, 0.02361963780000000609 ) ;
#255 = DIRECTION ( 'NONE',  ( -0.0000000000000000000, -0.0000000000000000000, -1.000000000000000000 ) ) ;
#256 = VERTEX_POINT ( 'NONE', #192 ) ;
#257 = CARTESIAN_POINT ( 'NONE',  ( 0.0000000000000000000, 0.0000000000000000000, 0.0000000000000000000 ) ) ;
#258 = VERTEX_POINT ( 'NONE', #108 ) ;
#259 = DIRECTION ( 'NONE',  ( 0.7071067811865358044, 8.659560562354788645E-17, -0.7071067811865590080 ) ) ;
#260 = CARTESIAN_POINT ( 'NONE',  ( 0.0000000000000000000, 0.0000000000000000000, 2.244094000000000033 ) ) ;
#261 = DIRECTION ( 'NONE',  ( -0.0000000000000000000, -0.0000000000000000000, -1.000000000000000000 ) ) ;
#262 =( GEOMETRIC_REPRESENTATION_CONTEXT ( 3 ) GLOBAL_UNCERTAINTY_ASSIGNED_CONTEXT ( ( #14 ) ) GLOBAL_UNIT_ASSIGNED_CONTEXT ( ( #328, #155, #66 ) ) REPRESENTATION_CONTEXT ( 'NONE', 'WORKASPACE' ) );
#263 = AXIS2_PLACEMENT_3D ( 'NONE', #58, #146, #62 ) ;
#264 = DIRECTION ( 'NONE',  ( -1.000000000000000000, 0.0000000000000000000, 0.0000000000000000000 ) ) ;
#265 = PLANE ( 'NONE',  #90 ) ;
#266 = PLANE ( 'NONE',  #324 ) ;
#267 = DIRECTION ( 'NONE',  ( -0.1736481776669307475, 0.0000000000000000000, -0.9848077530122077983 ) ) ;
#268 = CARTESIAN_POINT ( 'NONE',  ( 0.0000000000000000000, 0.0000000000000000000, 0.0000000000000000000 ) ) ;
#269 = CARTESIAN_POINT ( 'NONE',  ( 0.0000000000000000000, 0.0000000000000000000, 0.2755909999999999749 ) ) ;
#270 = AXIS2_PLACEMENT_3D ( 'NONE', #348, #121, #204 ) ;
#271 = EDGE_CURVE ( 'NONE', #5, #205, #119, .T. ) ;
#272 = CARTESIAN_POINT ( 'NONE',  ( 0.0000000000000000000, 0.0000000000000000000, 0.2755909999999999749 ) ) ;
#273 = ORIENTED_EDGE ( 'NONE', *, *, #297, .T. ) ;
#274 = AXIS2_PLACEMENT_3D ( 'NONE', #197, #338, #344 ) ;
#275 =( GEOMETRIC_REPRESENTATION_CONTEXT ( 3 ) GLOBAL_UNCERTAINTY_ASSIGNED_CONTEXT ( ( #246 ) ) GLOBAL_UNIT_ASSIGNED_CONTEXT ( ( #234, #291, #206 ) ) REPRESENTATION_CONTEXT ( 'NONE', 'WORKASPACE' ) );
#276 = EDGE_CURVE ( 'NONE', #284, #94, #231, .T. ) ;
#277 = EDGE_LOOP ( 'NONE', ( #209, #152 ) ) ;
#278 = DIRECTION ( 'NONE',  ( 1.000000000000000000, 0.0000000000000000000, 0.0000000000000000000 ) ) ;
#279 = ORIENTED_EDGE ( 'NONE', *, *, #172, .F. ) ;
#280 = CARTESIAN_POINT ( 'NONE',  ( -0.02361963780000000609, 0.0000000000000000000, 0.04724400000000000127 ) ) ;
#281 = AXIS2_PLACEMENT_3D ( 'NONE', #220, #223, #334 ) ;
#282 = FACE_BOUND ( 'NONE', #193, .T. ) ;
#283 = FACE_OUTER_BOUND ( 'NONE', #357, .T. ) ;
#284 = VERTEX_POINT ( 'NONE', #280 ) ;
#285 = CARTESIAN_POINT ( 'NONE',  ( 0.0000000000000000000, 0.0000000000000000000, 2.244094000000000033 ) ) ;
#286 = DIRECTION ( 'NONE',  ( -0.0000000000000000000, -0.0000000000000000000, -1.000000000000000000 ) ) ;
#287 = CIRCLE ( 'NONE', #240, 0.1181100000000000066 ) ;
#288 = CIRCLE ( 'NONE', #189, 0.02263800000000003310 ) ;
#289 = SURFACE_STYLE_FILL_AREA ( #173 ) ;
#290 = ADVANCED_FACE ( 'NONE', ( #283 ), #372, .T. ) ;
#291 =( NAMED_UNIT ( * ) PLANE_ANGLE_UNIT ( ) SI_UNIT ( $, .RADIAN. ) );
#292 = DIRECTION ( 'NONE',  ( -1.000000000000000000, 0.0000000000000000000, 0.0000000000000000000 ) ) ;
#293 = APPLICATION_PROTOCOL_DEFINITION ( 'draft international standard', 'automotive_design', 1998, #225 ) ;
#294 = CYLINDRICAL_SURFACE ( 'NONE', #84, 0.02361963780000000609 ) ;
#295 = CONICAL_SURFACE ( 'NONE', #304, 0.02361963780000000609, 0.1745329251994333919 ) ;
#296 = DIRECTION ( 'NONE',  ( 1.000000000000000000, 0.0000000000000000000, 0.0000000000000000000 ) ) ;
#297 = EDGE_CURVE ( 'NONE', #5, #333, #19, .T. ) ;
#298 = DIRECTION ( 'NONE',  ( -0.0000000000000000000, -0.0000000000000000000, -1.000000000000000000 ) ) ;
#299 = APPLICATION_CONTEXT ( 'automotive_design' ) ;
#300 =( LENGTH_UNIT ( ) NAMED_UNIT ( * ) SI_UNIT ( $, .METRE. ) );
#301 = ORIENTED_EDGE ( 'NONE', *, *, #242, .T. ) ;
#302 = DIRECTION ( 'NONE',  ( -1.000000000000000000, 0.0000000000000000000, 0.0000000000000000000 ) ) ;
#303 = VERTEX_POINT ( 'NONE', #10 ) ;
#304 = AXIS2_PLACEMENT_3D ( 'NONE', #141, #286, #292 ) ;
#305 = CARTESIAN_POINT ( 'NONE',  ( 0.1031100000000002570, 1.262733314600838667E-17, 2.244094000000000033 ) ) ;
#306 = ORIENTED_EDGE ( 'NONE', *, *, #80, .F. ) ;
#307 = DIRECTION ( 'NONE',  ( -0.0000000000000000000, -0.0000000000000000000, -1.000000000000000000 ) ) ;
#308 = ORIENTED_EDGE ( 'NONE', *, *, #365, .T. ) ;
#309 =( LENGTH_UNIT ( ) NAMED_UNIT ( * ) SI_UNIT ( $, .METRE. ) );
#310 = ADVANCED_FACE ( 'NONE', ( #72 ), #373, .T. ) ;
#311 = ORIENTED_EDGE ( 'NONE', *, *, #229, .T. ) ;
#312 = ADVANCED_FACE ( 'NONE', ( #252 ), #12, .T. ) ;
#313 = VECTOR ( 'NONE', #130, 39.37007874015748143 ) ;
#314 = AXIS2_PLACEMENT_3D ( 'NONE', #332, #6, #127 ) ;
#315 = DIRECTION ( 'NONE',  ( -0.7071067811865358044, 0.0000000000000000000, -0.7071067811865590080 ) ) ;
#316 = FACE_OUTER_BOUND ( 'NONE', #337, .T. ) ;
#317 = CYLINDRICAL_SURFACE ( 'NONE', #208, 0.02361963780000000609 ) ;
#318 = FILL_AREA_STYLE_COLOUR ( '', #118 ) ;
#319 = FACE_OUTER_BOUND ( 'NONE', #122, .T. ) ;
#320 = DIRECTION ( 'NONE',  ( -0.0000000000000000000, 0.0000000000000000000, -1.000000000000000000 ) ) ;
#321 = FACE_OUTER_BOUND ( 'NONE', #157, .T. ) ;
#322 = ORIENTED_EDGE ( 'NONE', *, *, #203, .T. ) ;
#323 = FILL_AREA_STYLE_COLOUR ( '', #219 ) ;
#324 = AXIS2_PLACEMENT_3D ( 'NONE', #236, #83, #106 ) ;
#325 = CYLINDRICAL_SURFACE ( 'NONE', #263, 0.02263800000000001922 ) ;
#326 = CONICAL_SURFACE ( 'NONE', #60, 0.1031100000000002570, 0.7853981633974318477 ) ;
#327 =( GEOMETRIC_REPRESENTATION_CONTEXT ( 3 ) GLOBAL_UNCERTAINTY_ASSIGNED_CONTEXT ( ( #353 ) ) GLOBAL_UNIT_ASSIGNED_CONTEXT ( ( #15, #75, #238 ) ) REPRESENTATION_CONTEXT ( 'NONE', 'WORKASPACE' ) );
#328 =( CONVERSION_BASED_UNIT ( 'INCH', #351 ) LENGTH_UNIT ( ) NAMED_UNIT ( #136 ) );
#329 = ORIENTED_EDGE ( 'NONE', *, *, #210, .T. ) ;
#330 = CARTESIAN_POINT ( 'NONE',  ( 0.0000000000000000000, 0.0000000000000000000, 0.0000000000000000000 ) ) ;
#331 = ORIENTED_EDGE ( 'NONE', *, *, #345, .F. ) ;
#332 = CARTESIAN_POINT ( 'NONE',  ( 0.0000000000000000000, 0.0000000000000000000, 0.0000000000000000000 ) ) ;
#333 = VERTEX_POINT ( 'NONE', #362 ) ;
#334 = DIRECTION ( 'NONE',  ( -1.000000000000000000, 0.0000000000000000000, 0.0000000000000000000 ) ) ;
#335 = ORIENTED_EDGE ( 'NONE', *, *, #276, .T. ) ;
#336 = DIRECTION ( 'NONE',  ( 0.1736481776669307475, 2.126576849575776537E-17, -0.9848077530122077983 ) ) ;
#337 = EDGE_LOOP ( 'NONE', ( #311, #308, #73, #279 ) ) ;
#338 = DIRECTION ( 'NONE',  ( 0.0000000000000000000, 0.0000000000000000000, 1.000000000000000000 ) ) ;
#339 = VECTOR ( 'NONE', #267, 39.37007874015748854 ) ;
#340 = DIRECTION ( 'NONE',  ( -1.000000000000000000, 0.0000000000000000000, 0.0000000000000000000 ) ) ;
#341 = EDGE_CURVE ( 'NONE', #187, #303, #369, .T. ) ;
#342 = DIRECTION ( 'NONE',  ( -1.000000000000000000, 0.0000000000000000000, 0.0000000000000000000 ) ) ;
#343 = ORIENTED_EDGE ( 'NONE', *, *, #214, .F. ) ;
#344 = DIRECTION ( 'NONE',  ( 1.000000000000000000, 0.0000000000000000000, 0.0000000000000000000 ) ) ;
#345 = EDGE_CURVE ( 'NONE', #303, #94, #77, .T. ) ;
#346 = PRODUCT_CONTEXT ( 'NONE', #225, 'mechanical' ) ;
#347 = CARTESIAN_POINT ( 'NONE',  ( 0.0000000000000000000, 0.0000000000000000000, 0.0000000000000000000 ) ) ;
#348 = CARTESIAN_POINT ( 'NONE',  ( 0.0000000000000000000, 0.0000000000000000000, 2.229093999999999465 ) ) ;
#349 = PRODUCT_RELATED_PRODUCT_CATEGORY ( 'part', '', ( #65 ) ) ;
#350 = ADVANCED_FACE ( 'NONE', ( #132 ), #70, .T. ) ;
#351 = LENGTH_MEASURE_WITH_UNIT ( LENGTH_MEASURE( 0.02539999999999999897 ), #300 );
#352 = AXIS2_PLACEMENT_3D ( 'NONE', #182, #298, #33 ) ;
#353 = UNCERTAINTY_MEASURE_WITH_UNIT (LENGTH_MEASURE( 1.000000000000000082E-05 ), #15, 'distance_accuracy_value', 'NONE');
#354 = ADVANCED_BREP_SHAPE_REPRESENTATION ( 'Micro_MMBM-012-7X', ( #147, #107 ), #327 ) ;
#355 = FACE_OUTER_BOUND ( 'NONE', #110, .T. ) ;
#356 = AXIS2_PLACEMENT_3D ( 'NONE', #168, #137, #278 ) ;
#357 = EDGE_LOOP ( 'NONE', ( #18, #273, #368, #45 ) ) ;
#358 = DIRECTION ( 'NONE',  ( -0.0000000000000000000, -0.0000000000000000000, -1.000000000000000000 ) ) ;
#359 = EDGE_LOOP ( 'NONE', ( #199, #133 ) ) ;
#360 = DIRECTION ( 'NONE',  ( -1.000000000000000000, 0.0000000000000000000, 0.0000000000000000000 ) ) ;
#361 = ORIENTED_EDGE ( 'NONE', *, *, #214, .T. ) ;
#362 = CARTESIAN_POINT ( 'NONE',  ( 0.1181100000000000066, 1.446430334472939084E-17, 2.229093999999999465 ) ) ;
#363 = VERTEX_POINT ( 'NONE', #78 ) ;
#364 = CARTESIAN_POINT ( 'NONE',  ( 0.0000000000000000000, 0.0000000000000000000, 0.04724400000000000127 ) ) ;
#365 = EDGE_CURVE ( 'NONE', #333, #256, #105, .T. ) ;
#366 = ORIENTED_EDGE ( 'NONE', *, *, #156, .F. ) ;
#367 = DIRECTION ( 'NONE',  ( -0.0000000000000000000, -0.0000000000000000000, -1.000000000000000000 ) ) ;
#368 = ORIENTED_EDGE ( 'NONE', *, *, #229, .F. ) ;
#369 = LINE ( 'NONE', #49, #313 ) ;
#370 = ADVANCED_FACE ( 'NONE', ( #316 ), #169, .T. ) ;
#371 = FACE_OUTER_BOUND ( 'NONE', #162, .T. ) ;
#372 = CONICAL_SURFACE ( 'NONE', #29, 0.1031100000000002570, 0.7853981633974318477 ) ;
#373 = CYLINDRICAL_SURFACE ( 'NONE', #237, 0.02263800000000001922 ) ;
#374 = CARTESIAN_POINT ( 'NONE',  ( -0.1031100000000002570, 0.0000000000000000000, 2.244094000000000033 ) ) ;
#375 = FACE_OUTER_BOUND ( 'NONE', #100, .T. ) ;
#376 = DIRECTION ( 'NONE',  ( -1.000000000000000000, 0.0000000000000000000, 0.0000000000000000000 ) ) ;
#377 = PRESENTATION_LAYER_ASSIGNMENT (  '', '', ( #166 ) ) ;
#378 = EDGE_CURVE ( 'NONE', #363, #187, #103, .T. ) ;
#379 = CARTESIAN_POINT ( 'NONE',  ( -0.02263800000000001922, 0.0000000000000000000, 0.0000000000000000000 ) ) ;
ENDSEC;
END-ISO-10303-21;
