ISO-10303-21;
HEADER;
FILE_DESCRIPTION (( 'STEP AP214' ),
    '1' );
FILE_NAME ('Micro_AMRM-014-2X.STEP',
    '2021-09-01T17:14:08',
    ( '' ),
    ( '' ),
    'SwSTEP 2.0',
    'SolidWorks 2020',
    '' );
FILE_SCHEMA (( 'AUTOMOTIVE_DESIGN' ));
ENDSEC;

DATA;
#1 = PRODUCT_DEFINITION ( 'UNKNOWN', '', #265, #64 ) ;
#2 = DIRECTION ( 'NONE',  ( 0.0000000000000000000, 0.0000000000000000000, 1.000000000000000000 ) ) ;
#3 = AXIS2_PLACEMENT_3D ( 'NONE', #162, #4, #51 ) ;
#4 = DIRECTION ( 'NONE',  ( 0.0000000000000000000, 0.0000000000000000000, 1.000000000000000000 ) ) ;
#5 = CONICAL_SURFACE ( 'NONE', #237, 0.06374000000000018540, 0.7853981633974528309 ) ;
#6 = EDGE_LOOP ( 'NONE', ( #17, #100 ) ) ;
#7 = ORIENTED_EDGE ( 'NONE', *, *, #173, .T. ) ;
#8 = ORIENTED_EDGE ( 'NONE', *, *, #230, .T. ) ;
#9 = ADVANCED_FACE ( 'NONE', ( #172 ), #222, .T. ) ;
#10 = CIRCLE ( 'NONE', #71, 0.06374000000000018540 ) ;
#11 = VERTEX_POINT ( 'NONE', #272 ) ;
#12 = FACE_OUTER_BOUND ( 'NONE', #195, .T. ) ;
#13 = EDGE_CURVE ( 'NONE', #235, #288, #199, .T. ) ;
#14 = DIRECTION ( 'NONE',  ( 1.000000000000000000, 0.0000000000000000000, 0.0000000000000000000 ) ) ;
#15 = DIRECTION ( 'NONE',  ( -1.000000000000000000, 0.0000000000000000000, 1.224646799147353207E-16 ) ) ;
#16 =( GEOMETRIC_REPRESENTATION_CONTEXT ( 3 ) GLOBAL_UNCERTAINTY_ASSIGNED_CONTEXT ( ( #177 ) ) GLOBAL_UNIT_ASSIGNED_CONTEXT ( ( #158, #231, #281 ) ) REPRESENTATION_CONTEXT ( 'NONE', 'WORKASPACE' ) );
#17 = ORIENTED_EDGE ( 'NONE', *, *, #113, .T. ) ;
#18 = DIRECTION ( 'NONE',  ( -0.0000000000000000000, -0.0000000000000000000, -1.000000000000000000 ) ) ;
#19 = LINE ( 'NONE', #20, #74 ) ;
#20 = CARTESIAN_POINT ( 'NONE',  ( -0.02753144100000000025, 0.0000000000000000000, 3.371629109656420496E-18 ) ) ;
#21 = DIRECTION ( 'NONE',  ( 0.0000000000000000000, 0.0000000000000000000, 1.000000000000000000 ) ) ;
#22 = ADVANCED_FACE ( 'NONE', ( #245 ), #89, .T. ) ;
#23 = CARTESIAN_POINT ( 'NONE',  ( 2.025002468262114287E-17, 0.0000000000000000000, 0.1653539999999999732 ) ) ;
#24 = CIRCLE ( 'NONE', #58, 0.02753144100000000025 ) ;
#25 = AXIS2_PLACEMENT_3D ( 'NONE', #184, #18, #70 ) ;
#26 = FACE_OUTER_BOUND ( 'NONE', #261, .T. ) ;
#27 =( LENGTH_UNIT ( ) NAMED_UNIT ( * ) SI_UNIT ( $, .METRE. ) );
#28 = CARTESIAN_POINT ( 'NONE',  ( 2.025002468262114287E-17, 0.0000000000000000000, 0.1653539999999999732 ) ) ;
#29 = ORIENTED_EDGE ( 'NONE', *, *, #230, .F. ) ;
#30 = CARTESIAN_POINT ( 'NONE',  ( 0.0000000000000000000, 0.0000000000000000000, 0.0000000000000000000 ) ) ;
#31 = AXIS2_PLACEMENT_3D ( 'NONE', #38, #43, #134 ) ;
#32 = VERTEX_POINT ( 'NONE', #203 ) ;
#33 = ORIENTED_EDGE ( 'NONE', *, *, #41, .T. ) ;
#34 = EDGE_LOOP ( 'NONE', ( #140, #75, #196, #166 ) ) ;
#35 = ORIENTED_EDGE ( 'NONE', *, *, #41, .F. ) ;
#36 = CYLINDRICAL_SURFACE ( 'NONE', #277, 0.02753144100000000025 ) ;
#37 = DIRECTION ( 'NONE',  ( -1.000000000000000000, 0.0000000000000000000, 0.0000000000000000000 ) ) ;
#38 = CARTESIAN_POINT ( 'NONE',  ( 0.0000000000000000000, 0.0000000000000000000, 1.953504000000000129 ) ) ;
#39 = UNCERTAINTY_MEASURE_WITH_UNIT (LENGTH_MEASURE( 1.000000000000000082E-05 ), #148, 'distance_accuracy_value', 'NONE');
#40 = AXIS2_PLACEMENT_3D ( 'NONE', #170, #138, #210 ) ;
#41 = EDGE_CURVE ( 'NONE', #190, #169, #19, .T. ) ;
#42 = DIRECTION ( 'NONE',  ( -1.000000000000000000, 0.0000000000000000000, 1.224646799147353207E-16 ) ) ;
#43 = DIRECTION ( 'NONE',  ( 0.0000000000000000000, 0.0000000000000000000, -1.000000000000000000 ) ) ;
#44 = LINE ( 'NONE', #133, #160 ) ;
#45 = DIRECTION ( 'NONE',  ( -0.0000000000000000000, -0.0000000000000000000, -1.000000000000000000 ) ) ;
#46 = FACE_OUTER_BOUND ( 'NONE', #123, .T. ) ;
#47 = LENGTH_MEASURE_WITH_UNIT ( LENGTH_MEASURE( 0.02539999999999999897 ), #27 );
#48 = CIRCLE ( 'NONE', #193, 0.07874000000000001831 ) ;
#49 = FILL_AREA_STYLE ('',( #73 ) ) ;
#50 = CARTESIAN_POINT ( 'NONE',  ( 5.581599287213225837E-17, 0.0000000000000000000, 0.4557721696655193111 ) ) ;
#51 = DIRECTION ( 'NONE',  ( 1.000000000000000000, 0.0000000000000000000, 0.0000000000000000000 ) ) ;
#52 = VERTEX_POINT ( 'NONE', #127 ) ;
#53 = PLANE ( 'NONE',  #290 ) ;
#54 = APPLICATION_CONTEXT ( 'automotive_design' ) ;
#55 = EDGE_LOOP ( 'NONE', ( #78, #287, #144, #258 ) ) ;
#56 = EDGE_LOOP ( 'NONE', ( #141, #214, #7, #8 ) ) ;
#57 = DIRECTION ( 'NONE',  ( 0.0000000000000000000, 0.0000000000000000000, 1.000000000000000000 ) ) ;
#58 = AXIS2_PLACEMENT_3D ( 'NONE', #174, #179, #15 ) ;
#59 = AXIS2_PLACEMENT_3D ( 'NONE', #159, #76, #182 ) ;
#60 = DIRECTION ( 'NONE',  ( -1.000000000000000000, 0.0000000000000000000, 0.0000000000000000000 ) ) ;
#61 = DIRECTION ( 'NONE',  ( -1.000000000000000000, 0.0000000000000000000, 0.0000000000000000000 ) ) ;
#62 =( NAMED_UNIT ( * ) SI_UNIT ( $, .STERADIAN. ) SOLID_ANGLE_UNIT ( ) );
#63 = DIRECTION ( 'NONE',  ( -1.224646799147353207E-16, -0.0000000000000000000, -1.000000000000000000 ) ) ;
#64 = PRODUCT_DEFINITION_CONTEXT ( 'detailed design', #197, 'design' ) ;
#65 = VECTOR ( 'NONE', #152, 39.37007874015748143 ) ;
#66 = ADVANCED_FACE ( 'NONE', ( #12 ), #36, .T. ) ;
#67 = DIRECTION ( 'NONE',  ( -1.224646799147353207E-16, -0.0000000000000000000, -1.000000000000000000 ) ) ;
#68 = DIRECTION ( 'NONE',  ( -0.0000000000000000000, -0.0000000000000000000, -1.000000000000000000 ) ) ;
#69 = FACE_OUTER_BOUND ( 'NONE', #56, .T. ) ;
#70 = DIRECTION ( 'NONE',  ( -1.000000000000000000, 0.0000000000000000000, 0.0000000000000000000 ) ) ;
#71 = AXIS2_PLACEMENT_3D ( 'NONE', #200, #21, #271 ) ;
#72 = SURFACE_STYLE_FILL_AREA ( #49 ) ;
#73 = FILL_AREA_STYLE_COLOUR ( '', #137 ) ;
#74 = VECTOR ( 'NONE', #126, 39.37007874015748143 ) ;
#75 = ORIENTED_EDGE ( 'NONE', *, *, #239, .T. ) ;
#76 = DIRECTION ( 'NONE',  ( -1.224646799147353207E-16, -0.0000000000000000000, -1.000000000000000000 ) ) ;
#77 = ORIENTED_EDGE ( 'NONE', *, *, #13, .T. ) ;
#78 = ORIENTED_EDGE ( 'NONE', *, *, #239, .F. ) ;
#79 = AXIS2_PLACEMENT_3D ( 'NONE', #155, #112, #14 ) ;
#80 = EDGE_LOOP ( 'NONE', ( #216, #212, #283, #29 ) ) ;
#81 = DIRECTION ( 'NONE',  ( -1.000000000000000000, 0.0000000000000000000, 0.0000000000000000000 ) ) ;
#82 = ORIENTED_EDGE ( 'NONE', *, *, #262, .T. ) ;
#83 = CIRCLE ( 'NONE', #96, 0.02753144100000000025 ) ;
#84 = DIRECTION ( 'NONE',  ( -1.224646799147353207E-16, -0.0000000000000000000, -1.000000000000000000 ) ) ;
#85 =( NAMED_UNIT ( * ) SI_UNIT ( $, .STERADIAN. ) SOLID_ANGLE_UNIT ( ) );
#86 = DIMENSIONAL_EXPONENTS ( 1.000000000000000000, 0.0000000000000000000, 0.0000000000000000000, 0.0000000000000000000, 0.0000000000000000000, 0.0000000000000000000, 0.0000000000000000000 ) ;
#87 = DIRECTION ( 'NONE',  ( 0.0000000000000000000, 0.0000000000000000000, -1.000000000000000000 ) ) ;
#88 = DIRECTION ( 'NONE',  ( 1.000000000000000000, 0.0000000000000000000, 0.0000000000000000000 ) ) ;
#89 = CONICAL_SURFACE ( 'NONE', #254, 0.06374000000000018540, 0.7853981633974528309 ) ;
#90 =( CONVERSION_BASED_UNIT ( 'INCH', #246 ) LENGTH_UNIT ( ) NAMED_UNIT ( #248 ) );
#91 = FILL_AREA_STYLE_COLOUR ( '', #247 ) ;
#92 = PRODUCT_CONTEXT ( 'NONE', #54, 'mechanical' ) ;
#93 = VECTOR ( 'NONE', #111, 39.37007874015748143 ) ;
#94 = EDGE_CURVE ( 'NONE', #32, #52, #201, .T. ) ;
#95 = CLOSED_SHELL ( 'NONE', ( #161, #211, #114, #293, #9, #238, #22, #232, #66, #220 ) ) ;
#96 = AXIS2_PLACEMENT_3D ( 'NONE', #23, #135, #223 ) ;
#97 = SURFACE_STYLE_USAGE ( .BOTH. , #255 ) ;
#98 = ORIENTED_EDGE ( 'NONE', *, *, #191, .T. ) ;
#99 = VERTEX_POINT ( 'NONE', #297 ) ;
#100 = ORIENTED_EDGE ( 'NONE', *, *, #103, .T. ) ;
#101 = ORIENTED_EDGE ( 'NONE', *, *, #103, .F. ) ;
#102 = DIMENSIONAL_EXPONENTS ( 1.000000000000000000, 0.0000000000000000000, 0.0000000000000000000, 0.0000000000000000000, 0.0000000000000000000, 0.0000000000000000000, 0.0000000000000000000 ) ;
#103 = EDGE_CURVE ( 'NONE', #288, #169, #24, .T. ) ;
#104 = CARTESIAN_POINT ( 'NONE',  ( 0.0000000000000000000, 0.0000000000000000000, 1.968503999999999809 ) ) ;
#105 = CARTESIAN_POINT ( 'NONE',  ( 4.129054797052776047E-34, 0.0000000000000000000, 3.371629109656420496E-18 ) ) ;
#106 = AXIS2_PLACEMENT_3D ( 'NONE', #147, #57, #88 ) ;
#107 = DIRECTION ( 'NONE',  ( -1.224646799147353207E-16, -0.0000000000000000000, -1.000000000000000000 ) ) ;
#108 = CYLINDRICAL_SURFACE ( 'NONE', #25, 0.07874000000000001831 ) ;
#109 = UNCERTAINTY_MEASURE_WITH_UNIT (LENGTH_MEASURE( 1.000000000000000082E-05 ), #90, 'distance_accuracy_value', 'NONE');
#110 = CARTESIAN_POINT ( 'NONE',  ( 0.02753144100000002106, 0.0000000000000000000, 0.1653539999999999732 ) ) ;
#111 = DIRECTION ( 'NONE',  ( 0.1736481776669314137, 0.0000000000000000000, 0.9848077530122077983 ) ) ;
#112 = DIRECTION ( 'NONE',  ( 1.224646799147353207E-16, 0.0000000000000000000, 1.000000000000000000 ) ) ;
#113 = EDGE_CURVE ( 'NONE', #169, #288, #264, .T. ) ;
#114 = ADVANCED_FACE ( 'NONE', ( #295 ), #5, .T. ) ;
#115 = PRESENTATION_LAYER_ASSIGNMENT (  '', '', ( #228 ) ) ;
#116 = EDGE_CURVE ( 'NONE', #32, #99, #120, .T. ) ;
#117 = FACE_OUTER_BOUND ( 'NONE', #6, .T. ) ;
#118 = ORIENTED_EDGE ( 'NONE', *, *, #116, .T. ) ;
#119 = EDGE_CURVE ( 'NONE', #190, #235, #289, .T. ) ;
#120 = CIRCLE ( 'NONE', #106, 0.06374000000000018540 ) ;
#121 = ORIENTED_EDGE ( 'NONE', *, *, #253, .F. ) ;
#122 = EDGE_CURVE ( 'NONE', #52, #11, #157, .T. ) ;
#123 = EDGE_LOOP ( 'NONE', ( #163, #98, #167, #121 ) ) ;
#124 = STYLED_ITEM ( 'NONE', ( #208 ), #227 ) ;
#125 = ORIENTED_EDGE ( 'NONE', *, *, #186, .T. ) ;
#126 = DIRECTION ( 'NONE',  ( -1.224646799147353207E-16, -0.0000000000000000000, -1.000000000000000000 ) ) ;
#127 = CARTESIAN_POINT ( 'NONE',  ( -0.07874000000000001831, 0.0000000000000000000, 1.953504000000000129 ) ) ;
#128 = CARTESIAN_POINT ( 'NONE',  ( 0.02753144100000002106, 0.0000000000000000000, 0.1653539999999999732 ) ) ;
#129 = PRODUCT_RELATED_PRODUCT_CATEGORY ( 'part', '', ( #149 ) ) ;
#130 = CARTESIAN_POINT ( 'NONE',  ( 0.0000000000000000000, 0.0000000000000000000, 0.0000000000000000000 ) ) ;
#131 =( NAMED_UNIT ( * ) PLANE_ANGLE_UNIT ( ) SI_UNIT ( $, .RADIAN. ) );
#132 = CARTESIAN_POINT ( 'NONE',  ( -0.02753144100000000025, 0.0000000000000000000, 6.743258219312840991E-18 ) ) ;
#133 = CARTESIAN_POINT ( 'NONE',  ( -0.07874000000000001831, 0.0000000000000000000, 1.968503999999999809 ) ) ;
#134 = DIRECTION ( 'NONE',  ( 1.000000000000000000, 0.0000000000000000000, 0.0000000000000000000 ) ) ;
#135 = DIRECTION ( 'NONE',  ( -1.224646799147353207E-16, -0.0000000000000000000, -1.000000000000000000 ) ) ;
#136 = FILL_AREA_STYLE ('',( #91 ) ) ;
#137 = COLOUR_RGB ( '',0.7921568627450980005, 0.8196078431372548767, 0.9333333333333333481 ) ;
#138 = DIRECTION ( 'NONE',  ( 0.0000000000000000000, 0.0000000000000000000, -1.000000000000000000 ) ) ;
#139 = CIRCLE ( 'NONE', #40, 0.07874000000000001831 ) ;
#140 = ORIENTED_EDGE ( 'NONE', *, *, #262, .F. ) ;
#141 = ORIENTED_EDGE ( 'NONE', *, *, #291, .F. ) ;
#142 = VECTOR ( 'NONE', #270, 39.37007874015748143 ) ;
#143 = PRESENTATION_LAYER_ASSIGNMENT (  '', '', ( #124 ) ) ;
#144 = ORIENTED_EDGE ( 'NONE', *, *, #94, .T. ) ;
#145 = ORIENTED_EDGE ( 'NONE', *, *, #13, .F. ) ;
#146 = CARTESIAN_POINT ( 'NONE',  ( 0.02753144100000000025, 3.371629109656420496E-18, -3.371629109656420496E-18 ) ) ;
#147 = CARTESIAN_POINT ( 'NONE',  ( 0.0000000000000000000, 0.0000000000000000000, 1.968503999999999809 ) ) ;
#148 =( CONVERSION_BASED_UNIT ( 'INCH', #207 ) LENGTH_UNIT ( ) NAMED_UNIT ( #86 ) );
#149 = PRODUCT ( 'Micro_AMRM-014-2X', 'Micro_AMRM-014-2X', '', ( #92 ) ) ;
#150 = FACE_OUTER_BOUND ( 'NONE', #213, .T. ) ;
#151 = MECHANICAL_DESIGN_GEOMETRIC_PRESENTATION_REPRESENTATION (  '', ( #228 ), #221 ) ;
#152 = DIRECTION ( 'NONE',  ( 0.7071067811865507924, 8.659560562354973534E-17, -0.7071067811865443531 ) ) ;
#153 = ORIENTED_EDGE ( 'NONE', *, *, #119, .F. ) ;
#154 = PRESENTATION_STYLE_ASSIGNMENT (( #275 ) ) ;
#155 = CARTESIAN_POINT ( 'NONE',  ( 2.025002468262114287E-17, 0.0000000000000000000, 0.1653539999999999732 ) ) ;
#156 = FACE_OUTER_BOUND ( 'NONE', #194, .T. ) ;
#157 = CIRCLE ( 'NONE', #31, 0.07874000000000001831 ) ;
#158 =( CONVERSION_BASED_UNIT ( 'INCH', #47 ) LENGTH_UNIT ( ) NAMED_UNIT ( #102 ) );
#159 = CARTESIAN_POINT ( 'NONE',  ( 5.581599287213225837E-17, 0.0000000000000000000, 0.4557721696655193111 ) ) ;
#160 = VECTOR ( 'NONE', #68, 39.37007874015748143 ) ;
#161 = ADVANCED_FACE ( 'NONE', ( #150 ), #176, .T. ) ;
#162 = CARTESIAN_POINT ( 'NONE',  ( 0.0000000000000000000, 0.0000000000000000000, 0.0000000000000000000 ) ) ;
#163 = ORIENTED_EDGE ( 'NONE', *, *, #122, .T. ) ;
#164 = DIRECTION ( 'NONE',  ( 1.000000000000000000, 0.0000000000000000000, 0.0000000000000000000 ) ) ;
#165 = ORIENTED_EDGE ( 'NONE', *, *, #113, .F. ) ;
#166 = ORIENTED_EDGE ( 'NONE', *, *, #94, .F. ) ;
#167 = ORIENTED_EDGE ( 'NONE', *, *, #186, .F. ) ;
#168 = PRODUCT_DEFINITION_SHAPE ( 'NONE', 'NONE',  #1 ) ;
#169 = VERTEX_POINT ( 'NONE', #132 ) ;
#170 = CARTESIAN_POINT ( 'NONE',  ( 0.0000000000000000000, 0.0000000000000000000, 1.953504000000000129 ) ) ;
#171 = AXIS2_PLACEMENT_3D ( 'NONE', #130, #63, #249 ) ;
#172 = FACE_OUTER_BOUND ( 'NONE', #80, .T. ) ;
#173 = EDGE_CURVE ( 'NONE', #235, #241, #224, .T. ) ;
#174 = CARTESIAN_POINT ( 'NONE',  ( 4.129054797052776047E-34, 0.0000000000000000000, 3.371629109656420496E-18 ) ) ;
#175 = DIRECTION ( 'NONE',  ( -0.1736481776669312194, 2.126576849575783625E-17, 0.9848077530122080203 ) ) ;
#176 = CYLINDRICAL_SURFACE ( 'NONE', #171, 0.02753144100000000025 ) ;
#177 = UNCERTAINTY_MEASURE_WITH_UNIT (LENGTH_MEASURE( 1.000000000000000082E-05 ), #158, 'distance_accuracy_value', 'NONE');
#178 = EDGE_CURVE ( 'NONE', #11, #52, #139, .T. ) ;
#179 = DIRECTION ( 'NONE',  ( -1.224646799147353207E-16, -0.0000000000000000000, -1.000000000000000000 ) ) ;
#180 = VECTOR ( 'NONE', #175, 39.37007874015747433 ) ;
#181 =( LENGTH_UNIT ( ) NAMED_UNIT ( * ) SI_UNIT ( $, .METRE. ) );
#182 = DIRECTION ( 'NONE',  ( 1.000000000000000000, 0.0000000000000000000, 0.0000000000000000000 ) ) ;
#183 =( NAMED_UNIT ( * ) PLANE_ANGLE_UNIT ( ) SI_UNIT ( $, .RADIAN. ) );
#184 = CARTESIAN_POINT ( 'NONE',  ( 0.0000000000000000000, 0.0000000000000000000, 1.968503999999999809 ) ) ;
#185 = APPLICATION_PROTOCOL_DEFINITION ( 'draft international standard', 'automotive_design', 1998, #197 ) ;
#186 = EDGE_CURVE ( 'NONE', #236, #241, #209, .T. ) ;
#187 = AXIS2_PLACEMENT_3D ( 'NONE', #266, #244, #60 ) ;
#188 = CONICAL_SURFACE ( 'NONE', #79, 0.02753144100000000025, 0.1745329251994339192 ) ;
#189 = DIRECTION ( 'NONE',  ( 1.224646799147353207E-16, 0.0000000000000000000, 1.000000000000000000 ) ) ;
#190 = VERTEX_POINT ( 'NONE', #256 ) ;
#191 = EDGE_CURVE ( 'NONE', #11, #241, #234, .T. ) ;
#192 = AXIS2_PLACEMENT_3D ( 'NONE', #217, #67, #81 ) ;
#193 = AXIS2_PLACEMENT_3D ( 'NONE', #50, #296, #274 ) ;
#194 = EDGE_LOOP ( 'NONE', ( #118, #82 ) ) ;
#195 = EDGE_LOOP ( 'NONE', ( #145, #242, #33, #101 ) ) ;
#196 = ORIENTED_EDGE ( 'NONE', *, *, #122, .F. ) ;
#197 = APPLICATION_CONTEXT ( 'automotive_design' ) ;
#198 = MECHANICAL_DESIGN_GEOMETRIC_PRESENTATION_REPRESENTATION (  '', ( #124 ), #16 ) ;
#199 = LINE ( 'NONE', #146, #279 ) ;
#200 = CARTESIAN_POINT ( 'NONE',  ( 0.0000000000000000000, 0.0000000000000000000, 1.968503999999999809 ) ) ;
#201 = LINE ( 'NONE', #218, #142 ) ;
#202 = PLANE ( 'NONE',  #204 ) ;
#203 = CARTESIAN_POINT ( 'NONE',  ( -0.06374000000000018540, 0.0000000000000000000, 1.968503999999999809 ) ) ;
#204 = AXIS2_PLACEMENT_3D ( 'NONE', #276, #2, #273 ) ;
#205 = DIRECTION ( 'NONE',  ( 0.0000000000000000000, 0.0000000000000000000, 1.000000000000000000 ) ) ;
#206 = CARTESIAN_POINT ( 'NONE',  ( -0.07873999999999996280, 0.0000000000000000000, 0.4557721696655193111 ) ) ;
#207 = LENGTH_MEASURE_WITH_UNIT ( LENGTH_MEASURE( 0.02539999999999999897 ), #181 );
#208 = PRESENTATION_STYLE_ASSIGNMENT (( #97 ) ) ;
#209 = CIRCLE ( 'NONE', #59, 0.07874000000000001831 ) ;
#210 = DIRECTION ( 'NONE',  ( 1.000000000000000000, 0.0000000000000000000, 0.0000000000000000000 ) ) ;
#211 = ADVANCED_FACE ( 'NONE', ( #26 ), #243, .T. ) ;
#212 = ORIENTED_EDGE ( 'NONE', *, *, #178, .T. ) ;
#213 = EDGE_LOOP ( 'NONE', ( #286, #77, #165, #35 ) ) ;
#214 = ORIENTED_EDGE ( 'NONE', *, *, #280, .F. ) ;
#215 =( GEOMETRIC_REPRESENTATION_CONTEXT ( 3 ) GLOBAL_UNCERTAINTY_ASSIGNED_CONTEXT ( ( #109 ) ) GLOBAL_UNIT_ASSIGNED_CONTEXT ( ( #90, #131, #62 ) ) REPRESENTATION_CONTEXT ( 'NONE', 'WORKASPACE' ) );
#216 = ORIENTED_EDGE ( 'NONE', *, *, #191, .F. ) ;
#217 = CARTESIAN_POINT ( 'NONE',  ( 2.025002468262114287E-17, 0.0000000000000000000, 0.1653539999999999732 ) ) ;
#218 = CARTESIAN_POINT ( 'NONE',  ( -0.06374000000000018540, 0.0000000000000000000, 1.968503999999999809 ) ) ;
#219 =( LENGTH_UNIT ( ) NAMED_UNIT ( * ) SI_UNIT ( $, .METRE. ) );
#220 = ADVANCED_FACE ( 'NONE', ( #117 ), #53, .F. ) ;
#221 =( GEOMETRIC_REPRESENTATION_CONTEXT ( 3 ) GLOBAL_UNCERTAINTY_ASSIGNED_CONTEXT ( ( #39 ) ) GLOBAL_UNIT_ASSIGNED_CONTEXT ( ( #148, #183, #85 ) ) REPRESENTATION_CONTEXT ( 'NONE', 'WORKASPACE' ) );
#222 = CYLINDRICAL_SURFACE ( 'NONE', #187, 0.07874000000000001831 ) ;
#223 = DIRECTION ( 'NONE',  ( -1.000000000000000000, 0.0000000000000000000, 0.0000000000000000000 ) ) ;
#224 = LINE ( 'NONE', #110, #93 ) ;
#225 = CARTESIAN_POINT ( 'NONE',  ( 0.02753144100000000025, 3.371629109656420496E-18, 0.0000000000000000000 ) ) ;
#226 = CARTESIAN_POINT ( 'NONE',  ( 0.0000000000000000000, 0.0000000000000000000, 0.0000000000000000000 ) ) ;
#227 = ADVANCED_BREP_SHAPE_REPRESENTATION ( 'Micro_AMRM-014-2X', ( #269, #3 ), #215 ) ;
#228 = STYLED_ITEM ( 'NONE', ( #154 ), #269 ) ;
#229 = SURFACE_SIDE_STYLE ('',( #299 ) ) ;
#230 = EDGE_CURVE ( 'NONE', #241, #236, #48, .T. ) ;
#231 =( NAMED_UNIT ( * ) PLANE_ANGLE_UNIT ( ) SI_UNIT ( $, .RADIAN. ) );
#232 = ADVANCED_FACE ( 'NONE', ( #69 ), #188, .T. ) ;
#233 = APPLICATION_PROTOCOL_DEFINITION ( 'draft international standard', 'automotive_design', 1998, #54 ) ;
#234 = LINE ( 'NONE', #257, #259 ) ;
#235 = VERTEX_POINT ( 'NONE', #128 ) ;
#236 = VERTEX_POINT ( 'NONE', #206 ) ;
#237 = AXIS2_PLACEMENT_3D ( 'NONE', #104, #87, #61 ) ;
#238 = ADVANCED_FACE ( 'NONE', ( #156 ), #202, .T. ) ;
#239 = EDGE_CURVE ( 'NONE', #99, #11, #268, .T. ) ;
#240 = DIRECTION ( 'NONE',  ( 1.000000000000000000, 0.0000000000000000000, -0.0000000000000000000 ) ) ;
#241 = VERTEX_POINT ( 'NONE', #252 ) ;
#242 = ORIENTED_EDGE ( 'NONE', *, *, #280, .T. ) ;
#243 = CONICAL_SURFACE ( 'NONE', #285, 0.02753144100000000025, 0.1745329251994339192 ) ;
#244 = DIRECTION ( 'NONE',  ( -0.0000000000000000000, -0.0000000000000000000, -1.000000000000000000 ) ) ;
#245 = FACE_OUTER_BOUND ( 'NONE', #55, .T. ) ;
#246 = LENGTH_MEASURE_WITH_UNIT ( LENGTH_MEASURE( 0.02539999999999999897 ), #219 );
#247 = COLOUR_RGB ( '',0.7921568627450980005, 0.8196078431372548767, 0.9333333333333333481 ) ;
#248 = DIMENSIONAL_EXPONENTS ( 1.000000000000000000, 0.0000000000000000000, 0.0000000000000000000, 0.0000000000000000000, 0.0000000000000000000, 0.0000000000000000000, 0.0000000000000000000 ) ;
#249 = DIRECTION ( 'NONE',  ( -1.000000000000000000, 0.0000000000000000000, 1.224646799147353207E-16 ) ) ;
#250 = CARTESIAN_POINT ( 'NONE',  ( 0.06374000000000018540, 7.805898697765251255E-18, 1.968503999999999809 ) ) ;
#251 = CARTESIAN_POINT ( 'NONE',  ( 0.0000000000000000000, 0.0000000000000000000, 1.968503999999999809 ) ) ;
#252 = CARTESIAN_POINT ( 'NONE',  ( 0.07874000000000007382, 9.642868896486266213E-18, 0.4557721696655193111 ) ) ;
#253 = EDGE_CURVE ( 'NONE', #52, #236, #44, .T. ) ;
#254 = AXIS2_PLACEMENT_3D ( 'NONE', #251, #292, #37 ) ;
#255 = SURFACE_SIDE_STYLE ('',( #72 ) ) ;
#256 = CARTESIAN_POINT ( 'NONE',  ( -0.02753144099999997943, 6.507249003071340850E-18, 0.1653539999999999732 ) ) ;
#257 = CARTESIAN_POINT ( 'NONE',  ( 0.07874000000000001831, 9.642868896486260050E-18, 1.968503999999999809 ) ) ;
#258 = ORIENTED_EDGE ( 'NONE', *, *, #178, .F. ) ;
#259 = VECTOR ( 'NONE', #45, 39.37007874015748143 ) ;
#260 = ORIENTED_EDGE ( 'NONE', *, *, #173, .F. ) ;
#261 = EDGE_LOOP ( 'NONE', ( #153, #282, #125, #260 ) ) ;
#262 = EDGE_CURVE ( 'NONE', #99, #32, #10, .T. ) ;
#263 = DIRECTION ( 'NONE',  ( -1.224646799147353207E-16, -0.0000000000000000000, -1.000000000000000000 ) ) ;
#264 = CIRCLE ( 'NONE', #284, 0.02753144100000000025 ) ;
#265 = PRODUCT_DEFINITION_FORMATION_WITH_SPECIFIED_SOURCE ( 'ANY', '', #149, .NOT_KNOWN. ) ;
#266 = CARTESIAN_POINT ( 'NONE',  ( 0.0000000000000000000, 0.0000000000000000000, 1.968503999999999809 ) ) ;
#267 = DIRECTION ( 'NONE',  ( -1.000000000000000000, 0.0000000000000000000, 1.224646799147353207E-16 ) ) ;
#268 = LINE ( 'NONE', #250, #65 ) ;
#269 = MANIFOLD_SOLID_BREP ( 'Cut-Revolve1', #95 ) ;
#270 = DIRECTION ( 'NONE',  ( -0.7071067811865507924, 0.0000000000000000000, -0.7071067811865443531 ) ) ;
#271 = DIRECTION ( 'NONE',  ( 1.000000000000000000, 0.0000000000000000000, 0.0000000000000000000 ) ) ;
#272 = CARTESIAN_POINT ( 'NONE',  ( 0.07874000000000001831, 9.642868896486260050E-18, 1.953504000000000129 ) ) ;
#273 = DIRECTION ( 'NONE',  ( 1.000000000000000000, 0.0000000000000000000, -0.0000000000000000000 ) ) ;
#274 = DIRECTION ( 'NONE',  ( 1.000000000000000000, 0.0000000000000000000, 0.0000000000000000000 ) ) ;
#275 = SURFACE_STYLE_USAGE ( .BOTH. , #229 ) ;
#276 = CARTESIAN_POINT ( 'NONE',  ( 0.0000000000000000000, 0.0000000000000000000, 1.968503999999999809 ) ) ;
#277 = AXIS2_PLACEMENT_3D ( 'NONE', #226, #107, #42 ) ;
#278 = SHAPE_DEFINITION_REPRESENTATION ( #168, #227 ) ;
#279 = VECTOR ( 'NONE', #263, 39.37007874015748143 ) ;
#280 = EDGE_CURVE ( 'NONE', #235, #190, #83, .T. ) ;
#281 =( NAMED_UNIT ( * ) SI_UNIT ( $, .STERADIAN. ) SOLID_ANGLE_UNIT ( ) );
#282 = ORIENTED_EDGE ( 'NONE', *, *, #291, .T. ) ;
#283 = ORIENTED_EDGE ( 'NONE', *, *, #253, .T. ) ;
#284 = AXIS2_PLACEMENT_3D ( 'NONE', #105, #84, #267 ) ;
#285 = AXIS2_PLACEMENT_3D ( 'NONE', #28, #189, #164 ) ;
#286 = ORIENTED_EDGE ( 'NONE', *, *, #119, .T. ) ;
#287 = ORIENTED_EDGE ( 'NONE', *, *, #116, .F. ) ;
#288 = VERTEX_POINT ( 'NONE', #225 ) ;
#289 = CIRCLE ( 'NONE', #192, 0.02753144100000000025 ) ;
#290 = AXIS2_PLACEMENT_3D ( 'NONE', #30, #205, #240 ) ;
#291 = EDGE_CURVE ( 'NONE', #190, #236, #298, .T. ) ;
#292 = DIRECTION ( 'NONE',  ( 0.0000000000000000000, 0.0000000000000000000, -1.000000000000000000 ) ) ;
#293 = ADVANCED_FACE ( 'NONE', ( #46 ), #108, .T. ) ;
#294 = CARTESIAN_POINT ( 'NONE',  ( -0.02753144099999997943, 3.371629109656420496E-18, 0.1653539999999999732 ) ) ;
#295 = FACE_OUTER_BOUND ( 'NONE', #34, .T. ) ;
#296 = DIRECTION ( 'NONE',  ( -1.224646799147353207E-16, -0.0000000000000000000, -1.000000000000000000 ) ) ;
#297 = CARTESIAN_POINT ( 'NONE',  ( 0.06374000000000018540, 8.724383797125754882E-18, 1.968503999999999809 ) ) ;
#298 = LINE ( 'NONE', #294, #180 ) ;
#299 = SURFACE_STYLE_FILL_AREA ( #136 ) ;
ENDSEC;
END-ISO-10303-21;
