ISO-10303-21;
HEADER;
FILE_DESCRIPTION (( 'STEP AP214' ),
    '1' );
FILE_NAME ('59517.STEP',
    '2023-07-24T15:08:42',
    ( '' ),
    ( '' ),
    'SwSTEP 2.0',
    'SolidWorks 2023',
    '' );
FILE_SCHEMA (( 'AUTOMOTIVE_DESIGN' ));
ENDSEC;

DATA;
#1 = PRESENTATION_LAYER_ASSIGNMENT (  '', '', ( #23 ) ) ;
#2 = PRESENTATION_LAYER_ASSIGNMENT (  '', '', ( #36 ) ) ;
#3 =( GEOMETRIC_REPRESENTATION_CONTEXT ( 3 ) GLOBAL_UNCERTAINTY_ASSIGNED_CONTEXT ( ( #350 ) ) GLOBAL_UNIT_ASSIGNED_CONTEXT ( ( #235, #49, #283 ) ) REPRESENTATION_CONTEXT ( 'NONE', 'WORKASPACE' ) );
#4 = ORIENTED_EDGE ( 'NONE', *, *, #74, .F. ) ;
#5 = EDGE_LOOP ( 'NONE', ( #191, #303, #128, #101 ) ) ;
#6 = DIRECTION ( 'NONE',  ( -1.000000000000000000, 0.000000000000000000, 0.000000000000000000 ) ) ;
#7 = APPLICATION_PROTOCOL_DEFINITION ( 'draft international standard', 'automotive_design', 1998, #81 ) ;
#8 = CARTESIAN_POINT ( 'NONE',  ( 3.000000000000000000, 63.00000000000000000, 0.000000000000000000 ) ) ;
#9 = ADVANCED_FACE ( 'NONE', ( #165 ), #277, .T. ) ;
#10 =( LENGTH_UNIT ( ) NAMED_UNIT ( * ) SI_UNIT ( .MILLI., .METRE. ) );
#11 = CARTESIAN_POINT ( 'NONE',  ( 0.000000000000000000, 0.000000000000000000, 0.000000000000000000 ) ) ;
#12 = AXIS2_PLACEMENT_3D ( 'NONE', #11, #141, #178 ) ;
#13 = PRESENTATION_STYLE_ASSIGNMENT (( #312 ) ) ;
#14 =( LENGTH_UNIT ( ) NAMED_UNIT ( * ) SI_UNIT ( .MILLI., .METRE. ) );
#15 =( LENGTH_UNIT ( ) NAMED_UNIT ( * ) SI_UNIT ( .MILLI., .METRE. ) );
#16 = PRESENTATION_STYLE_ASSIGNMENT (( #287 ) ) ;
#17 = DIRECTION ( 'NONE',  ( -1.000000000000000000, 0.000000000000000000, 0.000000000000000000 ) ) ;
#18 = EDGE_CURVE ( 'NONE', #34, #369, #214, .T. ) ;
#19 = AXIS2_PLACEMENT_3D ( 'NONE', #239, #179, #325 ) ;
#20 = EDGE_LOOP ( 'NONE', ( #140, #192 ) ) ;
#21 = SURFACE_STYLE_USAGE ( .BOTH. , #120 ) ;
#22 = ADVANCED_FACE ( 'NONE', ( #260 ), #79, .F. ) ;
#23 = STYLED_ITEM ( 'NONE', ( #232 ), #9 ) ;
#24 = CIRCLE ( 'NONE', #118, 3.000000000000000000 ) ;
#25 = CARTESIAN_POINT ( 'NONE',  ( 0.000000000000000000, 0.5000000000000000000, 0.000000000000000000 ) ) ;
#26 =( NAMED_UNIT ( * ) SI_UNIT ( $, .STERADIAN. ) SOLID_ANGLE_UNIT ( ) );
#27 = UNCERTAINTY_MEASURE_WITH_UNIT (LENGTH_MEASURE( 1.000000000000000082E-05 ), #14, 'distance_accuracy_value', 'NONE');
#28 = CLOSED_SHELL ( 'NONE', ( #9, #315, #259, #272, #84, #93 ) ) ;
#29 =( GEOMETRIC_REPRESENTATION_CONTEXT ( 3 ) GLOBAL_UNCERTAINTY_ASSIGNED_CONTEXT ( ( #32 ) ) GLOBAL_UNIT_ASSIGNED_CONTEXT ( ( #274, #352, #245 ) ) REPRESENTATION_CONTEXT ( 'NONE', 'WORKASPACE' ) );
#30 = MECHANICAL_DESIGN_GEOMETRIC_PRESENTATION_REPRESENTATION (  '', ( #322 ), #88 ) ;
#31 = MANIFOLD_SOLID_BREP ( 'Revolve - Cutting Edge', #28 ) ;
#32 = UNCERTAINTY_MEASURE_WITH_UNIT (LENGTH_MEASURE( 1.000000000000000082E-05 ), #274, 'distance_accuracy_value', 'NONE');
#33 = FACE_OUTER_BOUND ( 'NONE', #264, .T. ) ;
#34 = VERTEX_POINT ( 'NONE', #130 ) ;
#35 = ORIENTED_EDGE ( 'NONE', *, *, #368, .F. ) ;
#36 = STYLED_ITEM ( 'NONE', ( #225 ), #84 ) ;
#37 = AXIS2_PLACEMENT_3D ( 'NONE', #347, #89, #210 ) ;
#38 = EDGE_CURVE ( 'NONE', #173, #289, #275, .T. ) ;
#39 = CARTESIAN_POINT ( 'NONE',  ( 3.367778697655221505E-16, 0.000000000000000000, 2.500000000000000000 ) ) ;
#40 = EDGE_LOOP ( 'NONE', ( #154, #193, #237, #95 ) ) ;
#41 = LINE ( 'NONE', #200, #217 ) ;
#42 = CARTESIAN_POINT ( 'NONE',  ( 0.000000000000000000, 0.000000000000000000, 0.000000000000000000 ) ) ;
#43 = VERTEX_POINT ( 'NONE', #94 ) ;
#44 = COLOUR_RGB ( '',1.000000000000000000, 0.000000000000000000, 0.000000000000000000 ) ;
#45 =( GEOMETRIC_REPRESENTATION_CONTEXT ( 3 ) GLOBAL_UNCERTAINTY_ASSIGNED_CONTEXT ( ( #60 ) ) GLOBAL_UNIT_ASSIGNED_CONTEXT ( ( #10, #278, #221 ) ) REPRESENTATION_CONTEXT ( 'NONE', 'WORKASPACE' ) );
#46 = FACE_OUTER_BOUND ( 'NONE', #171, .T. ) ;
#47 = CYLINDRICAL_SURFACE ( 'NONE', #12, 3.000000000000000000 ) ;
#48 = ADVANCED_FACE ( 'NONE', ( #167 ), #356, .T. ) ;
#49 =( NAMED_UNIT ( * ) PLANE_ANGLE_UNIT ( ) SI_UNIT ( $, .RADIAN. ) );
#50 = CARTESIAN_POINT ( 'NONE',  ( 0.000000000000000000, 0.000000000000000000, 0.000000000000000000 ) ) ;
#51 = DIRECTION ( 'NONE',  ( 0.000000000000000000, 1.000000000000000000, 0.000000000000000000 ) ) ;
#52 = CARTESIAN_POINT ( 'NONE',  ( 0.000000000000000000, 0.000000000000000000, -2.500000000000000000 ) ) ;
#53 = ORIENTED_EDGE ( 'NONE', *, *, #332, .T. ) ;
#54 = CLOSED_SHELL ( 'NONE', ( #48, #22, #105, #122 ) ) ;
#55 = DIRECTION ( 'NONE',  ( -1.213614799521464586E-16, 1.000000000000000000, -0.000000000000000000 ) ) ;
#56 =( LENGTH_UNIT ( ) NAMED_UNIT ( * ) SI_UNIT ( .MILLI., .METRE. ) );
#57 = ORIENTED_EDGE ( 'NONE', *, *, #18, .F. ) ;
#58 = DIRECTION ( 'NONE',  ( -1.213614799521464586E-16, 1.000000000000000000, -0.000000000000000000 ) ) ;
#59 = UNCERTAINTY_MEASURE_WITH_UNIT (LENGTH_MEASURE( 1.000000000000000082E-05 ), #15, 'distance_accuracy_value', 'NONE');
#60 = UNCERTAINTY_MEASURE_WITH_UNIT (LENGTH_MEASURE( 1.000000000000000082E-05 ), #10, 'distance_accuracy_value', 'NONE');
#61 = UNCERTAINTY_MEASURE_WITH_UNIT (LENGTH_MEASURE( 1.000000000000000082E-05 ), #56, 'distance_accuracy_value', 'NONE');
#62 = SURFACE_STYLE_FILL_AREA ( #357 ) ;
#63 = AXIS2_PLACEMENT_3D ( 'NONE', #103, #229, #197 ) ;
#64 = EDGE_CURVE ( 'NONE', #43, #205, #243, .T. ) ;
#65 = DIRECTION ( 'NONE',  ( -1.213614799521464586E-16, 1.000000000000000000, -0.000000000000000000 ) ) ;
#66 = VERTEX_POINT ( 'NONE', #52 ) ;
#67 = ORIENTED_EDGE ( 'NONE', *, *, #269, .F. ) ;
#68 = CARTESIAN_POINT ( 'NONE',  ( 8.023096076392732812E-15, 9.000000000000001776, 0.000000000000000000 ) ) ;
#69 = EDGE_LOOP ( 'NONE', ( #344, #320 ) ) ;
#70 = CIRCLE ( 'NONE', #181, 2.999999999999992450 ) ;
#71 = CARTESIAN_POINT ( 'NONE',  ( 3.000000000000000888, 9.000000000000001776, 3.673940397442056910E-16 ) ) ;
#72 = ORIENTED_EDGE ( 'NONE', *, *, #131, .T. ) ;
#73 = DIRECTION ( 'NONE',  ( 0.000000000000000000, 0.000000000000000000, -1.000000000000000000 ) ) ;
#74 = EDGE_CURVE ( 'NONE', #238, #220, #41, .T. ) ;
#75 = EDGE_CURVE ( 'NONE', #369, #34, #331, .T. ) ;
#76 = COLOUR_RGB ( '',1.000000000000000000, 0.000000000000000000, 0.000000000000000000 ) ;
#77 = PRESENTATION_LAYER_ASSIGNMENT (  '', '', ( #109 ) ) ;
#78 = FILL_AREA_STYLE ('',( #231 ) ) ;
#79 = PLANE ( 'NONE',  #240 ) ;
#80 = FILL_AREA_STYLE_COLOUR ( '', #44 ) ;
#81 = APPLICATION_CONTEXT ( 'automotive_design' ) ;
#82 =( NAMED_UNIT ( * ) PLANE_ANGLE_UNIT ( ) SI_UNIT ( $, .RADIAN. ) );
#83 = DIRECTION ( 'NONE',  ( -0.000000000000000000, -1.000000000000000000, -0.000000000000000000 ) ) ;
#84 = ADVANCED_FACE ( 'NONE', ( #363 ), #47, .T. ) ;
#85 = FILL_AREA_STYLE_COLOUR ( '', #119 ) ;
#86 = COLOUR_RGB ( '',1.000000000000000000, 0.000000000000000000, 0.000000000000000000 ) ;
#87 =( NAMED_UNIT ( * ) PLANE_ANGLE_UNIT ( ) SI_UNIT ( $, .RADIAN. ) );
#88 =( GEOMETRIC_REPRESENTATION_CONTEXT ( 3 ) GLOBAL_UNCERTAINTY_ASSIGNED_CONTEXT ( ( #216 ) ) GLOBAL_UNIT_ASSIGNED_CONTEXT ( ( #370, #296, #112 ) ) REPRESENTATION_CONTEXT ( 'NONE', 'WORKASPACE' ) );
#89 = DIRECTION ( 'NONE',  ( -0.000000000000000000, -1.000000000000000000, -0.000000000000000000 ) ) ;
#90 = SURFACE_STYLE_FILL_AREA ( #324 ) ;
#91 = CIRCLE ( 'NONE', #108, 2.500000000000000000 ) ;
#92 = CIRCLE ( 'NONE', #19, 3.000000000000000000 ) ;
#93 = ADVANCED_FACE ( 'NONE', ( #204 ), #146, .T. ) ;
#94 = CARTESIAN_POINT ( 'NONE',  ( 3.673940397442059868E-16, 0.5000000000000000000, 3.000000000000000000 ) ) ;
#95 = ORIENTED_EDGE ( 'NONE', *, *, #75, .F. ) ;
#96 = AXIS2_PLACEMENT_3D ( 'NONE', #343, #311, #230 ) ;
#97 = PRESENTATION_LAYER_ASSIGNMENT (  '', '', ( #322 ) ) ;
#98 = SURFACE_SIDE_STYLE ('',( #358 ) ) ;
#99 = FILL_AREA_STYLE_COLOUR ( '', #86 ) ;
#100 = AXIS2_PLACEMENT_3D ( 'NONE', #233, #255, #17 ) ;
#101 = ORIENTED_EDGE ( 'NONE', *, *, #209, .F. ) ;
#102 =( NAMED_UNIT ( * ) SI_UNIT ( $, .STERADIAN. ) SOLID_ANGLE_UNIT ( ) );
#103 = CARTESIAN_POINT ( 'NONE',  ( 0.000000000000000000, 9.000000000000000000, 0.000000000000000000 ) ) ;
#104 = SURFACE_STYLE_USAGE ( .BOTH. , #98 ) ;
#105 = ADVANCED_FACE ( 'NONE', ( #258 ), #107, .T. ) ;
#106 = CARTESIAN_POINT ( 'NONE',  ( 2.999999999999996891, 63.00000000000000000, 3.673940397442054445E-16 ) ) ;
#107 = CYLINDRICAL_SURFACE ( 'NONE', #100, 2.999999999999995559 ) ;
#108 = AXIS2_PLACEMENT_3D ( 'NONE', #295, #158, #302 ) ;
#109 = STYLED_ITEM ( 'NONE', ( #265 ), #294 ) ;
#110 = SURFACE_STYLE_FILL_AREA ( #78 ) ;
#111 = FILL_AREA_STYLE ('',( #80 ) ) ;
#112 =( NAMED_UNIT ( * ) SI_UNIT ( $, .STERADIAN. ) SOLID_ANGLE_UNIT ( ) );
#113 = EDGE_CURVE ( 'NONE', #43, #220, #24, .T. ) ;
#114 = CARTESIAN_POINT ( 'NONE',  ( 8.023096076392732812E-15, 9.000000000000000000, 0.000000000000000000 ) ) ;
#115 = ORIENTED_EDGE ( 'NONE', *, *, #113, .F. ) ;
#116 = FILL_AREA_STYLE ('',( #349 ) ) ;
#117 = STYLED_ITEM ( 'NONE', ( #16 ), #31 ) ;
#118 = AXIS2_PLACEMENT_3D ( 'NONE', #316, #228, #73 ) ;
#119 = COLOUR_RGB ( '',1.000000000000000000, 0.000000000000000000, 0.000000000000000000 ) ;
#120 = SURFACE_SIDE_STYLE ('',( #270 ) ) ;
#121 = CIRCLE ( 'NONE', #63, 3.000000000000000000 ) ;
#122 = ADVANCED_FACE ( 'NONE', ( #151 ), #261, .F. ) ;
#123 = PRODUCT ( '59517', '59517', '', ( #335 ) ) ;
#124 = ORIENTED_EDGE ( 'NONE', *, *, #196, .F. ) ;
#125 = DIRECTION ( 'NONE',  ( 0.000000000000000000, 0.000000000000000000, -1.000000000000000000 ) ) ;
#126 = UNCERTAINTY_MEASURE_WITH_UNIT (LENGTH_MEASURE( 1.000000000000000082E-05 ), #198, 'distance_accuracy_value', 'NONE');
#127 = MECHANICAL_DESIGN_GEOMETRIC_PRESENTATION_REPRESENTATION (  '', ( #23 ), #142 ) ;
#128 = ORIENTED_EDGE ( 'NONE', *, *, #131, .F. ) ;
#129 = PRESENTATION_LAYER_ASSIGNMENT (  '', '', ( #267 ) ) ;
#130 = CARTESIAN_POINT ( 'NONE',  ( -2.999999999999997335, 63.00000000000000000, 0.000000000000000000 ) ) ;
#131 = EDGE_CURVE ( 'NONE', #66, #205, #91, .T. ) ;
#132 = VECTOR ( 'NONE', #338, 1000.000000000000000 ) ;
#133 = CARTESIAN_POINT ( 'NONE',  ( 3.000000000000000444, 63.00000000000000000, 3.673940397442056910E-16 ) ) ;
#134 = DIRECTION ( 'NONE',  ( 0.000000000000000000, 0.000000000000000000, 1.000000000000000000 ) ) ;
#135 = FILL_AREA_STYLE_COLOUR ( '', #254 ) ;
#136 = DIRECTION ( 'NONE',  ( 1.000000000000000000, 0.000000000000000000, -1.224646799147353207E-16 ) ) ;
#137 = ORIENTED_EDGE ( 'NONE', *, *, #113, .T. ) ;
#138 =( NAMED_UNIT ( * ) PLANE_ANGLE_UNIT ( ) SI_UNIT ( $, .RADIAN. ) );
#139 = CARTESIAN_POINT ( 'NONE',  ( 0.000000000000000000, 0.5000000000000000000, -3.000000000000000000 ) ) ;
#140 = ORIENTED_EDGE ( 'NONE', *, *, #18, .T. ) ;
#141 = DIRECTION ( 'NONE',  ( -0.000000000000000000, -1.000000000000000000, -0.000000000000000000 ) ) ;
#142 =( GEOMETRIC_REPRESENTATION_CONTEXT ( 3 ) GLOBAL_UNCERTAINTY_ASSIGNED_CONTEXT ( ( #27 ) ) GLOBAL_UNIT_ASSIGNED_CONTEXT ( ( #14, #87, #182 ) ) REPRESENTATION_CONTEXT ( 'NONE', 'WORKASPACE' ) );
#143 = STYLED_ITEM ( 'NONE', ( #336 ), #259 ) ;
#144 = DIRECTION ( 'NONE',  ( 1.000000000000000000, 0.000000000000000000, 0.000000000000000000 ) ) ;
#145 = DIRECTION ( 'NONE',  ( 0.000000000000000000, 0.000000000000000000, -1.000000000000000000 ) ) ;
#146 = PLANE ( 'NONE',  #166 ) ;
#147 = ORIENTED_EDGE ( 'NONE', *, *, #209, .T. ) ;
#148 = DIRECTION ( 'NONE',  ( 0.000000000000000000, 0.000000000000000000, -1.000000000000000000 ) ) ;
#149 = DIRECTION ( 'NONE',  ( 0.000000000000000000, 0.000000000000000000, -1.000000000000000000 ) ) ;
#150 = SURFACE_SIDE_STYLE ('',( #110 ) ) ;
#151 = FACE_OUTER_BOUND ( 'NONE', #20, .T. ) ;
#152 = CIRCLE ( 'NONE', #328, 0.5000000000000000000 ) ;
#153 = FILL_AREA_STYLE_COLOUR ( '', #282 ) ;
#154 = ORIENTED_EDGE ( 'NONE', *, *, #340, .F. ) ;
#155 = DIRECTION ( 'NONE',  ( 0.000000000000000000, 0.000000000000000000, -1.000000000000000000 ) ) ;
#156 = DIRECTION ( 'NONE',  ( -1.213614799521464586E-16, 1.000000000000000000, 0.000000000000000000 ) ) ;
#157 = AXIS2_PLACEMENT_3D ( 'NONE', #263, #279, #125 ) ;
#158 = DIRECTION ( 'NONE',  ( -0.000000000000000000, -1.000000000000000000, -0.000000000000000000 ) ) ;
#159 = DIRECTION ( 'NONE',  ( 1.000000000000000000, 1.213614799521464586E-16, 0.000000000000000000 ) ) ;
#160 = MECHANICAL_DESIGN_GEOMETRIC_PRESENTATION_REPRESENTATION (  '', ( #143 ), #29 ) ;
#161 = DIRECTION ( 'NONE',  ( -1.213614799521464586E-16, 1.000000000000000000, -0.000000000000000000 ) ) ;
#162 = APPLICATION_PROTOCOL_DEFINITION ( 'draft international standard', 'automotive_design', 1998, #329 ) ;
#163 = CARTESIAN_POINT ( 'NONE',  ( 3.673940397442059868E-16, 0.000000000000000000, 3.000000000000000000 ) ) ;
#164 = ORIENTED_EDGE ( 'NONE', *, *, #253, .F. ) ;
#165 = FACE_OUTER_BOUND ( 'NONE', #339, .T. ) ;
#166 = AXIS2_PLACEMENT_3D ( 'NONE', #341, #51, #177 ) ;
#167 = FACE_OUTER_BOUND ( 'NONE', #317, .T. ) ;
#168 = DIRECTION ( 'NONE',  ( -1.000000000000000000, 0.000000000000000000, 0.000000000000000000 ) ) ;
#169 = DIRECTION ( 'NONE',  ( -1.000000000000000000, 0.000000000000000000, 0.000000000000000000 ) ) ;
#170 = CARTESIAN_POINT ( 'NONE',  ( 0.000000000000000000, 9.000000000000000000, -3.000000000000000000 ) ) ;
#171 = EDGE_LOOP ( 'NONE', ( #308, #137, #147, #246 ) ) ;
#172 = CARTESIAN_POINT ( 'NONE',  ( 0.000000000000000000, 0.000000000000000000, 0.000000000000000000 ) ) ;
#173 = VERTEX_POINT ( 'NONE', #71 ) ;
#174 = CARTESIAN_POINT ( 'NONE',  ( 0.000000000000000000, 0.000000000000000000, 0.000000000000000000 ) ) ;
#175 = FILL_AREA_STYLE ('',( #99 ) ) ;
#176 = FILL_AREA_STYLE ('',( #153 ) ) ;
#177 = DIRECTION ( 'NONE',  ( 0.000000000000000000, -0.000000000000000000, 1.000000000000000000 ) ) ;
#178 = DIRECTION ( 'NONE',  ( 0.000000000000000000, 0.000000000000000000, -1.000000000000000000 ) ) ;
#179 = DIRECTION ( 'NONE',  ( -0.000000000000000000, -1.000000000000000000, -0.000000000000000000 ) ) ;
#180 = AXIS2_PLACEMENT_3D ( 'NONE', #174, #257, #148 ) ;
#181 = AXIS2_PLACEMENT_3D ( 'NONE', #293, #58, #169 ) ;
#182 =( NAMED_UNIT ( * ) SI_UNIT ( $, .STERADIAN. ) SOLID_ANGLE_UNIT ( ) );
#183 =( GEOMETRIC_REPRESENTATION_CONTEXT ( 3 ) GLOBAL_UNCERTAINTY_ASSIGNED_CONTEXT ( ( #211 ) ) GLOBAL_UNIT_ASSIGNED_CONTEXT ( ( #319, #82, #26 ) ) REPRESENTATION_CONTEXT ( 'NONE', 'WORKASPACE' ) );
#184 = TOROIDAL_SURFACE ( 'NONE', #37, 2.500000000000000000, 0.5000000000000000000 ) ;
#185 = AXIS2_PLACEMENT_3D ( 'NONE', #284, #55, #314 ) ;
#186 = PRESENTATION_LAYER_ASSIGNMENT (  '', '', ( #360 ) ) ;
#187 = SURFACE_SIDE_STYLE ('',( #62 ) ) ;
#188 = LINE ( 'NONE', #163, #194 ) ;
#189 = EDGE_LOOP ( 'NONE', ( #67, #35 ) ) ;
#190 = PRODUCT_DEFINITION ( 'UNKNOWN', '', #354, #244 ) ;
#191 = ORIENTED_EDGE ( 'NONE', *, *, #305, .T. ) ;
#192 = ORIENTED_EDGE ( 'NONE', *, *, #75, .T. ) ;
#193 = ORIENTED_EDGE ( 'NONE', *, *, #38, .T. ) ;
#194 = VECTOR ( 'NONE', #300, 1000.000000000000000 ) ;
#195 = SURFACE_SIDE_STYLE ('',( #288 ) ) ;
#196 = EDGE_CURVE ( 'NONE', #289, #34, #223, .T. ) ;
#197 = DIRECTION ( 'NONE',  ( 0.000000000000000000, 0.000000000000000000, -1.000000000000000000 ) ) ;
#198 =( LENGTH_UNIT ( ) NAMED_UNIT ( * ) SI_UNIT ( .MILLI., .METRE. ) );
#199 = DIRECTION ( 'NONE',  ( -0.000000000000000000, -1.000000000000000000, -0.000000000000000000 ) ) ;
#200 = CARTESIAN_POINT ( 'NONE',  ( 0.000000000000000000, 0.000000000000000000, -3.000000000000000000 ) ) ;
#201 =( GEOMETRIC_REPRESENTATION_CONTEXT ( 3 ) GLOBAL_UNCERTAINTY_ASSIGNED_CONTEXT ( ( #59 ) ) GLOBAL_UNIT_ASSIGNED_CONTEXT ( ( #15, #138, #102 ) ) REPRESENTATION_CONTEXT ( 'NONE', 'WORKASPACE' ) );
#202 = AXIS2_PLACEMENT_3D ( 'NONE', #172, #281, #144 ) ;
#203 = DIRECTION ( 'NONE',  ( -1.000000000000000000, -1.213614799521464586E-16, 0.000000000000000000 ) ) ;
#204 = FACE_OUTER_BOUND ( 'NONE', #189, .T. ) ;
#205 = VERTEX_POINT ( 'NONE', #39 ) ;
#206 = CARTESIAN_POINT ( 'NONE',  ( -2.999999999999984457, 9.000000000000001776, 0.000000000000000000 ) ) ;
#207 = SURFACE_SIDE_STYLE ('',( #266 ) ) ;
#208 = SURFACE_STYLE_USAGE ( .BOTH. , #213 ) ;
#209 = EDGE_CURVE ( 'NONE', #220, #66, #152, .T. ) ;
#210 = DIRECTION ( 'NONE',  ( 0.000000000000000000, 0.000000000000000000, -1.000000000000000000 ) ) ;
#211 = UNCERTAINTY_MEASURE_WITH_UNIT (LENGTH_MEASURE( 1.000000000000000082E-05 ), #319, 'distance_accuracy_value', 'NONE');
#212 = CARTESIAN_POINT ( 'NONE',  ( 3.673940397442059868E-16, 9.000000000000000000, 3.000000000000000000 ) ) ;
#213 = SURFACE_SIDE_STYLE ('',( #90 ) ) ;
#214 = CIRCLE ( 'NONE', #185, 2.999999999999998668 ) ;
#215 = PRESENTATION_LAYER_ASSIGNMENT (  '', '', ( #117 ) ) ;
#216 = UNCERTAINTY_MEASURE_WITH_UNIT (LENGTH_MEASURE( 1.000000000000000082E-05 ), #370, 'distance_accuracy_value', 'NONE');
#217 = VECTOR ( 'NONE', #280, 1000.000000000000000 ) ;
#218 =( GEOMETRIC_REPRESENTATION_CONTEXT ( 3 ) GLOBAL_UNCERTAINTY_ASSIGNED_CONTEXT ( ( #61 ) ) GLOBAL_UNIT_ASSIGNED_CONTEXT ( ( #56, #348, #318 ) ) REPRESENTATION_CONTEXT ( 'NONE', 'WORKASPACE' ) );
#219 = CARTESIAN_POINT ( 'NONE',  ( 0.000000000000000000, 0.5000000000000000000, -2.500000000000000000 ) ) ;
#220 = VERTEX_POINT ( 'NONE', #139 ) ;
#221 =( NAMED_UNIT ( * ) SI_UNIT ( $, .STERADIAN. ) SOLID_ANGLE_UNIT ( ) );
#222 = ORIENTED_EDGE ( 'NONE', *, *, #253, .T. ) ;
#223 = LINE ( 'NONE', #355, #241 ) ;
#224 = MECHANICAL_DESIGN_GEOMETRIC_PRESENTATION_REPRESENTATION (  '', ( #36 ), #297 ) ;
#225 = PRESENTATION_STYLE_ASSIGNMENT (( #366 ) ) ;
#226 = PRODUCT_DEFINITION_SHAPE ( 'NONE', 'NONE',  #190 ) ;
#227 = ORIENTED_EDGE ( 'NONE', *, *, #340, .T. ) ;
#228 = DIRECTION ( 'NONE',  ( -0.000000000000000000, -1.000000000000000000, -0.000000000000000000 ) ) ;
#229 = DIRECTION ( 'NONE',  ( -0.000000000000000000, -1.000000000000000000, -0.000000000000000000 ) ) ;
#230 = DIRECTION ( 'NONE',  ( -1.000000000000000000, 0.000000000000000000, 0.000000000000000000 ) ) ;
#231 = FILL_AREA_STYLE_COLOUR ( '', #346 ) ;
#232 = PRESENTATION_STYLE_ASSIGNMENT (( #104 ) ) ;
#233 = CARTESIAN_POINT ( 'NONE',  ( 1.469576158976823750E-15, 63.00000000000000000, 0.000000000000000000 ) ) ;
#234 = AXIS2_PLACEMENT_3D ( 'NONE', #42, #199, #145 ) ;
#235 =( LENGTH_UNIT ( ) NAMED_UNIT ( * ) SI_UNIT ( .MILLI., .METRE. ) );
#236 = SURFACE_SIDE_STYLE ('',( #256 ) ) ;
#237 = ORIENTED_EDGE ( 'NONE', *, *, #196, .T. ) ;
#238 = VERTEX_POINT ( 'NONE', #170 ) ;
#239 = CARTESIAN_POINT ( 'NONE',  ( 0.000000000000000000, 0.5000000000000000000, 0.000000000000000000 ) ) ;
#240 = AXIS2_PLACEMENT_3D ( 'NONE', #114, #156, #203 ) ;
#241 = VECTOR ( 'NONE', #65, 1000.000000000000000 ) ;
#242 = AXIS2_PLACEMENT_3D ( 'NONE', #68, #334, #249 ) ;
#243 = CIRCLE ( 'NONE', #365, 0.5000000000000000000 ) ;
#244 = PRODUCT_DEFINITION_CONTEXT ( 'detailed design', #81, 'design' ) ;
#245 =( NAMED_UNIT ( * ) SI_UNIT ( $, .STERADIAN. ) SOLID_ANGLE_UNIT ( ) );
#246 = ORIENTED_EDGE ( 'NONE', *, *, #271, .F. ) ;
#247 = AXIS2_PLACEMENT_3D ( 'NONE', #8, #326, #159 ) ;
#248 = ORIENTED_EDGE ( 'NONE', *, *, #74, .T. ) ;
#249 = DIRECTION ( 'NONE',  ( -1.000000000000000000, 0.000000000000000000, 0.000000000000000000 ) ) ;
#250 = PLANE ( 'NONE',  #180 ) ;
#251 = FILL_AREA_STYLE ('',( #135 ) ) ;
#252 = DIRECTION ( 'NONE',  ( -1.224646799147353454E-16, 0.000000000000000000, -1.000000000000000000 ) ) ;
#253 = EDGE_CURVE ( 'NONE', #301, #43, #188, .T. ) ;
#254 = COLOUR_RGB ( '',1.000000000000000000, 0.000000000000000000, 0.000000000000000000 ) ;
#255 = DIRECTION ( 'NONE',  ( -1.213614799521464586E-16, 1.000000000000000000, -0.000000000000000000 ) ) ;
#256 = SURFACE_STYLE_FILL_AREA ( #111 ) ;
#257 = DIRECTION ( 'NONE',  ( 0.000000000000000000, -1.000000000000000000, -0.000000000000000000 ) ) ;
#258 = FACE_OUTER_BOUND ( 'NONE', #40, .T. ) ;
#259 = ADVANCED_FACE ( 'NONE', ( #33 ), #250, .T. ) ;
#260 = FACE_OUTER_BOUND ( 'NONE', #69, .T. ) ;
#261 = PLANE ( 'NONE',  #247 ) ;
#262 = MECHANICAL_DESIGN_GEOMETRIC_PRESENTATION_REPRESENTATION (  '', ( #360 ), #3 ) ;
#263 = CARTESIAN_POINT ( 'NONE',  ( 0.000000000000000000, 9.000000000000000000, 0.000000000000000000 ) ) ;
#264 = EDGE_LOOP ( 'NONE', ( #72, #359 ) ) ;
#265 = PRESENTATION_STYLE_ASSIGNMENT (( #21 ) ) ;
#266 = SURFACE_STYLE_FILL_AREA ( #176 ) ;
#267 = STYLED_ITEM ( 'NONE', ( #285 ), #93 ) ;
#268 = COLOUR_RGB ( '',0.7921568627450980005, 0.8196078431372548767, 0.9333333333333333481 ) ;
#269 = EDGE_CURVE ( 'NONE', #238, #301, #121, .T. ) ;
#270 = SURFACE_STYLE_FILL_AREA ( #116 ) ;
#271 = EDGE_CURVE ( 'NONE', #205, #66, #342, .T. ) ;
#272 = ADVANCED_FACE ( 'NONE', ( #46 ), #276, .T. ) ;
#273 = SHAPE_DEFINITION_REPRESENTATION ( #226, #367 ) ;
#274 =( LENGTH_UNIT ( ) NAMED_UNIT ( * ) SI_UNIT ( .MILLI., .METRE. ) );
#275 = CIRCLE ( 'NONE', #242, 2.999999999999992450 ) ;
#276 = TOROIDAL_SURFACE ( 'NONE', #290, 2.500000000000000000, 0.5000000000000000000 ) ;
#277 = CYLINDRICAL_SURFACE ( 'NONE', #345, 3.000000000000000000 ) ;
#278 =( NAMED_UNIT ( * ) PLANE_ANGLE_UNIT ( ) SI_UNIT ( $, .RADIAN. ) );
#279 = DIRECTION ( 'NONE',  ( -0.000000000000000000, -1.000000000000000000, -0.000000000000000000 ) ) ;
#280 = DIRECTION ( 'NONE',  ( -0.000000000000000000, -1.000000000000000000, -0.000000000000000000 ) ) ;
#281 = DIRECTION ( 'NONE',  ( 0.000000000000000000, 0.000000000000000000, 1.000000000000000000 ) ) ;
#282 = COLOUR_RGB ( '',0.7921568627450980005, 0.8196078431372548767, 0.9333333333333333481 ) ;
#283 =( NAMED_UNIT ( * ) SI_UNIT ( $, .STERADIAN. ) SOLID_ANGLE_UNIT ( ) );
#284 = CARTESIAN_POINT ( 'NONE',  ( 1.469576158976823750E-15, 63.00000000000000000, 0.000000000000000000 ) ) ;
#285 = PRESENTATION_STYLE_ASSIGNMENT (( #313 ) ) ;
#286 = PRODUCT_RELATED_PRODUCT_CATEGORY ( 'part', '', ( #123 ) ) ;
#287 = SURFACE_STYLE_USAGE ( .BOTH. , #207 ) ;
#288 = SURFACE_STYLE_FILL_AREA ( #175 ) ;
#289 = VERTEX_POINT ( 'NONE', #206 ) ;
#290 = AXIS2_PLACEMENT_3D ( 'NONE', #25, #83, #155 ) ;
#291 = FACE_OUTER_BOUND ( 'NONE', #5, .T. ) ;
#292 = EDGE_LOOP ( 'NONE', ( #164, #306, #248, #115 ) ) ;
#293 = CARTESIAN_POINT ( 'NONE',  ( 8.023096076392732812E-15, 9.000000000000001776, 0.000000000000000000 ) ) ;
#294 = MANIFOLD_SOLID_BREP ( 'Revolve - Tool Body (Straight Shanked)', #54 ) ;
#295 = CARTESIAN_POINT ( 'NONE',  ( 0.000000000000000000, 0.000000000000000000, 0.000000000000000000 ) ) ;
#296 =( NAMED_UNIT ( * ) PLANE_ANGLE_UNIT ( ) SI_UNIT ( $, .RADIAN. ) );
#297 =( GEOMETRIC_REPRESENTATION_CONTEXT ( 3 ) GLOBAL_UNCERTAINTY_ASSIGNED_CONTEXT ( ( #126 ) ) GLOBAL_UNIT_ASSIGNED_CONTEXT ( ( #198, #337, #307 ) ) REPRESENTATION_CONTEXT ( 'NONE', 'WORKASPACE' ) );
#298 = SURFACE_STYLE_USAGE ( .BOTH. , #187 ) ;
#299 = CARTESIAN_POINT ( 'NONE',  ( 1.469576158976823750E-15, 63.00000000000000000, 0.000000000000000000 ) ) ;
#300 = DIRECTION ( 'NONE',  ( -0.000000000000000000, -1.000000000000000000, -0.000000000000000000 ) ) ;
#301 = VERTEX_POINT ( 'NONE', #212 ) ;
#302 = DIRECTION ( 'NONE',  ( 0.000000000000000000, 0.000000000000000000, -1.000000000000000000 ) ) ;
#303 = ORIENTED_EDGE ( 'NONE', *, *, #64, .T. ) ;
#304 = CARTESIAN_POINT ( 'NONE',  ( 3.061616997868383141E-16, 0.5000000000000000000, 2.500000000000000000 ) ) ;
#305 = EDGE_CURVE ( 'NONE', #220, #43, #92, .T. ) ;
#306 = ORIENTED_EDGE ( 'NONE', *, *, #368, .T. ) ;
#307 =( NAMED_UNIT ( * ) SI_UNIT ( $, .STERADIAN. ) SOLID_ANGLE_UNIT ( ) );
#308 = ORIENTED_EDGE ( 'NONE', *, *, #64, .F. ) ;
#309 = MECHANICAL_DESIGN_GEOMETRIC_PRESENTATION_REPRESENTATION (  '', ( #267 ), #201 ) ;
#310 = MECHANICAL_DESIGN_GEOMETRIC_PRESENTATION_REPRESENTATION (  '', ( #109 ), #218 ) ;
#311 = DIRECTION ( 'NONE',  ( -1.213614799521464586E-16, 1.000000000000000000, -0.000000000000000000 ) ) ;
#312 = SURFACE_STYLE_USAGE ( .BOTH. , #150 ) ;
#313 = SURFACE_STYLE_USAGE ( .BOTH. , #236 ) ;
#314 = DIRECTION ( 'NONE',  ( -1.000000000000000000, 0.000000000000000000, 0.000000000000000000 ) ) ;
#315 = ADVANCED_FACE ( 'NONE', ( #291 ), #184, .T. ) ;
#316 = CARTESIAN_POINT ( 'NONE',  ( 0.000000000000000000, 0.5000000000000000000, 0.000000000000000000 ) ) ;
#317 = EDGE_LOOP ( 'NONE', ( #53, #227, #57, #124 ) ) ;
#318 =( NAMED_UNIT ( * ) SI_UNIT ( $, .STERADIAN. ) SOLID_ANGLE_UNIT ( ) );
#319 =( LENGTH_UNIT ( ) NAMED_UNIT ( * ) SI_UNIT ( .MILLI., .METRE. ) );
#320 = ORIENTED_EDGE ( 'NONE', *, *, #38, .F. ) ;
#321 = PRESENTATION_LAYER_ASSIGNMENT (  '', '', ( #143 ) ) ;
#322 = STYLED_ITEM ( 'NONE', ( #327 ), #315 ) ;
#323 = DIRECTION ( 'NONE',  ( -0.000000000000000000, -1.000000000000000000, -0.000000000000000000 ) ) ;
#324 = FILL_AREA_STYLE ('',( #85 ) ) ;
#325 = DIRECTION ( 'NONE',  ( 0.000000000000000000, 0.000000000000000000, -1.000000000000000000 ) ) ;
#326 = DIRECTION ( 'NONE',  ( 1.213614799521464586E-16, -1.000000000000000000, 0.000000000000000000 ) ) ;
#327 = PRESENTATION_STYLE_ASSIGNMENT (( #208 ) ) ;
#328 = AXIS2_PLACEMENT_3D ( 'NONE', #219, #168, #134 ) ;
#329 = APPLICATION_CONTEXT ( 'automotive_design' ) ;
#330 = CIRCLE ( 'NONE', #157, 3.000000000000000000 ) ;
#331 = CIRCLE ( 'NONE', #96, 2.999999999999998668 ) ;
#332 = EDGE_CURVE ( 'NONE', #289, #173, #70, .T. ) ;
#333 = ORIENTED_EDGE ( 'NONE', *, *, #305, .F. ) ;
#334 = DIRECTION ( 'NONE',  ( -1.213614799521464586E-16, 1.000000000000000000, -0.000000000000000000 ) ) ;
#335 = PRODUCT_CONTEXT ( 'NONE', #329, 'mechanical' ) ;
#336 = PRESENTATION_STYLE_ASSIGNMENT (( #298 ) ) ;
#337 =( NAMED_UNIT ( * ) PLANE_ANGLE_UNIT ( ) SI_UNIT ( $, .RADIAN. ) );
#338 = DIRECTION ( 'NONE',  ( -1.213614799521464586E-16, 1.000000000000000000, -0.000000000000000000 ) ) ;
#339 = EDGE_LOOP ( 'NONE', ( #362, #222, #333, #4 ) ) ;
#340 = EDGE_CURVE ( 'NONE', #173, #369, #364, .T. ) ;
#341 = CARTESIAN_POINT ( 'NONE',  ( 0.000000000000000000, 9.000000000000000000, 0.000000000000000000 ) ) ;
#342 = CIRCLE ( 'NONE', #234, 2.500000000000000000 ) ;
#343 = CARTESIAN_POINT ( 'NONE',  ( 1.469576158976823750E-15, 63.00000000000000000, 0.000000000000000000 ) ) ;
#344 = ORIENTED_EDGE ( 'NONE', *, *, #332, .F. ) ;
#345 = AXIS2_PLACEMENT_3D ( 'NONE', #50, #323, #149 ) ;
#346 = COLOUR_RGB ( '',1.000000000000000000, 0.000000000000000000, 0.000000000000000000 ) ;
#347 = CARTESIAN_POINT ( 'NONE',  ( 0.000000000000000000, 0.5000000000000000000, 0.000000000000000000 ) ) ;
#348 =( NAMED_UNIT ( * ) PLANE_ANGLE_UNIT ( ) SI_UNIT ( $, .RADIAN. ) );
#349 = FILL_AREA_STYLE_COLOUR ( '', #268 ) ;
#350 = UNCERTAINTY_MEASURE_WITH_UNIT (LENGTH_MEASURE( 1.000000000000000082E-05 ), #235, 'distance_accuracy_value', 'NONE');
#351 = AXIS2_PLACEMENT_3D ( 'NONE', #299, #161, #6 ) ;
#352 =( NAMED_UNIT ( * ) PLANE_ANGLE_UNIT ( ) SI_UNIT ( $, .RADIAN. ) );
#353 = MECHANICAL_DESIGN_GEOMETRIC_PRESENTATION_REPRESENTATION (  '', ( #117 ), #183 ) ;
#354 = PRODUCT_DEFINITION_FORMATION_WITH_SPECIFIED_SOURCE ( 'ANY', '', #123, .NOT_KNOWN. ) ;
#355 = CARTESIAN_POINT ( 'NONE',  ( -2.999999999999994227, 63.00000000000000000, 0.000000000000000000 ) ) ;
#356 = CYLINDRICAL_SURFACE ( 'NONE', #351, 2.999999999999995559 ) ;
#357 = FILL_AREA_STYLE ('',( #361 ) ) ;
#358 = SURFACE_STYLE_FILL_AREA ( #251 ) ;
#359 = ORIENTED_EDGE ( 'NONE', *, *, #271, .T. ) ;
#360 = STYLED_ITEM ( 'NONE', ( #13 ), #272 ) ;
#361 = FILL_AREA_STYLE_COLOUR ( '', #76 ) ;
#362 = ORIENTED_EDGE ( 'NONE', *, *, #269, .T. ) ;
#363 = FACE_OUTER_BOUND ( 'NONE', #292, .T. ) ;
#364 = LINE ( 'NONE', #106, #132 ) ;
#365 = AXIS2_PLACEMENT_3D ( 'NONE', #304, #136, #252 ) ;
#366 = SURFACE_STYLE_USAGE ( .BOTH. , #195 ) ;
#367 = ADVANCED_BREP_SHAPE_REPRESENTATION ( '59517', ( #31, #294, #202 ), #45 ) ;
#368 = EDGE_CURVE ( 'NONE', #301, #238, #330, .T. ) ;
#369 = VERTEX_POINT ( 'NONE', #133 ) ;
#370 =( LENGTH_UNIT ( ) NAMED_UNIT ( * ) SI_UNIT ( .MILLI., .METRE. ) );
ENDSEC;
END-ISO-10303-21;
