ISO-10303-21;
HEADER;
FILE_DESCRIPTION (( 'STEP AP214' ),
    '1' );
FILE_NAME ('03032.STEP',
    '2023-06-22T14:51:59',
    ( '' ),
    ( '' ),
    'SwSTEP 2.0',
    'SolidWorks 2023',
    '' );
FILE_SCHEMA (( 'AUTOMOTIVE_DESIGN' ));
ENDSEC;

DATA;
#1 = DIRECTION ( 'NONE',  ( -0.000000000000000000, -1.000000000000000000, -0.000000000000000000 ) ) ;
#2 = DIMENSIONAL_EXPONENTS ( 1.000000000000000000, 0.000000000000000000, 0.000000000000000000, 0.000000000000000000, 0.000000000000000000, 0.000000000000000000, 0.000000000000000000 ) ;
#3 = SURFACE_SIDE_STYLE ('',( #118 ) ) ;
#4 = CIRCLE ( 'NONE', #49, 0.06250000000000001388 ) ;
#5 = DIMENSIONAL_EXPONENTS ( 1.000000000000000000, 0.000000000000000000, 0.000000000000000000, 0.000000000000000000, 0.000000000000000000, 0.000000000000000000, 0.000000000000000000 ) ;
#6 = PRESENTATION_LAYER_ASSIGNMENT (  '', '', ( #266 ) ) ;
#7 = CARTESIAN_POINT ( 'NONE',  ( 7.654042494670960626E-18, 0.000000000000000000, 0.06250000000000002776 ) ) ;
#8 = FACE_OUTER_BOUND ( 'NONE', #54, .T. ) ;
#9 = PRODUCT ( '03032', '03032', '', ( #276 ) ) ;
#10 = DIRECTION ( 'NONE',  ( -1.000000000000000000, 0.000000000000000000, 0.000000000000000000 ) ) ;
#11 = ADVANCED_FACE ( 'NONE', ( #105 ), #150, .F. ) ;
#12 = EDGE_LOOP ( 'NONE', ( #293, #171, #107, #103 ) ) ;
#13 = MECHANICAL_DESIGN_GEOMETRIC_PRESENTATION_REPRESENTATION (  '', ( #236 ), #199 ) ;
#14 = CARTESIAN_POINT ( 'NONE',  ( -0.06250000000000012490, 2.000000000000000000, 0.000000000000000000 ) ) ;
#15 = DIRECTION ( 'NONE',  ( 0.000000000000000000, 0.000000000000000000, -1.000000000000000000 ) ) ;
#16 = ORIENTED_EDGE ( 'NONE', *, *, #21, .F. ) ;
#17 = EDGE_LOOP ( 'NONE', ( #190, #42, #195, #19 ) ) ;
#18 =( NAMED_UNIT ( * ) PLANE_ANGLE_UNIT ( ) SI_UNIT ( $, .RADIAN. ) );
#19 = ORIENTED_EDGE ( 'NONE', *, *, #30, .F. ) ;
#20 = PRESENTATION_STYLE_ASSIGNMENT (( #26 ) ) ;
#21 = EDGE_CURVE ( 'NONE', #229, #153, #4, .T. ) ;
#22 = COLOUR_RGB ( '',0.7921568627450980005, 0.8196078431372548767, 0.9333333333333333481 ) ;
#23 = AXIS2_PLACEMENT_3D ( 'NONE', #289, #284, #66 ) ;
#24 =( NAMED_UNIT ( * ) SI_UNIT ( $, .STERADIAN. ) SOLID_ANGLE_UNIT ( ) );
#25 = FILL_AREA_STYLE_COLOUR ( '', #174 ) ;
#26 = SURFACE_STYLE_USAGE ( .BOTH. , #135 ) ;
#27 = STYLED_ITEM ( 'NONE', ( #173 ), #50 ) ;
#28 = AXIS2_PLACEMENT_3D ( 'NONE', #143, #291, #166 ) ;
#29 = DIMENSIONAL_EXPONENTS ( 1.000000000000000000, 0.000000000000000000, 0.000000000000000000, 0.000000000000000000, 0.000000000000000000, 0.000000000000000000, 0.000000000000000000 ) ;
#30 = EDGE_CURVE ( 'NONE', #56, #153, #130, .T. ) ;
#31 = APPLICATION_CONTEXT ( 'automotive_design' ) ;
#32 = DIRECTION ( 'NONE',  ( -1.000000000000000000, 0.000000000000000000, 0.000000000000000000 ) ) ;
#33 = VECTOR ( 'NONE', #282, 39.37007874015748143 ) ;
#34 = FACE_OUTER_BOUND ( 'NONE', #12, .T. ) ;
#35 = DIRECTION ( 'NONE',  ( -3.768143997376475057E-17, 1.000000000000000000, -0.000000000000000000 ) ) ;
#36 = SURFACE_STYLE_FILL_AREA ( #164 ) ;
#37 = VERTEX_POINT ( 'NONE', #200 ) ;
#38 = CIRCLE ( 'NONE', #47, 0.06250000000000005551 ) ;
#39 = DIRECTION ( 'NONE',  ( 3.768143997376475057E-17, -1.000000000000000000, 0.000000000000000000 ) ) ;
#40 = CYLINDRICAL_SURFACE ( 'NONE', #91, 0.06250000000000001388 ) ;
#41 = DIRECTION ( 'NONE',  ( -1.000000000000000000, -3.768143997376475057E-17, 0.000000000000000000 ) ) ;
#42 = ORIENTED_EDGE ( 'NONE', *, *, #140, .T. ) ;
#43 = CARTESIAN_POINT ( 'NONE',  ( 0.000000000000000000, 0.000000000000000000, 0.000000000000000000 ) ) ;
#44 = FILL_AREA_STYLE ('',( #108 ) ) ;
#45 = CARTESIAN_POINT ( 'NONE',  ( 0.000000000000000000, 0.000000000000000000, 0.000000000000000000 ) ) ;
#46 = PRESENTATION_LAYER_ASSIGNMENT (  '', '', ( #185 ) ) ;
#47 = AXIS2_PLACEMENT_3D ( 'NONE', #149, #35, #123 ) ;
#48 =( CONVERSION_BASED_UNIT ( 'INCH', #233 ) LENGTH_UNIT ( ) NAMED_UNIT ( #76 ) );
#49 = AXIS2_PLACEMENT_3D ( 'NONE', #169, #297, #15 ) ;
#50 = ADVANCED_FACE ( 'NONE', ( #273 ), #40, .T. ) ;
#51 =( LENGTH_UNIT ( ) NAMED_UNIT ( * ) SI_UNIT ( $, .METRE. ) );
#52 = EDGE_LOOP ( 'NONE', ( #99, #253 ) ) ;
#53 = DIRECTION ( 'NONE',  ( 0.000000000000000000, 0.000000000000000000, -1.000000000000000000 ) ) ;
#54 = EDGE_LOOP ( 'NONE', ( #59, #129 ) ) ;
#55 = CARTESIAN_POINT ( 'NONE',  ( -6.123233995736772199E-17, 2.000000000000000000, 0.000000000000000000 ) ) ;
#56 = VERTEX_POINT ( 'NONE', #257 ) ;
#57 = SURFACE_STYLE_FILL_AREA ( #172 ) ;
#58 = SURFACE_STYLE_USAGE ( .BOTH. , #305 ) ;
#59 = ORIENTED_EDGE ( 'NONE', *, *, #117, .T. ) ;
#60 = ORIENTED_EDGE ( 'NONE', *, *, #140, .F. ) ;
#61 = MECHANICAL_DESIGN_GEOMETRIC_PRESENTATION_REPRESENTATION (  '', ( #256 ), #101 ) ;
#62 = CARTESIAN_POINT ( 'NONE',  ( 0.000000000000000000, 0.000000000000000000, 0.000000000000000000 ) ) ;
#63 =( NAMED_UNIT ( * ) SI_UNIT ( $, .STERADIAN. ) SOLID_ANGLE_UNIT ( ) );
#64 = DIRECTION ( 'NONE',  ( 1.000000000000000000, 0.000000000000000000, 0.000000000000000000 ) ) ;
#65 =( NAMED_UNIT ( * ) PLANE_ANGLE_UNIT ( ) SI_UNIT ( $, .RADIAN. ) );
#66 = DIRECTION ( 'NONE',  ( 0.000000000000000000, 0.000000000000000000, -1.000000000000000000 ) ) ;
#67 = AXIS2_PLACEMENT_3D ( 'NONE', #272, #128, #230 ) ;
#68 = SURFACE_STYLE_USAGE ( .BOTH. , #114 ) ;
#69 = PRODUCT_DEFINITION ( 'UNKNOWN', '', #74, #72 ) ;
#70 = ADVANCED_BREP_SHAPE_REPRESENTATION ( '03032', ( #161, #160, #144 ), #156 ) ;
#71 =( LENGTH_UNIT ( ) NAMED_UNIT ( * ) SI_UNIT ( $, .METRE. ) );
#72 = PRODUCT_DEFINITION_CONTEXT ( 'detailed design', #31, 'design' ) ;
#73 = EDGE_CURVE ( 'NONE', #153, #229, #285, .T. ) ;
#74 = PRODUCT_DEFINITION_FORMATION_WITH_SPECIFIED_SOURCE ( 'ANY', '', #9, .NOT_KNOWN. ) ;
#75 = APPLICATION_CONTEXT ( 'automotive_design' ) ;
#76 = DIMENSIONAL_EXPONENTS ( 1.000000000000000000, 0.000000000000000000, 0.000000000000000000, 0.000000000000000000, 0.000000000000000000, 0.000000000000000000, 0.000000000000000000 ) ;
#77 = CYLINDRICAL_SURFACE ( 'NONE', #251, 0.06250000000000002776 ) ;
#78 = DIRECTION ( 'NONE',  ( 1.000000000000000000, 3.768143997376475057E-17, 0.000000000000000000 ) ) ;
#79 = DIMENSIONAL_EXPONENTS ( 1.000000000000000000, 0.000000000000000000, 0.000000000000000000, 0.000000000000000000, 0.000000000000000000, 0.000000000000000000, 0.000000000000000000 ) ;
#80 = PRESENTATION_LAYER_ASSIGNMENT (  '', '', ( #27 ) ) ;
#81 = DIRECTION ( 'NONE',  ( -1.000000000000000000, 0.000000000000000000, 0.000000000000000000 ) ) ;
#82 = FILL_AREA_STYLE_COLOUR ( '', #224 ) ;
#83 = DIRECTION ( 'NONE',  ( -3.768143997376475057E-17, 1.000000000000000000, 0.000000000000000000 ) ) ;
#84 = ADVANCED_FACE ( 'NONE', ( #157 ), #259, .T. ) ;
#85 = ORIENTED_EDGE ( 'NONE', *, *, #73, .T. ) ;
#86 = MECHANICAL_DESIGN_GEOMETRIC_PRESENTATION_REPRESENTATION (  '', ( #266 ), #121 ) ;
#87 = ORIENTED_EDGE ( 'NONE', *, *, #240, .F. ) ;
#88 = FILL_AREA_STYLE_COLOUR ( '', #250 ) ;
#89 = CARTESIAN_POINT ( 'NONE',  ( 0.000000000000000000, 0.000000000000000000, -0.06250000000000001388 ) ) ;
#90 =( LENGTH_UNIT ( ) NAMED_UNIT ( * ) SI_UNIT ( $, .METRE. ) );
#91 = AXIS2_PLACEMENT_3D ( 'NONE', #43, #1, #286 ) ;
#92 =( NAMED_UNIT ( * ) PLANE_ANGLE_UNIT ( ) SI_UNIT ( $, .RADIAN. ) );
#93 = CIRCLE ( 'NONE', #217, 0.06250000000000000000 ) ;
#94 =( NAMED_UNIT ( * ) PLANE_ANGLE_UNIT ( ) SI_UNIT ( $, .RADIAN. ) );
#95 = UNCERTAINTY_MEASURE_WITH_UNIT (LENGTH_MEASURE( 1.000000000000000082E-05 ), #219, 'distance_accuracy_value', 'NONE');
#96 = SURFACE_STYLE_USAGE ( .BOTH. , #3 ) ;
#97 = UNCERTAINTY_MEASURE_WITH_UNIT (LENGTH_MEASURE( 1.000000000000000082E-05 ), #306, 'distance_accuracy_value', 'NONE');
#98 = CARTESIAN_POINT ( 'NONE',  ( 0.06250000000000000000, 2.000000000000000000, 0.000000000000000000 ) ) ;
#99 = ORIENTED_EDGE ( 'NONE', *, *, #228, .F. ) ;
#100 = CARTESIAN_POINT ( 'NONE',  ( 0.000000000000000000, 0.3750000000000000555, 0.000000000000000000 ) ) ;
#101 =( GEOMETRIC_REPRESENTATION_CONTEXT ( 3 ) GLOBAL_UNCERTAINTY_ASSIGNED_CONTEXT ( ( #183 ) ) GLOBAL_UNIT_ASSIGNED_CONTEXT ( ( #48, #94, #309 ) ) REPRESENTATION_CONTEXT ( 'NONE', 'WORKASPACE' ) );
#102 = UNCERTAINTY_MEASURE_WITH_UNIT (LENGTH_MEASURE( 1.000000000000000082E-05 ), #163, 'distance_accuracy_value', 'NONE');
#103 = ORIENTED_EDGE ( 'NONE', *, *, #214, .F. ) ;
#104 =( LENGTH_UNIT ( ) NAMED_UNIT ( * ) SI_UNIT ( $, .METRE. ) );
#105 = FACE_OUTER_BOUND ( 'NONE', #209, .T. ) ;
#106 = VERTEX_POINT ( 'NONE', #112 ) ;
#107 = ORIENTED_EDGE ( 'NONE', *, *, #117, .F. ) ;
#108 = FILL_AREA_STYLE_COLOUR ( '', #22 ) ;
#109 = DIRECTION ( 'NONE',  ( -0.000000000000000000, -1.000000000000000000, -0.000000000000000000 ) ) ;
#110 = SURFACE_SIDE_STYLE ('',( #57 ) ) ;
#111 = LENGTH_MEASURE_WITH_UNIT ( LENGTH_MEASURE( 0.02539999999999999897 ), #90 );
#112 = CARTESIAN_POINT ( 'NONE',  ( 0.06250000000000000000, 0.3749999999999999445, 7.654042494670963708E-18 ) ) ;
#113 = PRESENTATION_STYLE_ASSIGNMENT (( #68 ) ) ;
#114 = SURFACE_SIDE_STYLE ('',( #137 ) ) ;
#115 = CARTESIAN_POINT ( 'NONE',  ( 0.000000000000000000, 0.000000000000000000, -0.06250000000000001388 ) ) ;
#116 =( NAMED_UNIT ( * ) SI_UNIT ( $, .STERADIAN. ) SOLID_ANGLE_UNIT ( ) );
#117 = EDGE_CURVE ( 'NONE', #308, #255, #170, .T. ) ;
#118 = SURFACE_STYLE_FILL_AREA ( #241 ) ;
#119 = SURFACE_SIDE_STYLE ('',( #36 ) ) ;
#120 = VECTOR ( 'NONE', #294, 39.37007874015748143 ) ;
#121 =( GEOMETRIC_REPRESENTATION_CONTEXT ( 3 ) GLOBAL_UNCERTAINTY_ASSIGNED_CONTEXT ( ( #213 ) ) GLOBAL_UNIT_ASSIGNED_CONTEXT ( ( #122, #18, #218 ) ) REPRESENTATION_CONTEXT ( 'NONE', 'WORKASPACE' ) );
#122 =( CONVERSION_BASED_UNIT ( 'INCH', #265 ) LENGTH_UNIT ( ) NAMED_UNIT ( #29 ) );
#123 = DIRECTION ( 'NONE',  ( -1.000000000000000000, 0.000000000000000000, 0.000000000000000000 ) ) ;
#124 = ORIENTED_EDGE ( 'NONE', *, *, #304, .F. ) ;
#125 = PLANE ( 'NONE',  #288 ) ;
#126 =( GEOMETRIC_REPRESENTATION_CONTEXT ( 3 ) GLOBAL_UNCERTAINTY_ASSIGNED_CONTEXT ( ( #97 ) ) GLOBAL_UNIT_ASSIGNED_CONTEXT ( ( #306, #65, #243 ) ) REPRESENTATION_CONTEXT ( 'NONE', 'WORKASPACE' ) );
#127 = ORIENTED_EDGE ( 'NONE', *, *, #30, .T. ) ;
#128 = DIRECTION ( 'NONE',  ( 0.000000000000000000, 1.000000000000000000, 0.000000000000000000 ) ) ;
#129 = ORIENTED_EDGE ( 'NONE', *, *, #277, .T. ) ;
#130 = LINE ( 'NONE', #89, #120 ) ;
#131 = AXIS2_PLACEMENT_3D ( 'NONE', #204, #235, #242 ) ;
#132 = FILL_AREA_STYLE_COLOUR ( '', #212 ) ;
#133 = VECTOR ( 'NONE', #194, 39.37007874015748143 ) ;
#134 = CIRCLE ( 'NONE', #180, 0.06250000000000000000 ) ;
#135 = SURFACE_SIDE_STYLE ('',( #177 ) ) ;
#136 = ADVANCED_FACE ( 'NONE', ( #280 ), #303, .T. ) ;
#137 = SURFACE_STYLE_FILL_AREA ( #181 ) ;
#138 = CARTESIAN_POINT ( 'NONE',  ( 7.654042494670959086E-18, 0.000000000000000000, 0.06250000000000001388 ) ) ;
#139 = DIRECTION ( 'NONE',  ( 0.000000000000000000, -1.000000000000000000, -0.000000000000000000 ) ) ;
#140 = EDGE_CURVE ( 'NONE', #37, #229, #158, .T. ) ;
#141 =( NAMED_UNIT ( * ) PLANE_ANGLE_UNIT ( ) SI_UNIT ( $, .RADIAN. ) );
#142 = DIRECTION ( 'NONE',  ( -3.768143997376475057E-17, 1.000000000000000000, -0.000000000000000000 ) ) ;
#143 = CARTESIAN_POINT ( 'NONE',  ( 0.000000000000000000, 0.000000000000000000, 0.000000000000000000 ) ) ;
#144 = AXIS2_PLACEMENT_3D ( 'NONE', #279, #302, #64 ) ;
#145 = DIRECTION ( 'NONE',  ( -3.768143997376475057E-17, 1.000000000000000000, -0.000000000000000000 ) ) ;
#146 = LENGTH_MEASURE_WITH_UNIT ( LENGTH_MEASURE( 0.02539999999999999897 ), #51 );
#147 = LINE ( 'NONE', #168, #268 ) ;
#148 = EDGE_LOOP ( 'NONE', ( #87, #202, #225, #254 ) ) ;
#149 = CARTESIAN_POINT ( 'NONE',  ( -6.123233995736772199E-17, 2.000000000000000000, 0.000000000000000000 ) ) ;
#150 = PLANE ( 'NONE',  #223 ) ;
#151 = ORIENTED_EDGE ( 'NONE', *, *, #187, .T. ) ;
#152 = UNCERTAINTY_MEASURE_WITH_UNIT (LENGTH_MEASURE( 1.000000000000000082E-05 ), #193, 'distance_accuracy_value', 'NONE');
#153 = VERTEX_POINT ( 'NONE', #115 ) ;
#154 =( CONVERSION_BASED_UNIT ( 'INCH', #111 ) LENGTH_UNIT ( ) NAMED_UNIT ( #196 ) );
#155 =( LENGTH_UNIT ( ) NAMED_UNIT ( * ) SI_UNIT ( $, .METRE. ) );
#156 =( GEOMETRIC_REPRESENTATION_CONTEXT ( 3 ) GLOBAL_UNCERTAINTY_ASSIGNED_CONTEXT ( ( #262 ) ) GLOBAL_UNIT_ASSIGNED_CONTEXT ( ( #154, #203, #63 ) ) REPRESENTATION_CONTEXT ( 'NONE', 'WORKASPACE' ) );
#157 = FACE_OUTER_BOUND ( 'NONE', #197, .T. ) ;
#158 = LINE ( 'NONE', #138, #33 ) ;
#159 = LINE ( 'NONE', #201, #133 ) ;
#160 = MANIFOLD_SOLID_BREP ( 'Revolve - Tool Body (Straight Shanked)', #198 ) ;
#161 = MANIFOLD_SOLID_BREP ( 'Revolve - Cutting Edge', #249 ) ;
#162 = STYLED_ITEM ( 'NONE', ( #20 ), #136 ) ;
#163 =( CONVERSION_BASED_UNIT ( 'INCH', #182 ) LENGTH_UNIT ( ) NAMED_UNIT ( #269 ) );
#164 = FILL_AREA_STYLE ('',( #82 ) ) ;
#165 = FACE_OUTER_BOUND ( 'NONE', #148, .T. ) ;
#166 = DIRECTION ( 'NONE',  ( 0.000000000000000000, 0.000000000000000000, -1.000000000000000000 ) ) ;
#167 = ORIENTED_EDGE ( 'NONE', *, *, #21, .T. ) ;
#168 = CARTESIAN_POINT ( 'NONE',  ( 0.06249999999999997224, 2.000000000000000000, 7.654042494670960626E-18 ) ) ;
#169 = CARTESIAN_POINT ( 'NONE',  ( 0.000000000000000000, 0.000000000000000000, 0.000000000000000000 ) ) ;
#170 = CIRCLE ( 'NONE', #131, 0.06250000000000005551 ) ;
#171 = ORIENTED_EDGE ( 'NONE', *, *, #240, .T. ) ;
#172 = FILL_AREA_STYLE ('',( #132 ) ) ;
#173 = PRESENTATION_STYLE_ASSIGNMENT (( #300 ) ) ;
#174 = COLOUR_RGB ( '',1.000000000000000000, 0.000000000000000000, 0.000000000000000000 ) ;
#175 = APPLICATION_PROTOCOL_DEFINITION ( 'draft international standard', 'automotive_design', 1998, #75 ) ;
#176 = FILL_AREA_STYLE ('',( #211 ) ) ;
#177 = SURFACE_STYLE_FILL_AREA ( #176 ) ;
#178 = DIRECTION ( 'NONE',  ( 0.000000000000000000, 0.000000000000000000, -1.000000000000000000 ) ) ;
#179 = PRESENTATION_LAYER_ASSIGNMENT (  '', '', ( #236 ) ) ;
#180 = AXIS2_PLACEMENT_3D ( 'NONE', #100, #109, #53 ) ;
#181 = FILL_AREA_STYLE ('',( #25 ) ) ;
#182 = LENGTH_MEASURE_WITH_UNIT ( LENGTH_MEASURE( 0.02539999999999999897 ), #184 );
#183 = UNCERTAINTY_MEASURE_WITH_UNIT (LENGTH_MEASURE( 1.000000000000000082E-05 ), #48, 'distance_accuracy_value', 'NONE');
#184 =( LENGTH_UNIT ( ) NAMED_UNIT ( * ) SI_UNIT ( $, .METRE. ) );
#185 = STYLED_ITEM ( 'NONE', ( #287 ), #161 ) ;
#186 = CIRCLE ( 'NONE', #296, 0.06250000000000000000 ) ;
#187 = EDGE_CURVE ( 'NONE', #37, #56, #260, .T. ) ;
#188 = SURFACE_STYLE_USAGE ( .BOTH. , #119 ) ;
#189 =( NAMED_UNIT ( * ) PLANE_ANGLE_UNIT ( ) SI_UNIT ( $, .RADIAN. ) );
#190 = ORIENTED_EDGE ( 'NONE', *, *, #228, .T. ) ;
#191 = CARTESIAN_POINT ( 'NONE',  ( 0.000000000000000000, 0.3749999999999999445, 0.000000000000000000 ) ) ;
#192 =( GEOMETRIC_REPRESENTATION_CONTEXT ( 3 ) GLOBAL_UNCERTAINTY_ASSIGNED_CONTEXT ( ( #152 ) ) GLOBAL_UNIT_ASSIGNED_CONTEXT ( ( #193, #92, #116 ) ) REPRESENTATION_CONTEXT ( 'NONE', 'WORKASPACE' ) );
#193 =( CONVERSION_BASED_UNIT ( 'INCH', #221 ) LENGTH_UNIT ( ) NAMED_UNIT ( #79 ) );
#194 = DIRECTION ( 'NONE',  ( -3.768143997376475057E-17, 1.000000000000000000, -0.000000000000000000 ) ) ;
#195 = ORIENTED_EDGE ( 'NONE', *, *, #73, .F. ) ;
#196 = DIMENSIONAL_EXPONENTS ( 1.000000000000000000, 0.000000000000000000, 0.000000000000000000, 0.000000000000000000, 0.000000000000000000, 0.000000000000000000, 0.000000000000000000 ) ;
#197 = EDGE_LOOP ( 'NONE', ( #85, #167 ) ) ;
#198 = CLOSED_SHELL ( 'NONE', ( #248, #11, #274, #252 ) ) ;
#199 =( GEOMETRIC_REPRESENTATION_CONTEXT ( 3 ) GLOBAL_UNCERTAINTY_ASSIGNED_CONTEXT ( ( #95 ) ) GLOBAL_UNIT_ASSIGNED_CONTEXT ( ( #219, #189, #24 ) ) REPRESENTATION_CONTEXT ( 'NONE', 'WORKASPACE' ) );
#200 = CARTESIAN_POINT ( 'NONE',  ( 7.654042494670959086E-18, 0.3750000000000000555, 0.06250000000000000000 ) ) ;
#201 = CARTESIAN_POINT ( 'NONE',  ( -0.06250000000000009714, 2.000000000000000000, 0.000000000000000000 ) ) ;
#202 = ORIENTED_EDGE ( 'NONE', *, *, #298, .T. ) ;
#203 =( NAMED_UNIT ( * ) PLANE_ANGLE_UNIT ( ) SI_UNIT ( $, .RADIAN. ) );
#204 = CARTESIAN_POINT ( 'NONE',  ( -6.123233995736772199E-17, 2.000000000000000000, 0.000000000000000000 ) ) ;
#205 = MECHANICAL_DESIGN_GEOMETRIC_PRESENTATION_REPRESENTATION (  '', ( #27 ), #192 ) ;
#206 = AXIS2_PLACEMENT_3D ( 'NONE', #55, #145, #216 ) ;
#207 = SURFACE_STYLE_FILL_AREA ( #44 ) ;
#208 = LENGTH_MEASURE_WITH_UNIT ( LENGTH_MEASURE( 0.02539999999999999897 ), #237 );
#209 = EDGE_LOOP ( 'NONE', ( #124, #227 ) ) ;
#210 = PRESENTATION_STYLE_ASSIGNMENT (( #96 ) ) ;
#211 = FILL_AREA_STYLE_COLOUR ( '', #295 ) ;
#212 = COLOUR_RGB ( '',1.000000000000000000, 0.000000000000000000, 0.000000000000000000 ) ;
#213 = UNCERTAINTY_MEASURE_WITH_UNIT (LENGTH_MEASURE( 1.000000000000000082E-05 ), #122, 'distance_accuracy_value', 'NONE');
#214 = EDGE_CURVE ( 'NONE', #270, #308, #159, .T. ) ;
#215 = PRESENTATION_LAYER_ASSIGNMENT (  '', '', ( #162 ) ) ;
#216 = DIRECTION ( 'NONE',  ( -1.000000000000000000, 0.000000000000000000, 0.000000000000000000 ) ) ;
#217 = AXIS2_PLACEMENT_3D ( 'NONE', #191, #292, #81 ) ;
#218 =( NAMED_UNIT ( * ) SI_UNIT ( $, .STERADIAN. ) SOLID_ANGLE_UNIT ( ) );
#219 =( CONVERSION_BASED_UNIT ( 'INCH', #146 ) LENGTH_UNIT ( ) NAMED_UNIT ( #2 ) );
#220 = CARTESIAN_POINT ( 'NONE',  ( 0.000000000000000000, 0.3749999999999999445, 0.000000000000000000 ) ) ;
#221 = LENGTH_MEASURE_WITH_UNIT ( LENGTH_MEASURE( 0.02539999999999999897 ), #155 );
#222 = DIRECTION ( 'NONE',  ( -3.768143997376475057E-17, 1.000000000000000000, -0.000000000000000000 ) ) ;
#223 = AXIS2_PLACEMENT_3D ( 'NONE', #275, #83, #41 ) ;
#224 = COLOUR_RGB ( '',1.000000000000000000, 0.000000000000000000, 0.000000000000000000 ) ;
#225 = ORIENTED_EDGE ( 'NONE', *, *, #214, .T. ) ;
#226 = CARTESIAN_POINT ( 'NONE',  ( -0.06250000000000000000, 0.3749999999999999445, 0.000000000000000000 ) ) ;
#227 = ORIENTED_EDGE ( 'NONE', *, *, #298, .F. ) ;
#228 = EDGE_CURVE ( 'NONE', #56, #37, #134, .T. ) ;
#229 = VERTEX_POINT ( 'NONE', #7 ) ;
#230 = DIRECTION ( 'NONE',  ( 0.000000000000000000, -0.000000000000000000, 1.000000000000000000 ) ) ;
#231 = EDGE_LOOP ( 'NONE', ( #60, #151, #127, #16 ) ) ;
#232 = ADVANCED_FACE ( 'NONE', ( #245 ), #299, .T. ) ;
#233 = LENGTH_MEASURE_WITH_UNIT ( LENGTH_MEASURE( 0.02539999999999999897 ), #71 );
#234 = APPLICATION_PROTOCOL_DEFINITION ( 'draft international standard', 'automotive_design', 1998, #31 ) ;
#235 = DIRECTION ( 'NONE',  ( -3.768143997376475057E-17, 1.000000000000000000, -0.000000000000000000 ) ) ;
#236 = STYLED_ITEM ( 'NONE', ( #210 ), #160 ) ;
#237 =( LENGTH_UNIT ( ) NAMED_UNIT ( * ) SI_UNIT ( $, .METRE. ) );
#238 =( GEOMETRIC_REPRESENTATION_CONTEXT ( 3 ) GLOBAL_UNCERTAINTY_ASSIGNED_CONTEXT ( ( #102 ) ) GLOBAL_UNIT_ASSIGNED_CONTEXT ( ( #163, #141, #307 ) ) REPRESENTATION_CONTEXT ( 'NONE', 'WORKASPACE' ) );
#239 = DIRECTION ( 'NONE',  ( 0.000000000000000000, 0.000000000000000000, -1.000000000000000000 ) ) ;
#240 = EDGE_CURVE ( 'NONE', #106, #255, #147, .T. ) ;
#241 = FILL_AREA_STYLE ('',( #88 ) ) ;
#242 = DIRECTION ( 'NONE',  ( -1.000000000000000000, 0.000000000000000000, 0.000000000000000000 ) ) ;
#243 =( NAMED_UNIT ( * ) SI_UNIT ( $, .STERADIAN. ) SOLID_ANGLE_UNIT ( ) );
#244 = PRODUCT_DEFINITION_SHAPE ( 'NONE', 'NONE',  #69 ) ;
#245 = FACE_OUTER_BOUND ( 'NONE', #231, .T. ) ;
#246 = MECHANICAL_DESIGN_GEOMETRIC_PRESENTATION_REPRESENTATION (  '', ( #185 ), #238 ) ;
#247 = CARTESIAN_POINT ( 'NONE',  ( -6.123233995736772199E-17, 2.000000000000000000, 0.000000000000000000 ) ) ;
#248 = ADVANCED_FACE ( 'NONE', ( #34 ), #77, .T. ) ;
#249 = CLOSED_SHELL ( 'NONE', ( #50, #136, #232, #84 ) ) ;
#250 = COLOUR_RGB ( '',0.7921568627450980005, 0.8196078431372548767, 0.9333333333333333481 ) ;
#251 = AXIS2_PLACEMENT_3D ( 'NONE', #247, #142, #32 ) ;
#252 = ADVANCED_FACE ( 'NONE', ( #8 ), #125, .F. ) ;
#253 = ORIENTED_EDGE ( 'NONE', *, *, #187, .F. ) ;
#254 = ORIENTED_EDGE ( 'NONE', *, *, #277, .F. ) ;
#255 = VERTEX_POINT ( 'NONE', #271 ) ;
#256 = STYLED_ITEM ( 'NONE', ( #113 ), #84 ) ;
#257 = CARTESIAN_POINT ( 'NONE',  ( 0.000000000000000000, 0.3750000000000000555, -0.06250000000000000000 ) ) ;
#258 = AXIS2_PLACEMENT_3D ( 'NONE', #62, #261, #239 ) ;
#259 = PLANE ( 'NONE',  #263 ) ;
#260 = CIRCLE ( 'NONE', #23, 0.06250000000000000000 ) ;
#261 = DIRECTION ( 'NONE',  ( -0.000000000000000000, -1.000000000000000000, -0.000000000000000000 ) ) ;
#262 = UNCERTAINTY_MEASURE_WITH_UNIT (LENGTH_MEASURE( 1.000000000000000082E-05 ), #154, 'distance_accuracy_value', 'NONE');
#263 = AXIS2_PLACEMENT_3D ( 'NONE', #45, #139, #178 ) ;
#264 = PRESENTATION_STYLE_ASSIGNMENT (( #188 ) ) ;
#265 = LENGTH_MEASURE_WITH_UNIT ( LENGTH_MEASURE( 0.02539999999999999897 ), #104 );
#266 = STYLED_ITEM ( 'NONE', ( #264 ), #232 ) ;
#267 = CYLINDRICAL_SURFACE ( 'NONE', #206, 0.06250000000000002776 ) ;
#268 = VECTOR ( 'NONE', #290, 39.37007874015748143 ) ;
#269 = DIMENSIONAL_EXPONENTS ( 1.000000000000000000, 0.000000000000000000, 0.000000000000000000, 0.000000000000000000, 0.000000000000000000, 0.000000000000000000, 0.000000000000000000 ) ;
#270 = VERTEX_POINT ( 'NONE', #226 ) ;
#271 = CARTESIAN_POINT ( 'NONE',  ( 0.06250000000000000000, 2.000000000000000000, 7.654042494670963708E-18 ) ) ;
#272 = CARTESIAN_POINT ( 'NONE',  ( 0.000000000000000000, 0.3750000000000000555, 0.000000000000000000 ) ) ;
#273 = FACE_OUTER_BOUND ( 'NONE', #17, .T. ) ;
#274 = ADVANCED_FACE ( 'NONE', ( #165 ), #267, .T. ) ;
#275 = CARTESIAN_POINT ( 'NONE',  ( 4.437159120301362840E-35, 0.3750000000000000555, 0.000000000000000000 ) ) ;
#276 = PRODUCT_CONTEXT ( 'NONE', #75, 'mechanical' ) ;
#277 = EDGE_CURVE ( 'NONE', #255, #308, #38, .T. ) ;
#278 = MECHANICAL_DESIGN_GEOMETRIC_PRESENTATION_REPRESENTATION (  '', ( #162 ), #126 ) ;
#279 = CARTESIAN_POINT ( 'NONE',  ( 0.000000000000000000, 0.000000000000000000, 0.000000000000000000 ) ) ;
#280 = FACE_OUTER_BOUND ( 'NONE', #52, .T. ) ;
#281 = PRODUCT_RELATED_PRODUCT_CATEGORY ( 'part', '', ( #9 ) ) ;
#282 = DIRECTION ( 'NONE',  ( -0.000000000000000000, -1.000000000000000000, -0.000000000000000000 ) ) ;
#283 = SHAPE_DEFINITION_REPRESENTATION ( #244, #70 ) ;
#284 = DIRECTION ( 'NONE',  ( -0.000000000000000000, -1.000000000000000000, -0.000000000000000000 ) ) ;
#285 = CIRCLE ( 'NONE', #258, 0.06250000000000001388 ) ;
#286 = DIRECTION ( 'NONE',  ( 0.000000000000000000, 0.000000000000000000, -1.000000000000000000 ) ) ;
#287 = PRESENTATION_STYLE_ASSIGNMENT (( #58 ) ) ;
#288 = AXIS2_PLACEMENT_3D ( 'NONE', #98, #39, #78 ) ;
#289 = CARTESIAN_POINT ( 'NONE',  ( 0.000000000000000000, 0.3750000000000000555, 0.000000000000000000 ) ) ;
#290 = DIRECTION ( 'NONE',  ( -3.768143997376475057E-17, 1.000000000000000000, -0.000000000000000000 ) ) ;
#291 = DIRECTION ( 'NONE',  ( -0.000000000000000000, -1.000000000000000000, -0.000000000000000000 ) ) ;
#292 = DIRECTION ( 'NONE',  ( -3.768143997376475057E-17, 1.000000000000000000, -0.000000000000000000 ) ) ;
#293 = ORIENTED_EDGE ( 'NONE', *, *, #304, .T. ) ;
#294 = DIRECTION ( 'NONE',  ( -0.000000000000000000, -1.000000000000000000, -0.000000000000000000 ) ) ;
#295 = COLOUR_RGB ( '',1.000000000000000000, 0.000000000000000000, 0.000000000000000000 ) ;
#296 = AXIS2_PLACEMENT_3D ( 'NONE', #220, #222, #10 ) ;
#297 = DIRECTION ( 'NONE',  ( -0.000000000000000000, -1.000000000000000000, -0.000000000000000000 ) ) ;
#298 = EDGE_CURVE ( 'NONE', #106, #270, #186, .T. ) ;
#299 = CYLINDRICAL_SURFACE ( 'NONE', #28, 0.06250000000000001388 ) ;
#300 = SURFACE_STYLE_USAGE ( .BOTH. , #110 ) ;
#301 = PRESENTATION_LAYER_ASSIGNMENT (  '', '', ( #256 ) ) ;
#302 = DIRECTION ( 'NONE',  ( 0.000000000000000000, 0.000000000000000000, 1.000000000000000000 ) ) ;
#303 = PLANE ( 'NONE',  #67 ) ;
#304 = EDGE_CURVE ( 'NONE', #270, #106, #93, .T. ) ;
#305 = SURFACE_SIDE_STYLE ('',( #207 ) ) ;
#306 =( CONVERSION_BASED_UNIT ( 'INCH', #208 ) LENGTH_UNIT ( ) NAMED_UNIT ( #5 ) );
#307 =( NAMED_UNIT ( * ) SI_UNIT ( $, .STERADIAN. ) SOLID_ANGLE_UNIT ( ) );
#308 = VERTEX_POINT ( 'NONE', #14 ) ;
#309 =( NAMED_UNIT ( * ) SI_UNIT ( $, .STERADIAN. ) SOLID_ANGLE_UNIT ( ) );
ENDSEC;
END-ISO-10303-21;
