ISO-10303-21;
HEADER;
FILE_DESCRIPTION (( 'STEP AP214' ),
    '1' );
FILE_NAME ('59571.STEP',
    '2023-07-24T15:49:19',
    ( '' ),
    ( '' ),
    'SwSTEP 2.0',
    'SolidWorks 2023',
    '' );
FILE_SCHEMA (( 'AUTOMOTIVE_DESIGN' ));
ENDSEC;

DATA;
#1 = DIRECTION ( 'NONE',  ( -2.881521880346713429E-17, 1.000000000000000000, -0.000000000000000000 ) ) ;
#2 = EDGE_CURVE ( 'NONE', #179, #233, #79, .T. ) ;
#3 = DIRECTION ( 'NONE',  ( 0.000000000000000000, -1.000000000000000000, -0.000000000000000000 ) ) ;
#4 =( LENGTH_UNIT ( ) NAMED_UNIT ( * ) SI_UNIT ( .MILLI., .METRE. ) );
#5 = VECTOR ( 'NONE', #12, 1000.000000000000000 ) ;
#6 = AXIS2_PLACEMENT_3D ( 'NONE', #29, #211, #119 ) ;
#7 = UNCERTAINTY_MEASURE_WITH_UNIT (LENGTH_MEASURE( 1.000000000000000082E-05 ), #4, 'distance_accuracy_value', 'NONE');
#8 = DIRECTION ( 'NONE',  ( -2.881521880346713429E-17, 1.000000000000000000, -0.000000000000000000 ) ) ;
#9 = ADVANCED_FACE ( 'NONE', ( #83 ), #214, .T. ) ;
#10 = ORIENTED_EDGE ( 'NONE', *, *, #47, .F. ) ;
#11 = ORIENTED_EDGE ( 'NONE', *, *, #106, .T. ) ;
#12 = DIRECTION ( 'NONE',  ( -0.000000000000000000, -1.000000000000000000, -0.000000000000000000 ) ) ;
#13 = VECTOR ( 'NONE', #266, 1000.000000000000000 ) ;
#14 = DIRECTION ( 'NONE',  ( 2.881521880346713429E-17, -1.000000000000000000, 0.000000000000000000 ) ) ;
#15 = CARTESIAN_POINT ( 'NONE',  ( 0.000000000000000000, 24.00000000000000000, 0.000000000000000000 ) ) ;
#16 = ORIENTED_EDGE ( 'NONE', *, *, #160, .T. ) ;
#17 = DIRECTION ( 'NONE',  ( -0.000000000000000000, -1.000000000000000000, -0.000000000000000000 ) ) ;
#18 = DIRECTION ( 'NONE',  ( 0.000000000000000000, -0.000000000000000000, 1.000000000000000000 ) ) ;
#19 = PRESENTATION_LAYER_ASSIGNMENT (  '', '', ( #117 ) ) ;
#20 = DIRECTION ( 'NONE',  ( 1.000000000000000000, 2.881521880346713429E-17, 0.000000000000000000 ) ) ;
#21 = SURFACE_STYLE_FILL_AREA ( #279 ) ;
#22 = PLANE ( 'NONE',  #217 ) ;
#23 = EDGE_LOOP ( 'NONE', ( #273, #16, #107, #76 ) ) ;
#24 = STYLED_ITEM ( 'NONE', ( #205 ), #216 ) ;
#25 =( NAMED_UNIT ( * ) PLANE_ANGLE_UNIT ( ) SI_UNIT ( $, .RADIAN. ) );
#26 = EDGE_CURVE ( 'NONE', #285, #244, #220, .T. ) ;
#27 = SURFACE_SIDE_STYLE ('',( #226 ) ) ;
#28 =( NAMED_UNIT ( * ) PLANE_ANGLE_UNIT ( ) SI_UNIT ( $, .RADIAN. ) );
#29 = CARTESIAN_POINT ( 'NONE',  ( 0.000000000000000000, 0.000000000000000000, 0.000000000000000000 ) ) ;
#30 = PRODUCT_DEFINITION ( 'UNKNOWN', '', #180, #128 ) ;
#31 = DIRECTION ( 'NONE',  ( -1.000000000000000000, 0.000000000000000000, 0.000000000000000000 ) ) ;
#32 = EDGE_CURVE ( 'NONE', #262, #40, #120, .T. ) ;
#33 = DIRECTION ( 'NONE',  ( 0.000000000000000000, 0.000000000000000000, -1.000000000000000000 ) ) ;
#34 = FILL_AREA_STYLE_COLOUR ( '', #237 ) ;
#35 = PRESENTATION_LAYER_ASSIGNMENT (  '', '', ( #109 ) ) ;
#36 = EDGE_LOOP ( 'NONE', ( #198, #66 ) ) ;
#37 = DIRECTION ( 'NONE',  ( -2.881521880346713429E-17, 1.000000000000000000, -0.000000000000000000 ) ) ;
#38 = SURFACE_STYLE_USAGE ( .BOTH. , #178 ) ;
#39 = SURFACE_SIDE_STYLE ('',( #240 ) ) ;
#40 = VERTEX_POINT ( 'NONE', #146 ) ;
#41 = SURFACE_STYLE_USAGE ( .BOTH. , #159 ) ;
#42 = EDGE_CURVE ( 'NONE', #285, #179, #78, .T. ) ;
#43 = SURFACE_STYLE_USAGE ( .BOTH. , #39 ) ;
#44 = PRESENTATION_STYLE_ASSIGNMENT (( #286 ) ) ;
#45 = CYLINDRICAL_SURFACE ( 'NONE', #187, 4.000000000000000000 ) ;
#46 = ORIENTED_EDGE ( 'NONE', *, *, #26, .F. ) ;
#47 = EDGE_CURVE ( 'NONE', #81, #174, #212, .T. ) ;
#48 = AXIS2_PLACEMENT_3D ( 'NONE', #151, #200, #156 ) ;
#49 = CARTESIAN_POINT ( 'NONE',  ( 0.000000000000000000, 0.000000000000000000, 0.000000000000000000 ) ) ;
#50 = EDGE_LOOP ( 'NONE', ( #88, #11, #52, #225 ) ) ;
#51 = PRESENTATION_STYLE_ASSIGNMENT (( #121 ) ) ;
#52 = ORIENTED_EDGE ( 'NONE', *, *, #2, .F. ) ;
#53 = ADVANCED_FACE ( 'NONE', ( #249 ), #287, .F. ) ;
#54 = FACE_OUTER_BOUND ( 'NONE', #23, .T. ) ;
#55 =( GEOMETRIC_REPRESENTATION_CONTEXT ( 3 ) GLOBAL_UNCERTAINTY_ASSIGNED_CONTEXT ( ( #7 ) ) GLOBAL_UNIT_ASSIGNED_CONTEXT ( ( #4, #28, #272 ) ) REPRESENTATION_CONTEXT ( 'NONE', 'WORKASPACE' ) );
#56 =( GEOMETRIC_REPRESENTATION_CONTEXT ( 3 ) GLOBAL_UNCERTAINTY_ASSIGNED_CONTEXT ( ( #190 ) ) GLOBAL_UNIT_ASSIGNED_CONTEXT ( ( #155, #115, #168 ) ) REPRESENTATION_CONTEXT ( 'NONE', 'WORKASPACE' ) );
#57 = FILL_AREA_STYLE_COLOUR ( '', #148 ) ;
#58 = MECHANICAL_DESIGN_GEOMETRIC_PRESENTATION_REPRESENTATION (  '', ( #117 ), #136 ) ;
#59 = COLOUR_RGB ( '',1.000000000000000000, 0.000000000000000000, 0.000000000000000000 ) ;
#60 = UNCERTAINTY_MEASURE_WITH_UNIT (LENGTH_MEASURE( 1.000000000000000082E-05 ), #208, 'distance_accuracy_value', 'NONE');
#61 = ORIENTED_EDGE ( 'NONE', *, *, #191, .T. ) ;
#62 = CARTESIAN_POINT ( 'NONE',  ( 4.000000000000000000, 75.00000000000000000, 4.898587196589413815E-16 ) ) ;
#63 = CARTESIAN_POINT ( 'NONE',  ( 0.000000000000000000, 24.00000000000000000, 0.000000000000000000 ) ) ;
#64 = ADVANCED_FACE ( 'NONE', ( #54 ), #45, .T. ) ;
#65 = CARTESIAN_POINT ( 'NONE',  ( -4.000000000000000000, 24.00000000000000000, 0.000000000000000000 ) ) ;
#66 = ORIENTED_EDGE ( 'NONE', *, *, #138, .T. ) ;
#67 = MECHANICAL_DESIGN_GEOMETRIC_PRESENTATION_REPRESENTATION (  '', ( #172 ), #56 ) ;
#68 = FACE_OUTER_BOUND ( 'NONE', #94, .T. ) ;
#69 = ADVANCED_BREP_SHAPE_REPRESENTATION ( '59571', ( #185, #96, #6 ), #141 ) ;
#70 = CARTESIAN_POINT ( 'NONE',  ( 4.898587196589412829E-16, 0.000000000000000000, 4.000000000000000000 ) ) ;
#71 = DIRECTION ( 'NONE',  ( -2.881521880346713429E-17, 1.000000000000000000, -0.000000000000000000 ) ) ;
#72 = CARTESIAN_POINT ( 'NONE',  ( 4.898587196589412829E-16, 24.00000000000000000, 4.000000000000000000 ) ) ;
#73 =( LENGTH_UNIT ( ) NAMED_UNIT ( * ) SI_UNIT ( .MILLI., .METRE. ) );
#74 = AXIS2_PLACEMENT_3D ( 'NONE', #227, #102, #186 ) ;
#75 = MECHANICAL_DESIGN_GEOMETRIC_PRESENTATION_REPRESENTATION (  '', ( #114 ), #118 ) ;
#76 = ORIENTED_EDGE ( 'NONE', *, *, #132, .F. ) ;
#77 = FILL_AREA_STYLE ('',( #84 ) ) ;
#78 = LINE ( 'NONE', #167, #91 ) ;
#79 = CIRCLE ( 'NONE', #113, 4.000000000000000000 ) ;
#80 = AXIS2_PLACEMENT_3D ( 'NONE', #276, #17, #201 ) ;
#81 = VERTEX_POINT ( 'NONE', #126 ) ;
#82 = CARTESIAN_POINT ( 'NONE',  ( 0.000000000000000000, 0.000000000000000000, 0.000000000000000000 ) ) ;
#83 = FACE_OUTER_BOUND ( 'NONE', #256, .T. ) ;
#84 = FILL_AREA_STYLE_COLOUR ( '', #100 ) ;
#85 = CARTESIAN_POINT ( 'NONE',  ( -1.469576158976823750E-15, 75.00000000000000000, 0.000000000000000000 ) ) ;
#86 = PRODUCT ( '59571', '59571', '', ( #125 ) ) ;
#87 =( GEOMETRIC_REPRESENTATION_CONTEXT ( 3 ) GLOBAL_UNCERTAINTY_ASSIGNED_CONTEXT ( ( #60 ) ) GLOBAL_UNIT_ASSIGNED_CONTEXT ( ( #208, #210, #142 ) ) REPRESENTATION_CONTEXT ( 'NONE', 'WORKASPACE' ) );
#88 = ORIENTED_EDGE ( 'NONE', *, *, #26, .T. ) ;
#89 = APPLICATION_CONTEXT ( 'automotive_design' ) ;
#90 = SURFACE_STYLE_USAGE ( .BOTH. , #147 ) ;
#91 = VECTOR ( 'NONE', #143, 1000.000000000000000 ) ;
#92 = ADVANCED_FACE ( 'NONE', ( #193 ), #127, .T. ) ;
#93 = CARTESIAN_POINT ( 'NONE',  ( -1.469576158976823750E-15, 75.00000000000000000, 0.000000000000000000 ) ) ;
#94 = EDGE_LOOP ( 'NONE', ( #259, #162 ) ) ;
#95 = FACE_OUTER_BOUND ( 'NONE', #116, .T. ) ;
#96 = MANIFOLD_SOLID_BREP ( 'Revolve - Tool Body (Straight Shanked)', #145 ) ;
#97 = DIRECTION ( 'NONE',  ( 0.000000000000000000, 0.000000000000000000, -1.000000000000000000 ) ) ;
#98 =( NAMED_UNIT ( * ) PLANE_ANGLE_UNIT ( ) SI_UNIT ( $, .RADIAN. ) );
#99 = DIRECTION ( 'NONE',  ( 0.000000000000000000, 0.000000000000000000, -1.000000000000000000 ) ) ;
#100 = COLOUR_RGB ( '',1.000000000000000000, 0.000000000000000000, 0.000000000000000000 ) ;
#101 = ORIENTED_EDGE ( 'NONE', *, *, #138, .F. ) ;
#102 = DIRECTION ( 'NONE',  ( -2.881521880346713429E-17, 1.000000000000000000, 0.000000000000000000 ) ) ;
#103 = FILL_AREA_STYLE_COLOUR ( '', #228 ) ;
#104 = CIRCLE ( 'NONE', #48, 4.000000000000000000 ) ;
#105 = SURFACE_STYLE_FILL_AREA ( #77 ) ;
#106 = EDGE_CURVE ( 'NONE', #244, #233, #219, .T. ) ;
#107 = ORIENTED_EDGE ( 'NONE', *, *, #42, .T. ) ;
#108 = FILL_AREA_STYLE ('',( #57 ) ) ;
#109 = STYLED_ITEM ( 'NONE', ( #51 ), #64 ) ;
#110 = CIRCLE ( 'NONE', #189, 4.000000000000001776 ) ;
#111 =( NAMED_UNIT ( * ) SI_UNIT ( $, .STERADIAN. ) SOLID_ANGLE_UNIT ( ) );
#112 = DIRECTION ( 'NONE',  ( -2.881521880346713429E-17, 1.000000000000000000, -0.000000000000000000 ) ) ;
#113 = AXIS2_PLACEMENT_3D ( 'NONE', #49, #268, #229 ) ;
#114 = STYLED_ITEM ( 'NONE', ( #260 ), #185 ) ;
#115 =( NAMED_UNIT ( * ) PLANE_ANGLE_UNIT ( ) SI_UNIT ( $, .RADIAN. ) );
#116 = EDGE_LOOP ( 'NONE', ( #46, #194 ) ) ;
#117 = STYLED_ITEM ( 'NONE', ( #176 ), #96 ) ;
#118 =( GEOMETRIC_REPRESENTATION_CONTEXT ( 3 ) GLOBAL_UNCERTAINTY_ASSIGNED_CONTEXT ( ( #270 ) ) GLOBAL_UNIT_ASSIGNED_CONTEXT ( ( #73, #280, #182 ) ) REPRESENTATION_CONTEXT ( 'NONE', 'WORKASPACE' ) );
#119 = DIRECTION ( 'NONE',  ( 1.000000000000000000, 0.000000000000000000, 0.000000000000000000 ) ) ;
#120 = LINE ( 'NONE', #209, #13 ) ;
#121 = SURFACE_STYLE_USAGE ( .BOTH. , #27 ) ;
#122 = SHAPE_DEFINITION_REPRESENTATION ( #192, #69 ) ;
#123 = CARTESIAN_POINT ( 'NONE',  ( 0.000000000000000000, 24.00000000000000000, 0.000000000000000000 ) ) ;
#124 =( GEOMETRIC_REPRESENTATION_CONTEXT ( 3 ) GLOBAL_UNCERTAINTY_ASSIGNED_CONTEXT ( ( #213 ) ) GLOBAL_UNIT_ASSIGNED_CONTEXT ( ( #158, #98, #131 ) ) REPRESENTATION_CONTEXT ( 'NONE', 'WORKASPACE' ) );
#125 = PRODUCT_CONTEXT ( 'NONE', #153, 'mechanical' ) ;
#126 = CARTESIAN_POINT ( 'NONE',  ( 4.000000000000000000, 24.00000000000000000, 4.898587196589413815E-16 ) ) ;
#127 = CYLINDRICAL_SURFACE ( 'NONE', #283, 4.000000000000000888 ) ;
#128 = PRODUCT_DEFINITION_CONTEXT ( 'detailed design', #89, 'design' ) ;
#129 = AXIS2_PLACEMENT_3D ( 'NONE', #85, #8, #163 ) ;
#130 = SURFACE_STYLE_FILL_AREA ( #234 ) ;
#131 =( NAMED_UNIT ( * ) SI_UNIT ( $, .STERADIAN. ) SOLID_ANGLE_UNIT ( ) );
#132 = EDGE_CURVE ( 'NONE', #233, #179, #177, .T. ) ;
#133 = DIRECTION ( 'NONE',  ( -1.000000000000000000, 0.000000000000000000, 0.000000000000000000 ) ) ;
#134 = ORIENTED_EDGE ( 'NONE', *, *, #238, .T. ) ;
#135 = PLANE ( 'NONE',  #231 ) ;
#136 =( GEOMETRIC_REPRESENTATION_CONTEXT ( 3 ) GLOBAL_UNCERTAINTY_ASSIGNED_CONTEXT ( ( #248 ) ) GLOBAL_UNIT_ASSIGNED_CONTEXT ( ( #199, #253, #111 ) ) REPRESENTATION_CONTEXT ( 'NONE', 'WORKASPACE' ) );
#137 = PRESENTATION_LAYER_ASSIGNMENT (  '', '', ( #24 ) ) ;
#138 = EDGE_CURVE ( 'NONE', #174, #40, #166, .T. ) ;
#139 = EDGE_LOOP ( 'NONE', ( #134, #277, #223, #264 ) ) ;
#140 = CARTESIAN_POINT ( 'NONE',  ( 0.000000000000000000, 0.000000000000000000, 0.000000000000000000 ) ) ;
#141 =( GEOMETRIC_REPRESENTATION_CONTEXT ( 3 ) GLOBAL_UNCERTAINTY_ASSIGNED_CONTEXT ( ( #232 ) ) GLOBAL_UNIT_ASSIGNED_CONTEXT ( ( #184, #25, #144 ) ) REPRESENTATION_CONTEXT ( 'NONE', 'WORKASPACE' ) );
#142 =( NAMED_UNIT ( * ) SI_UNIT ( $, .STERADIAN. ) SOLID_ANGLE_UNIT ( ) );
#143 = DIRECTION ( 'NONE',  ( -0.000000000000000000, -1.000000000000000000, -0.000000000000000000 ) ) ;
#144 =( NAMED_UNIT ( * ) SI_UNIT ( $, .STERADIAN. ) SOLID_ANGLE_UNIT ( ) );
#145 = CLOSED_SHELL ( 'NONE', ( #92, #53, #9, #150 ) ) ;
#146 = CARTESIAN_POINT ( 'NONE',  ( -4.000000000000003553, 75.00000000000000000, 0.000000000000000000 ) ) ;
#147 = SURFACE_SIDE_STYLE ('',( #175 ) ) ;
#148 = COLOUR_RGB ( '',0.7921568627450980005, 0.8196078431372548767, 0.9333333333333333481 ) ;
#149 = CIRCLE ( 'NONE', #154, 4.000000000000000000 ) ;
#150 = ADVANCED_FACE ( 'NONE', ( #239 ), #135, .F. ) ;
#151 = CARTESIAN_POINT ( 'NONE',  ( 0.000000000000000000, 24.00000000000000000, 0.000000000000000000 ) ) ;
#152 = CARTESIAN_POINT ( 'NONE',  ( 0.000000000000000000, 0.000000000000000000, 0.000000000000000000 ) ) ;
#153 = APPLICATION_CONTEXT ( 'automotive_design' ) ;
#154 = AXIS2_PLACEMENT_3D ( 'NONE', #63, #203, #97 ) ;
#155 =( LENGTH_UNIT ( ) NAMED_UNIT ( * ) SI_UNIT ( .MILLI., .METRE. ) );
#156 = DIRECTION ( 'NONE',  ( -1.000000000000000000, 0.000000000000000000, 0.000000000000000000 ) ) ;
#157 = DIRECTION ( 'NONE',  ( -1.000000000000000000, 0.000000000000000000, 0.000000000000000000 ) ) ;
#158 =( LENGTH_UNIT ( ) NAMED_UNIT ( * ) SI_UNIT ( .MILLI., .METRE. ) );
#159 = SURFACE_SIDE_STYLE ('',( #130 ) ) ;
#160 = EDGE_CURVE ( 'NONE', #244, #285, #149, .T. ) ;
#161 = PRESENTATION_STYLE_ASSIGNMENT (( #43 ) ) ;
#162 = ORIENTED_EDGE ( 'NONE', *, *, #132, .T. ) ;
#163 = DIRECTION ( 'NONE',  ( -1.000000000000000000, 0.000000000000000000, 0.000000000000000000 ) ) ;
#164 = SURFACE_SIDE_STYLE ('',( #105 ) ) ;
#165 = APPLICATION_PROTOCOL_DEFINITION ( 'draft international standard', 'automotive_design', 1998, #89 ) ;
#166 = CIRCLE ( 'NONE', #267, 4.000000000000001776 ) ;
#167 = CARTESIAN_POINT ( 'NONE',  ( 0.000000000000000000, 0.000000000000000000, -4.000000000000000000 ) ) ;
#168 =( NAMED_UNIT ( * ) SI_UNIT ( $, .STERADIAN. ) SOLID_ANGLE_UNIT ( ) );
#169 = FACE_OUTER_BOUND ( 'NONE', #50, .T. ) ;
#170 = DIRECTION ( 'NONE',  ( -0.000000000000000000, -1.000000000000000000, -0.000000000000000000 ) ) ;
#171 = DIRECTION ( 'NONE',  ( -0.000000000000000000, -1.000000000000000000, -0.000000000000000000 ) ) ;
#172 = STYLED_ITEM ( 'NONE', ( #161 ), #278 ) ;
#173 = CARTESIAN_POINT ( 'NONE',  ( -1.469576158976823750E-15, 75.00000000000000000, 0.000000000000000000 ) ) ;
#174 = VERTEX_POINT ( 'NONE', #62 ) ;
#175 = SURFACE_STYLE_FILL_AREA ( #108 ) ;
#176 = PRESENTATION_STYLE_ASSIGNMENT (( #90 ) ) ;
#177 = CIRCLE ( 'NONE', #80, 4.000000000000000000 ) ;
#178 = SURFACE_SIDE_STYLE ('',( #21 ) ) ;
#179 = VERTEX_POINT ( 'NONE', #235 ) ;
#180 = PRODUCT_DEFINITION_FORMATION_WITH_SPECIFIED_SOURCE ( 'ANY', '', #86, .NOT_KNOWN. ) ;
#181 = FILL_AREA_STYLE ('',( #236 ) ) ;
#182 =( NAMED_UNIT ( * ) SI_UNIT ( $, .STERADIAN. ) SOLID_ANGLE_UNIT ( ) );
#183 = COLOUR_RGB ( '',1.000000000000000000, 0.000000000000000000, 0.000000000000000000 ) ;
#184 =( LENGTH_UNIT ( ) NAMED_UNIT ( * ) SI_UNIT ( .MILLI., .METRE. ) );
#185 = MANIFOLD_SOLID_BREP ( 'Revolve - Cutting Edge', #195 ) ;
#186 = DIRECTION ( 'NONE',  ( -1.000000000000000000, -2.881521880346713429E-17, 0.000000000000000000 ) ) ;
#187 = AXIS2_PLACEMENT_3D ( 'NONE', #152, #171, #33 ) ;
#188 = CYLINDRICAL_SURFACE ( 'NONE', #271, 4.000000000000000000 ) ;
#189 = AXIS2_PLACEMENT_3D ( 'NONE', #93, #37, #133 ) ;
#190 = UNCERTAINTY_MEASURE_WITH_UNIT (LENGTH_MEASURE( 1.000000000000000082E-05 ), #155, 'distance_accuracy_value', 'NONE');
#191 = EDGE_CURVE ( 'NONE', #81, #262, #104, .T. ) ;
#192 = PRODUCT_DEFINITION_SHAPE ( 'NONE', 'NONE',  #30 ) ;
#193 = FACE_OUTER_BOUND ( 'NONE', #139, .T. ) ;
#194 = ORIENTED_EDGE ( 'NONE', *, *, #160, .F. ) ;
#195 = CLOSED_SHELL ( 'NONE', ( #281, #216, #64, #278 ) ) ;
#196 = CARTESIAN_POINT ( 'NONE',  ( -1.469576158976823750E-15, 75.00000000000000000, 0.000000000000000000 ) ) ;
#197 = FILL_AREA_STYLE_COLOUR ( '', #59 ) ;
#198 = ORIENTED_EDGE ( 'NONE', *, *, #204, .T. ) ;
#199 =( LENGTH_UNIT ( ) NAMED_UNIT ( * ) SI_UNIT ( .MILLI., .METRE. ) );
#200 = DIRECTION ( 'NONE',  ( -2.881521880346713429E-17, 1.000000000000000000, -0.000000000000000000 ) ) ;
#201 = DIRECTION ( 'NONE',  ( 0.000000000000000000, 0.000000000000000000, -1.000000000000000000 ) ) ;
#202 = PRESENTATION_LAYER_ASSIGNMENT (  '', '', ( #246 ) ) ;
#203 = DIRECTION ( 'NONE',  ( -0.000000000000000000, -1.000000000000000000, -0.000000000000000000 ) ) ;
#204 = EDGE_CURVE ( 'NONE', #40, #174, #110, .T. ) ;
#205 = PRESENTATION_STYLE_ASSIGNMENT (( #38 ) ) ;
#206 = ORIENTED_EDGE ( 'NONE', *, *, #32, .T. ) ;
#207 = AXIS2_PLACEMENT_3D ( 'NONE', #15, #112, #222 ) ;
#208 =( LENGTH_UNIT ( ) NAMED_UNIT ( * ) SI_UNIT ( .MILLI., .METRE. ) );
#209 = CARTESIAN_POINT ( 'NONE',  ( -4.000000000000002665, 75.00000000000000000, 0.000000000000000000 ) ) ;
#210 =( NAMED_UNIT ( * ) PLANE_ANGLE_UNIT ( ) SI_UNIT ( $, .RADIAN. ) );
#211 = DIRECTION ( 'NONE',  ( 0.000000000000000000, 0.000000000000000000, 1.000000000000000000 ) ) ;
#212 = LINE ( 'NONE', #245, #230 ) ;
#213 = UNCERTAINTY_MEASURE_WITH_UNIT (LENGTH_MEASURE( 1.000000000000000082E-05 ), #158, 'distance_accuracy_value', 'NONE');
#214 = CYLINDRICAL_SURFACE ( 'NONE', #129, 4.000000000000000888 ) ;
#215 = AXIS2_PLACEMENT_3D ( 'NONE', #243, #257, #18 ) ;
#216 = ADVANCED_FACE ( 'NONE', ( #95 ), #218, .T. ) ;
#217 = AXIS2_PLACEMENT_3D ( 'NONE', #140, #3, #99 ) ;
#218 = PLANE ( 'NONE',  #215 ) ;
#219 = LINE ( 'NONE', #258, #5 ) ;
#220 = CIRCLE ( 'NONE', #241, 4.000000000000000000 ) ;
#221 = CARTESIAN_POINT ( 'NONE',  ( 4.000000000000000000, 75.00000000000000000, 0.000000000000000000 ) ) ;
#222 = DIRECTION ( 'NONE',  ( -1.000000000000000000, 0.000000000000000000, 0.000000000000000000 ) ) ;
#223 = ORIENTED_EDGE ( 'NONE', *, *, #204, .F. ) ;
#224 = CARTESIAN_POINT ( 'NONE',  ( 0.000000000000000000, 24.00000000000000000, -4.000000000000000000 ) ) ;
#225 = ORIENTED_EDGE ( 'NONE', *, *, #42, .F. ) ;
#226 = SURFACE_STYLE_FILL_AREA ( #247 ) ;
#227 = CARTESIAN_POINT ( 'NONE',  ( 1.660633669383371668E-33, 24.00000000000000000, 0.000000000000000000 ) ) ;
#228 = COLOUR_RGB ( '',1.000000000000000000, 0.000000000000000000, 0.000000000000000000 ) ;
#229 = DIRECTION ( 'NONE',  ( 0.000000000000000000, 0.000000000000000000, -1.000000000000000000 ) ) ;
#230 = VECTOR ( 'NONE', #1, 1000.000000000000000 ) ;
#231 = AXIS2_PLACEMENT_3D ( 'NONE', #221, #14, #20 ) ;
#232 = UNCERTAINTY_MEASURE_WITH_UNIT (LENGTH_MEASURE( 1.000000000000000082E-05 ), #184, 'distance_accuracy_value', 'NONE');
#233 = VERTEX_POINT ( 'NONE', #70 ) ;
#234 = FILL_AREA_STYLE ('',( #34 ) ) ;
#235 = CARTESIAN_POINT ( 'NONE',  ( 0.000000000000000000, 0.000000000000000000, -4.000000000000000000 ) ) ;
#236 = FILL_AREA_STYLE_COLOUR ( '', #183 ) ;
#237 = COLOUR_RGB ( '',0.7921568627450980005, 0.8196078431372548767, 0.9333333333333333481 ) ;
#238 = EDGE_CURVE ( 'NONE', #262, #81, #274, .T. ) ;
#239 = FACE_OUTER_BOUND ( 'NONE', #36, .T. ) ;
#240 = SURFACE_STYLE_FILL_AREA ( #181 ) ;
#241 = AXIS2_PLACEMENT_3D ( 'NONE', #123, #170, #265 ) ;
#242 = ORIENTED_EDGE ( 'NONE', *, *, #238, .F. ) ;
#243 = CARTESIAN_POINT ( 'NONE',  ( 0.000000000000000000, 24.00000000000000000, 0.000000000000000000 ) ) ;
#244 = VERTEX_POINT ( 'NONE', #72 ) ;
#245 = CARTESIAN_POINT ( 'NONE',  ( 3.999999999999999112, 75.00000000000000000, 4.898587196589413815E-16 ) ) ;
#246 = STYLED_ITEM ( 'NONE', ( #44 ), #281 ) ;
#247 = FILL_AREA_STYLE ('',( #103 ) ) ;
#248 = UNCERTAINTY_MEASURE_WITH_UNIT (LENGTH_MEASURE( 1.000000000000000082E-05 ), #199, 'distance_accuracy_value', 'NONE');
#249 = FACE_OUTER_BOUND ( 'NONE', #282, .T. ) ;
#250 = MECHANICAL_DESIGN_GEOMETRIC_PRESENTATION_REPRESENTATION (  '', ( #24 ), #124 ) ;
#251 = DIRECTION ( 'NONE',  ( -2.881521880346713429E-17, 1.000000000000000000, -0.000000000000000000 ) ) ;
#252 = ORIENTED_EDGE ( 'NONE', *, *, #191, .F. ) ;
#253 =( NAMED_UNIT ( * ) PLANE_ANGLE_UNIT ( ) SI_UNIT ( $, .RADIAN. ) );
#254 = MECHANICAL_DESIGN_GEOMETRIC_PRESENTATION_REPRESENTATION (  '', ( #109 ), #55 ) ;
#255 = PRESENTATION_LAYER_ASSIGNMENT (  '', '', ( #114 ) ) ;
#256 = EDGE_LOOP ( 'NONE', ( #10, #61, #206, #101 ) ) ;
#257 = DIRECTION ( 'NONE',  ( 0.000000000000000000, 1.000000000000000000, 0.000000000000000000 ) ) ;
#258 = CARTESIAN_POINT ( 'NONE',  ( 4.898587196589412829E-16, 0.000000000000000000, 4.000000000000000000 ) ) ;
#259 = ORIENTED_EDGE ( 'NONE', *, *, #2, .T. ) ;
#260 = PRESENTATION_STYLE_ASSIGNMENT (( #41 ) ) ;
#261 = PRESENTATION_LAYER_ASSIGNMENT (  '', '', ( #172 ) ) ;
#262 = VERTEX_POINT ( 'NONE', #65 ) ;
#263 = DIRECTION ( 'NONE',  ( 0.000000000000000000, 0.000000000000000000, -1.000000000000000000 ) ) ;
#264 = ORIENTED_EDGE ( 'NONE', *, *, #32, .F. ) ;
#265 = DIRECTION ( 'NONE',  ( 0.000000000000000000, 0.000000000000000000, -1.000000000000000000 ) ) ;
#266 = DIRECTION ( 'NONE',  ( -2.881521880346713429E-17, 1.000000000000000000, -0.000000000000000000 ) ) ;
#267 = AXIS2_PLACEMENT_3D ( 'NONE', #196, #71, #157 ) ;
#268 = DIRECTION ( 'NONE',  ( -0.000000000000000000, -1.000000000000000000, -0.000000000000000000 ) ) ;
#269 = APPLICATION_PROTOCOL_DEFINITION ( 'draft international standard', 'automotive_design', 1998, #153 ) ;
#270 = UNCERTAINTY_MEASURE_WITH_UNIT (LENGTH_MEASURE( 1.000000000000000082E-05 ), #73, 'distance_accuracy_value', 'NONE');
#271 = AXIS2_PLACEMENT_3D ( 'NONE', #82, #288, #263 ) ;
#272 =( NAMED_UNIT ( * ) SI_UNIT ( $, .STERADIAN. ) SOLID_ANGLE_UNIT ( ) );
#273 = ORIENTED_EDGE ( 'NONE', *, *, #106, .F. ) ;
#274 = CIRCLE ( 'NONE', #207, 4.000000000000000000 ) ;
#275 = PRODUCT_RELATED_PRODUCT_CATEGORY ( 'part', '', ( #86 ) ) ;
#276 = CARTESIAN_POINT ( 'NONE',  ( 0.000000000000000000, 0.000000000000000000, 0.000000000000000000 ) ) ;
#277 = ORIENTED_EDGE ( 'NONE', *, *, #47, .T. ) ;
#278 = ADVANCED_FACE ( 'NONE', ( #68 ), #22, .T. ) ;
#279 = FILL_AREA_STYLE ('',( #197 ) ) ;
#280 =( NAMED_UNIT ( * ) PLANE_ANGLE_UNIT ( ) SI_UNIT ( $, .RADIAN. ) );
#281 = ADVANCED_FACE ( 'NONE', ( #169 ), #188, .T. ) ;
#282 = EDGE_LOOP ( 'NONE', ( #242, #252 ) ) ;
#283 = AXIS2_PLACEMENT_3D ( 'NONE', #173, #251, #31 ) ;
#284 = MECHANICAL_DESIGN_GEOMETRIC_PRESENTATION_REPRESENTATION (  '', ( #246 ), #87 ) ;
#285 = VERTEX_POINT ( 'NONE', #224 ) ;
#286 = SURFACE_STYLE_USAGE ( .BOTH. , #164 ) ;
#287 = PLANE ( 'NONE',  #74 ) ;
#288 = DIRECTION ( 'NONE',  ( -0.000000000000000000, -1.000000000000000000, -0.000000000000000000 ) ) ;
ENDSEC;
END-ISO-10303-21;
