ISO-10303-21;
HEADER;
FILE_DESCRIPTION (( 'STEP AP214' ),
    '1' );
FILE_NAME ('26122.STEP',
    '2023-06-22T17:27:25',
    ( '' ),
    ( '' ),
    'SwSTEP 2.0',
    'SolidWorks 2023',
    '' );
FILE_SCHEMA (( 'AUTOMOTIVE_DESIGN' ));
ENDSEC;

DATA;
#1 = LENGTH_MEASURE_WITH_UNIT ( LENGTH_MEASURE( 0.02539999999999999897 ), #245 );
#2 = STYLED_ITEM ( 'NONE', ( #116 ), #181 ) ;
#3 = AXIS2_PLACEMENT_3D ( 'NONE', #154, #300, #108 ) ;
#4 = CARTESIAN_POINT ( 'NONE',  ( 6.735557395310443009E-16, 2.000000000000000444, 0.000000000000000000 ) ) ;
#5 = DIRECTION ( 'NONE',  ( -0.000000000000000000, -1.000000000000000000, -0.000000000000000000 ) ) ;
#6 = AXIS2_PLACEMENT_3D ( 'NONE', #279, #17, #69 ) ;
#7 = STYLED_ITEM ( 'NONE', ( #287 ), #190 ) ;
#8 = FILL_AREA_STYLE ('',( #220 ) ) ;
#9 = EDGE_LOOP ( 'NONE', ( #80, #285, #178, #253 ) ) ;
#10 = UNCERTAINTY_MEASURE_WITH_UNIT (LENGTH_MEASURE( 1.000000000000000082E-05 ), #257, 'distance_accuracy_value', 'NONE');
#11 = VERTEX_POINT ( 'NONE', #237 ) ;
#12 =( NAMED_UNIT ( * ) PLANE_ANGLE_UNIT ( ) SI_UNIT ( $, .RADIAN. ) );
#13 = VECTOR ( 'NONE', #91, 39.37007874015748143 ) ;
#14 = ORIENTED_EDGE ( 'NONE', *, *, #153, .F. ) ;
#15 = LINE ( 'NONE', #256, #193 ) ;
#16 = ORIENTED_EDGE ( 'NONE', *, *, #97, .T. ) ;
#17 = DIRECTION ( 'NONE',  ( 4.490371596873628015E-16, 1.000000000000000000, -0.000000000000000000 ) ) ;
#18 =( LENGTH_UNIT ( ) NAMED_UNIT ( * ) SI_UNIT ( $, .METRE. ) );
#19 = CARTESIAN_POINT ( 'NONE',  ( -0.1250000000000000000, 0.5000000000000002220, 0.000000000000000000 ) ) ;
#20 = PRESENTATION_LAYER_ASSIGNMENT (  '', '', ( #7 ) ) ;
#21 = EDGE_CURVE ( 'NONE', #146, #11, #38, .T. ) ;
#22 =( CONVERSION_BASED_UNIT ( 'INCH', #261 ) LENGTH_UNIT ( ) NAMED_UNIT ( #304 ) );
#23 = LINE ( 'NONE', #308, #13 ) ;
#24 =( NAMED_UNIT ( * ) SI_UNIT ( $, .STERADIAN. ) SOLID_ANGLE_UNIT ( ) );
#25 =( LENGTH_UNIT ( ) NAMED_UNIT ( * ) SI_UNIT ( $, .METRE. ) );
#26 = MECHANICAL_DESIGN_GEOMETRIC_PRESENTATION_REPRESENTATION (  '', ( #82 ), #148 ) ;
#27 = AXIS2_PLACEMENT_3D ( 'NONE', #260, #133, #232 ) ;
#28 = AXIS2_PLACEMENT_3D ( 'NONE', #195, #5, #58 ) ;
#29 = ADVANCED_FACE ( 'NONE', ( #68 ), #41, .T. ) ;
#30 = DIRECTION ( 'NONE',  ( -1.000000000000000000, 0.000000000000000000, 0.000000000000000000 ) ) ;
#31 = DIRECTION ( 'NONE',  ( 4.490371596873628015E-16, 1.000000000000000000, -0.000000000000000000 ) ) ;
#32 = SURFACE_STYLE_USAGE ( .BOTH. , #248 ) ;
#33 =( LENGTH_UNIT ( ) NAMED_UNIT ( * ) SI_UNIT ( $, .METRE. ) );
#34 = MECHANICAL_DESIGN_GEOMETRIC_PRESENTATION_REPRESENTATION (  '', ( #7 ), #127 ) ;
#35 = DIRECTION ( 'NONE',  ( -0.000000000000000000, -1.000000000000000000, -0.000000000000000000 ) ) ;
#36 = ORIENTED_EDGE ( 'NONE', *, *, #97, .F. ) ;
#37 = ORIENTED_EDGE ( 'NONE', *, *, #259, .F. ) ;
#38 = CIRCLE ( 'NONE', #247, 0.1250000000000000000 ) ;
#39 =( GEOMETRIC_REPRESENTATION_CONTEXT ( 3 ) GLOBAL_UNCERTAINTY_ASSIGNED_CONTEXT ( ( #286 ) ) GLOBAL_UNIT_ASSIGNED_CONTEXT ( ( #198, #12, #100 ) ) REPRESENTATION_CONTEXT ( 'NONE', 'WORKASPACE' ) );
#40 = EDGE_LOOP ( 'NONE', ( #147, #196 ) ) ;
#41 = CYLINDRICAL_SURFACE ( 'NONE', #6, 0.1249999999999996947 ) ;
#42 = UNCERTAINTY_MEASURE_WITH_UNIT (LENGTH_MEASURE( 1.000000000000000082E-05 ), #170, 'distance_accuracy_value', 'NONE');
#43 = CARTESIAN_POINT ( 'NONE',  ( -0.1249999999999986955, 2.000000000000000444, 0.000000000000000000 ) ) ;
#44 = EDGE_CURVE ( 'NONE', #222, #299, #242, .T. ) ;
#45 = PRESENTATION_LAYER_ASSIGNMENT (  '', '', ( #2 ) ) ;
#46 = CARTESIAN_POINT ( 'NONE',  ( 1.260214817375588639E-32, 0.5000000000000000000, 0.000000000000000000 ) ) ;
#47 = CYLINDRICAL_SURFACE ( 'NONE', #168, 0.1249999999999996947 ) ;
#48 = VECTOR ( 'NONE', #145, 39.37007874015748143 ) ;
#49 = DIRECTION ( 'NONE',  ( 0.000000000000000000, -1.000000000000000000, -0.000000000000000000 ) ) ;
#50 = ADVANCED_FACE ( 'NONE', ( #233 ), #159, .F. ) ;
#51 = DIRECTION ( 'NONE',  ( 0.000000000000000000, 0.000000000000000000, -1.000000000000000000 ) ) ;
#52 =( CONVERSION_BASED_UNIT ( 'INCH', #1 ) LENGTH_UNIT ( ) NAMED_UNIT ( #89 ) );
#53 = AXIS2_PLACEMENT_3D ( 'NONE', #85, #306, #152 ) ;
#54 = FILL_AREA_STYLE_COLOUR ( '', #134 ) ;
#55 =( NAMED_UNIT ( * ) SI_UNIT ( $, .STERADIAN. ) SOLID_ANGLE_UNIT ( ) );
#56 = APPLICATION_CONTEXT ( 'automotive_design' ) ;
#57 = SURFACE_STYLE_FILL_AREA ( #142 ) ;
#58 = DIRECTION ( 'NONE',  ( 0.000000000000000000, 0.000000000000000000, -1.000000000000000000 ) ) ;
#59 = ORIENTED_EDGE ( 'NONE', *, *, #173, .T. ) ;
#60 = SURFACE_STYLE_FILL_AREA ( #8 ) ;
#61 = ORIENTED_EDGE ( 'NONE', *, *, #197, .F. ) ;
#62 = COLOUR_RGB ( '',0.7921568627450980005, 0.8196078431372548767, 0.9333333333333333481 ) ;
#63 = COLOUR_RGB ( '',1.000000000000000000, 0.000000000000000000, 0.000000000000000000 ) ;
#64 =( LENGTH_UNIT ( ) NAMED_UNIT ( * ) SI_UNIT ( $, .METRE. ) );
#65 = AXIS2_PLACEMENT_3D ( 'NONE', #200, #298, #275 ) ;
#66 = CARTESIAN_POINT ( 'NONE',  ( 0.000000000000000000, 0.5000000000000000000, 0.000000000000000000 ) ) ;
#67 = DIRECTION ( 'NONE',  ( 0.000000000000000000, 1.000000000000000000, 0.000000000000000000 ) ) ;
#68 = FACE_OUTER_BOUND ( 'NONE', #167, .T. ) ;
#69 = DIRECTION ( 'NONE',  ( -1.000000000000000000, 0.000000000000000000, 0.000000000000000000 ) ) ;
#70 = DIMENSIONAL_EXPONENTS ( 1.000000000000000000, 0.000000000000000000, 0.000000000000000000, 0.000000000000000000, 0.000000000000000000, 0.000000000000000000, 0.000000000000000000 ) ;
#71 = DIRECTION ( 'NONE',  ( -0.000000000000000000, -1.000000000000000000, -0.000000000000000000 ) ) ;
#72 = SURFACE_STYLE_USAGE ( .BOTH. , #189 ) ;
#73 = UNCERTAINTY_MEASURE_WITH_UNIT (LENGTH_MEASURE( 1.000000000000000082E-05 ), #239, 'distance_accuracy_value', 'NONE');
#74 = DIRECTION ( 'NONE',  ( -1.000000000000000000, 5.463695987328526437E-16, 0.000000000000000000 ) ) ;
#75 =( LENGTH_UNIT ( ) NAMED_UNIT ( * ) SI_UNIT ( $, .METRE. ) );
#76 = ORIENTED_EDGE ( 'NONE', *, *, #173, .F. ) ;
#77 = CARTESIAN_POINT ( 'NONE',  ( 0.000000000000000000, 0.000000000000000000, -0.1250000000000000278 ) ) ;
#78 = PRESENTATION_STYLE_ASSIGNMENT (( #203 ) ) ;
#79 = DIRECTION ( 'NONE',  ( 0.000000000000000000, 0.000000000000000000, 1.000000000000000000 ) ) ;
#80 = ORIENTED_EDGE ( 'NONE', *, *, #129, .T. ) ;
#81 = DIRECTION ( 'NONE',  ( -0.000000000000000000, -1.000000000000000000, -0.000000000000000000 ) ) ;
#82 = STYLED_ITEM ( 'NONE', ( #301 ), #109 ) ;
#83 = STYLED_ITEM ( 'NONE', ( #111 ), #291 ) ;
#84 = DIRECTION ( 'NONE',  ( -0.000000000000000000, -1.000000000000000000, -0.000000000000000000 ) ) ;
#85 = CARTESIAN_POINT ( 'NONE',  ( 0.1250000000000000278, 2.000000000000000444, 0.000000000000000000 ) ) ;
#86 = PRODUCT ( '26122', '26122', '', ( #251 ) ) ;
#87 = FILL_AREA_STYLE ('',( #157 ) ) ;
#88 = FACE_OUTER_BOUND ( 'NONE', #199, .T. ) ;
#89 = DIMENSIONAL_EXPONENTS ( 1.000000000000000000, 0.000000000000000000, 0.000000000000000000, 0.000000000000000000, 0.000000000000000000, 0.000000000000000000, 0.000000000000000000 ) ;
#90 = AXIS2_PLACEMENT_3D ( 'NONE', #210, #71, #176 ) ;
#91 = DIRECTION ( 'NONE',  ( 4.490371596873628015E-16, 1.000000000000000000, -0.000000000000000000 ) ) ;
#92 = COLOUR_RGB ( '',0.7921568627450980005, 0.8196078431372548767, 0.9333333333333333481 ) ;
#93 =( NAMED_UNIT ( * ) SI_UNIT ( $, .STERADIAN. ) SOLID_ANGLE_UNIT ( ) );
#94 = FILL_AREA_STYLE ('',( #241 ) ) ;
#95 = FACE_OUTER_BOUND ( 'NONE', #40, .T. ) ;
#96 = AXIS2_PLACEMENT_3D ( 'NONE', #266, #31, #118 ) ;
#97 = EDGE_CURVE ( 'NONE', #131, #296, #23, .T. ) ;
#98 = CARTESIAN_POINT ( 'NONE',  ( 6.735557395310443009E-16, 2.000000000000000444, 0.000000000000000000 ) ) ;
#99 = LINE ( 'NONE', #77, #194 ) ;
#100 =( NAMED_UNIT ( * ) SI_UNIT ( $, .STERADIAN. ) SOLID_ANGLE_UNIT ( ) );
#101 = ORIENTED_EDGE ( 'NONE', *, *, #197, .T. ) ;
#102 = DIRECTION ( 'NONE',  ( 1.000000000000000000, 0.000000000000000000, 0.000000000000000000 ) ) ;
#103 = CARTESIAN_POINT ( 'NONE',  ( 0.1250000000000000278, 0.5000000000000001110, 1.530808498934189660E-17 ) ) ;
#104 = COLOUR_RGB ( '',1.000000000000000000, 0.000000000000000000, 0.000000000000000000 ) ;
#105 = CYLINDRICAL_SURFACE ( 'NONE', #28, 0.1250000000000000278 ) ;
#106 = ORIENTED_EDGE ( 'NONE', *, *, #278, .F. ) ;
#107 = ORIENTED_EDGE ( 'NONE', *, *, #129, .F. ) ;
#108 = DIRECTION ( 'NONE',  ( 0.000000000000000000, 0.000000000000000000, -1.000000000000000000 ) ) ;
#109 = ADVANCED_FACE ( 'NONE', ( #113 ), #151, .T. ) ;
#110 = STYLED_ITEM ( 'NONE', ( #78 ), #236 ) ;
#111 = PRESENTATION_STYLE_ASSIGNMENT (( #231 ) ) ;
#112 = SURFACE_STYLE_FILL_AREA ( #208 ) ;
#113 = FACE_OUTER_BOUND ( 'NONE', #263, .T. ) ;
#114 = SURFACE_SIDE_STYLE ('',( #112 ) ) ;
#115 = CIRCLE ( 'NONE', #294, 0.1250000000000000000 ) ;
#116 = PRESENTATION_STYLE_ASSIGNMENT (( #186 ) ) ;
#117 = SURFACE_STYLE_FILL_AREA ( #139 ) ;
#118 = DIRECTION ( 'NONE',  ( -1.000000000000000000, 5.463695987328526437E-16, 0.000000000000000000 ) ) ;
#119 = AXIS2_PLACEMENT_3D ( 'NONE', #98, #240, #184 ) ;
#120 = SURFACE_STYLE_FILL_AREA ( #94 ) ;
#121 = ADVANCED_FACE ( 'NONE', ( #179 ), #204, .F. ) ;
#122 = CIRCLE ( 'NONE', #119, 0.1249999999999993616 ) ;
#123 = PRODUCT_RELATED_PRODUCT_CATEGORY ( 'part', '', ( #86 ) ) ;
#124 = ORIENTED_EDGE ( 'NONE', *, *, #44, .F. ) ;
#125 = CARTESIAN_POINT ( 'NONE',  ( 1.530808498934192125E-17, 0.000000000000000000, 0.1250000000000000555 ) ) ;
#126 = PRESENTATION_STYLE_ASSIGNMENT (( #32 ) ) ;
#127 =( GEOMETRIC_REPRESENTATION_CONTEXT ( 3 ) GLOBAL_UNCERTAINTY_ASSIGNED_CONTEXT ( ( #73 ) ) GLOBAL_UNIT_ASSIGNED_CONTEXT ( ( #239, #214, #267 ) ) REPRESENTATION_CONTEXT ( 'NONE', 'WORKASPACE' ) );
#128 = EDGE_LOOP ( 'NONE', ( #61, #76 ) ) ;
#129 = EDGE_CURVE ( 'NONE', #11, #146, #187, .T. ) ;
#130 =( NAMED_UNIT ( * ) PLANE_ANGLE_UNIT ( ) SI_UNIT ( $, .RADIAN. ) );
#131 = VERTEX_POINT ( 'NONE', #19 ) ;
#132 = SURFACE_STYLE_FILL_AREA ( #87 ) ;
#133 = DIRECTION ( 'NONE',  ( -0.000000000000000000, -1.000000000000000000, -0.000000000000000000 ) ) ;
#134 = COLOUR_RGB ( '',1.000000000000000000, 0.000000000000000000, 0.000000000000000000 ) ;
#135 = DIRECTION ( 'NONE',  ( 0.000000000000000000, 0.000000000000000000, -1.000000000000000000 ) ) ;
#136 = FILL_AREA_STYLE_COLOUR ( '', #104 ) ;
#137 = LENGTH_MEASURE_WITH_UNIT ( LENGTH_MEASURE( 0.02539999999999999897 ), #25 );
#138 = CIRCLE ( 'NONE', #96, 0.1250000000000000000 ) ;
#139 = FILL_AREA_STYLE ('',( #162 ) ) ;
#140 = MECHANICAL_DESIGN_GEOMETRIC_PRESENTATION_REPRESENTATION (  '', ( #83 ), #249 ) ;
#141 = ADVANCED_FACE ( 'NONE', ( #88 ), #47, .T. ) ;
#142 = FILL_AREA_STYLE ('',( #54 ) ) ;
#143 = ORIENTED_EDGE ( 'NONE', *, *, #21, .F. ) ;
#144 = CARTESIAN_POINT ( 'NONE',  ( 0.000000000000000000, 0.000000000000000000, 0.000000000000000000 ) ) ;
#145 = DIRECTION ( 'NONE',  ( 4.490371596873628015E-16, 1.000000000000000000, -0.000000000000000000 ) ) ;
#146 = VERTEX_POINT ( 'NONE', #218 ) ;
#147 = ORIENTED_EDGE ( 'NONE', *, *, #268, .T. ) ;
#148 =( GEOMETRIC_REPRESENTATION_CONTEXT ( 3 ) GLOBAL_UNCERTAINTY_ASSIGNED_CONTEXT ( ( #10 ) ) GLOBAL_UNIT_ASSIGNED_CONTEXT ( ( #257, #235, #24 ) ) REPRESENTATION_CONTEXT ( 'NONE', 'WORKASPACE' ) );
#149 = PRESENTATION_LAYER_ASSIGNMENT (  '', '', ( #110 ) ) ;
#150 = PRODUCT_DEFINITION_SHAPE ( 'NONE', 'NONE',  #264 ) ;
#151 = PLANE ( 'NONE',  #271 ) ;
#152 = DIRECTION ( 'NONE',  ( 1.000000000000000000, -4.490371596873628015E-16, 0.000000000000000000 ) ) ;
#153 = EDGE_CURVE ( 'NONE', #280, #296, #122, .T. ) ;
#154 = CARTESIAN_POINT ( 'NONE',  ( 0.000000000000000000, 0.000000000000000000, 0.000000000000000000 ) ) ;
#155 = DIRECTION ( 'NONE',  ( -0.000000000000000000, -1.000000000000000000, -0.000000000000000000 ) ) ;
#156 =( GEOMETRIC_REPRESENTATION_CONTEXT ( 3 ) GLOBAL_UNCERTAINTY_ASSIGNED_CONTEXT ( ( #234 ) ) GLOBAL_UNIT_ASSIGNED_CONTEXT ( ( #22, #229, #297 ) ) REPRESENTATION_CONTEXT ( 'NONE', 'WORKASPACE' ) );
#157 = FILL_AREA_STYLE_COLOUR ( '', #92 ) ;
#158 = DIRECTION ( 'NONE',  ( 4.490371596873628015E-16, 1.000000000000000000, -0.000000000000000000 ) ) ;
#159 = PLANE ( 'NONE',  #288 ) ;
#160 = CARTESIAN_POINT ( 'NONE',  ( 0.000000000000000000, 0.5000000000000001110, 0.000000000000000000 ) ) ;
#161 =( NAMED_UNIT ( * ) PLANE_ANGLE_UNIT ( ) SI_UNIT ( $, .RADIAN. ) );
#162 = FILL_AREA_STYLE_COLOUR ( '', #62 ) ;
#163 = ADVANCED_BREP_SHAPE_REPRESENTATION ( '26122', ( #181, #291, #188 ), #156 ) ;
#164 = CYLINDRICAL_SURFACE ( 'NONE', #211, 0.1250000000000000278 ) ;
#165 = ORIENTED_EDGE ( 'NONE', *, *, #21, .T. ) ;
#166 = LENGTH_MEASURE_WITH_UNIT ( LENGTH_MEASURE( 0.02539999999999999897 ), #33 );
#167 = EDGE_LOOP ( 'NONE', ( #171, #59, #16, #14 ) ) ;
#168 = AXIS2_PLACEMENT_3D ( 'NONE', #4, #292, #30 ) ;
#169 = PRESENTATION_LAYER_ASSIGNMENT (  '', '', ( #83 ) ) ;
#170 =( CONVERSION_BASED_UNIT ( 'INCH', #166 ) LENGTH_UNIT ( ) NAMED_UNIT ( #183 ) );
#171 = ORIENTED_EDGE ( 'NONE', *, *, #219, .F. ) ;
#172 = DIRECTION ( 'NONE',  ( 0.000000000000000000, 0.000000000000000000, -1.000000000000000000 ) ) ;
#173 = EDGE_CURVE ( 'NONE', #255, #131, #115, .T. ) ;
#174 = MECHANICAL_DESIGN_GEOMETRIC_PRESENTATION_REPRESENTATION (  '', ( #110 ), #221 ) ;
#175 = SURFACE_SIDE_STYLE ('',( #132 ) ) ;
#176 = DIRECTION ( 'NONE',  ( 0.000000000000000000, 0.000000000000000000, -1.000000000000000000 ) ) ;
#177 = CARTESIAN_POINT ( 'NONE',  ( 0.1250000000000000278, 2.000000000000000444, 1.530808498934189660E-17 ) ) ;
#178 = ORIENTED_EDGE ( 'NONE', *, *, #268, .F. ) ;
#179 = FACE_OUTER_BOUND ( 'NONE', #226, .T. ) ;
#180 = CLOSED_SHELL ( 'NONE', ( #141, #50, #29, #121 ) ) ;
#181 = MANIFOLD_SOLID_BREP ( 'Revolve - Cutting Edge', #205 ) ;
#182 = SURFACE_STYLE_USAGE ( .BOTH. , #114 ) ;
#183 = DIMENSIONAL_EXPONENTS ( 1.000000000000000000, 0.000000000000000000, 0.000000000000000000, 0.000000000000000000, 0.000000000000000000, 0.000000000000000000, 0.000000000000000000 ) ;
#184 = DIRECTION ( 'NONE',  ( -1.000000000000000000, 0.000000000000000000, 0.000000000000000000 ) ) ;
#185 = UNCERTAINTY_MEASURE_WITH_UNIT (LENGTH_MEASURE( 1.000000000000000082E-05 ), #52, 'distance_accuracy_value', 'NONE');
#186 = SURFACE_STYLE_USAGE ( .BOTH. , #290 ) ;
#187 = CIRCLE ( 'NONE', #27, 0.1250000000000000000 ) ;
#188 = AXIS2_PLACEMENT_3D ( 'NONE', #144, #79, #102 ) ;
#189 = SURFACE_SIDE_STYLE ('',( #120 ) ) ;
#190 = ADVANCED_FACE ( 'NONE', ( #95 ), #265, .T. ) ;
#191 = DIRECTION ( 'NONE',  ( 4.490371596873628015E-16, 1.000000000000000000, -0.000000000000000000 ) ) ;
#192 = LENGTH_MEASURE_WITH_UNIT ( LENGTH_MEASURE( 0.02539999999999999897 ), #75 );
#193 = VECTOR ( 'NONE', #84, 39.37007874015748143 ) ;
#194 = VECTOR ( 'NONE', #35, 39.37007874015748143 ) ;
#195 = CARTESIAN_POINT ( 'NONE',  ( 0.000000000000000000, 0.000000000000000000, 0.000000000000000000 ) ) ;
#196 = ORIENTED_EDGE ( 'NONE', *, *, #44, .T. ) ;
#197 = EDGE_CURVE ( 'NONE', #131, #255, #138, .T. ) ;
#198 =( CONVERSION_BASED_UNIT ( 'INCH', #192 ) LENGTH_UNIT ( ) NAMED_UNIT ( #207 ) );
#199 = EDGE_LOOP ( 'NONE', ( #101, #270, #37, #36 ) ) ;
#200 = CARTESIAN_POINT ( 'NONE',  ( 6.735557395310443009E-16, 2.000000000000000444, 0.000000000000000000 ) ) ;
#201 = ORIENTED_EDGE ( 'NONE', *, *, #215, .T. ) ;
#202 = SHAPE_DEFINITION_REPRESENTATION ( #150, #163 ) ;
#203 = SURFACE_STYLE_USAGE ( .BOTH. , #246 ) ;
#204 = PLANE ( 'NONE',  #53 ) ;
#205 = CLOSED_SHELL ( 'NONE', ( #212, #109, #236, #190 ) ) ;
#206 = COLOUR_RGB ( '',1.000000000000000000, 0.000000000000000000, 0.000000000000000000 ) ;
#207 = DIMENSIONAL_EXPONENTS ( 1.000000000000000000, 0.000000000000000000, 0.000000000000000000, 0.000000000000000000, 0.000000000000000000, 0.000000000000000000, 0.000000000000000000 ) ;
#208 = FILL_AREA_STYLE ('',( #136 ) ) ;
#209 = DIRECTION ( 'NONE',  ( -1.000000000000000000, 4.490371596873628015E-16, 0.000000000000000000 ) ) ;
#210 = CARTESIAN_POINT ( 'NONE',  ( 0.000000000000000000, 0.000000000000000000, 0.000000000000000000 ) ) ;
#211 = AXIS2_PLACEMENT_3D ( 'NONE', #224, #81, #172 ) ;
#212 = ADVANCED_FACE ( 'NONE', ( #216 ), #105, .T. ) ;
#213 = CARTESIAN_POINT ( 'NONE',  ( 0.000000000000000000, 0.000000000000000000, 0.000000000000000000 ) ) ;
#214 =( NAMED_UNIT ( * ) PLANE_ANGLE_UNIT ( ) SI_UNIT ( $, .RADIAN. ) );
#215 = EDGE_CURVE ( 'NONE', #11, #299, #99, .T. ) ;
#216 = FACE_OUTER_BOUND ( 'NONE', #9, .T. ) ;
#217 = APPLICATION_CONTEXT ( 'automotive_design' ) ;
#218 = CARTESIAN_POINT ( 'NONE',  ( 1.530808498934191817E-17, 0.5000000000000000000, 0.1250000000000000000 ) ) ;
#219 = EDGE_CURVE ( 'NONE', #255, #280, #295, .T. ) ;
#220 = FILL_AREA_STYLE_COLOUR ( '', #206 ) ;
#221 =( GEOMETRIC_REPRESENTATION_CONTEXT ( 3 ) GLOBAL_UNCERTAINTY_ASSIGNED_CONTEXT ( ( #42 ) ) GLOBAL_UNIT_ASSIGNED_CONTEXT ( ( #170, #269, #55 ) ) REPRESENTATION_CONTEXT ( 'NONE', 'WORKASPACE' ) );
#222 = VERTEX_POINT ( 'NONE', #125 ) ;
#223 = APPLICATION_PROTOCOL_DEFINITION ( 'draft international standard', 'automotive_design', 1998, #217 ) ;
#224 = CARTESIAN_POINT ( 'NONE',  ( 0.000000000000000000, 0.000000000000000000, 0.000000000000000000 ) ) ;
#225 = FACE_OUTER_BOUND ( 'NONE', #250, .T. ) ;
#226 = EDGE_LOOP ( 'NONE', ( #274, #262 ) ) ;
#227 = MECHANICAL_DESIGN_GEOMETRIC_PRESENTATION_REPRESENTATION (  '', ( #2 ), #243 ) ;
#228 = CIRCLE ( 'NONE', #65, 0.1249999999999993616 ) ;
#229 =( NAMED_UNIT ( * ) PLANE_ANGLE_UNIT ( ) SI_UNIT ( $, .RADIAN. ) );
#230 = DIRECTION ( 'NONE',  ( 0.000000000000000000, -0.000000000000000000, 1.000000000000000000 ) ) ;
#231 = SURFACE_STYLE_USAGE ( .BOTH. , #175 ) ;
#232 = DIRECTION ( 'NONE',  ( 0.000000000000000000, 0.000000000000000000, -1.000000000000000000 ) ) ;
#233 = FACE_OUTER_BOUND ( 'NONE', #128, .T. ) ;
#234 = UNCERTAINTY_MEASURE_WITH_UNIT (LENGTH_MEASURE( 1.000000000000000082E-05 ), #22, 'distance_accuracy_value', 'NONE');
#235 =( NAMED_UNIT ( * ) PLANE_ANGLE_UNIT ( ) SI_UNIT ( $, .RADIAN. ) );
#236 = ADVANCED_FACE ( 'NONE', ( #225 ), #164, .T. ) ;
#237 = CARTESIAN_POINT ( 'NONE',  ( 0.000000000000000000, 0.5000000000000000000, -0.1250000000000000000 ) ) ;
#238 = PRODUCT_DEFINITION_FORMATION_WITH_SPECIFIED_SOURCE ( 'ANY', '', #86, .NOT_KNOWN. ) ;
#239 =( CONVERSION_BASED_UNIT ( 'INCH', #293 ) LENGTH_UNIT ( ) NAMED_UNIT ( #258 ) );
#240 = DIRECTION ( 'NONE',  ( 4.490371596873628015E-16, 1.000000000000000000, -0.000000000000000000 ) ) ;
#241 = FILL_AREA_STYLE_COLOUR ( '', #63 ) ;
#242 = CIRCLE ( 'NONE', #90, 0.1250000000000000278 ) ;
#243 =( GEOMETRIC_REPRESENTATION_CONTEXT ( 3 ) GLOBAL_UNCERTAINTY_ASSIGNED_CONTEXT ( ( #185 ) ) GLOBAL_UNIT_ASSIGNED_CONTEXT ( ( #52, #161, #93 ) ) REPRESENTATION_CONTEXT ( 'NONE', 'WORKASPACE' ) );
#244 =( LENGTH_UNIT ( ) NAMED_UNIT ( * ) SI_UNIT ( $, .METRE. ) );
#245 =( LENGTH_UNIT ( ) NAMED_UNIT ( * ) SI_UNIT ( $, .METRE. ) );
#246 = SURFACE_SIDE_STYLE ('',( #57 ) ) ;
#247 = AXIS2_PLACEMENT_3D ( 'NONE', #282, #155, #135 ) ;
#248 = SURFACE_SIDE_STYLE ('',( #60 ) ) ;
#249 =( GEOMETRIC_REPRESENTATION_CONTEXT ( 3 ) GLOBAL_UNCERTAINTY_ASSIGNED_CONTEXT ( ( #252 ) ) GLOBAL_UNIT_ASSIGNED_CONTEXT ( ( #281, #130, #276 ) ) REPRESENTATION_CONTEXT ( 'NONE', 'WORKASPACE' ) );
#250 = EDGE_LOOP ( 'NONE', ( #106, #165, #201, #124 ) ) ;
#251 = PRODUCT_CONTEXT ( 'NONE', #217, 'mechanical' ) ;
#252 = UNCERTAINTY_MEASURE_WITH_UNIT (LENGTH_MEASURE( 1.000000000000000082E-05 ), #281, 'distance_accuracy_value', 'NONE');
#253 = ORIENTED_EDGE ( 'NONE', *, *, #215, .F. ) ;
#254 = CARTESIAN_POINT ( 'NONE',  ( 0.000000000000000000, 0.000000000000000000, -0.1250000000000000278 ) ) ;
#255 = VERTEX_POINT ( 'NONE', #103 ) ;
#256 = CARTESIAN_POINT ( 'NONE',  ( 1.530808498934191817E-17, 0.000000000000000000, 0.1250000000000000278 ) ) ;
#257 =( CONVERSION_BASED_UNIT ( 'INCH', #137 ) LENGTH_UNIT ( ) NAMED_UNIT ( #307 ) );
#258 = DIMENSIONAL_EXPONENTS ( 1.000000000000000000, 0.000000000000000000, 0.000000000000000000, 0.000000000000000000, 0.000000000000000000, 0.000000000000000000, 0.000000000000000000 ) ;
#259 = EDGE_CURVE ( 'NONE', #296, #280, #228, .T. ) ;
#260 = CARTESIAN_POINT ( 'NONE',  ( 0.000000000000000000, 0.5000000000000000000, 0.000000000000000000 ) ) ;
#261 = LENGTH_MEASURE_WITH_UNIT ( LENGTH_MEASURE( 0.02539999999999999897 ), #64 );
#262 = ORIENTED_EDGE ( 'NONE', *, *, #153, .T. ) ;
#263 = EDGE_LOOP ( 'NONE', ( #107, #143 ) ) ;
#264 = PRODUCT_DEFINITION ( 'UNKNOWN', '', #238, #303 ) ;
#265 = PLANE ( 'NONE',  #309 ) ;
#266 = CARTESIAN_POINT ( 'NONE',  ( 0.000000000000000000, 0.5000000000000001110, 0.000000000000000000 ) ) ;
#267 =( NAMED_UNIT ( * ) SI_UNIT ( $, .STERADIAN. ) SOLID_ANGLE_UNIT ( ) );
#268 = EDGE_CURVE ( 'NONE', #299, #222, #302, .T. ) ;
#269 =( NAMED_UNIT ( * ) PLANE_ANGLE_UNIT ( ) SI_UNIT ( $, .RADIAN. ) );
#270 = ORIENTED_EDGE ( 'NONE', *, *, #219, .T. ) ;
#271 = AXIS2_PLACEMENT_3D ( 'NONE', #66, #67, #230 ) ;
#272 = CARTESIAN_POINT ( 'NONE',  ( 0.1250000000000003608, 2.000000000000000444, 1.530808498934187811E-17 ) ) ;
#273 = APPLICATION_PROTOCOL_DEFINITION ( 'draft international standard', 'automotive_design', 1998, #56 ) ;
#274 = ORIENTED_EDGE ( 'NONE', *, *, #259, .T. ) ;
#275 = DIRECTION ( 'NONE',  ( -1.000000000000000000, 0.000000000000000000, 0.000000000000000000 ) ) ;
#276 =( NAMED_UNIT ( * ) SI_UNIT ( $, .STERADIAN. ) SOLID_ANGLE_UNIT ( ) );
#277 = STYLED_ITEM ( 'NONE', ( #126 ), #212 ) ;
#278 = EDGE_CURVE ( 'NONE', #146, #222, #15, .T. ) ;
#279 = CARTESIAN_POINT ( 'NONE',  ( 6.735557395310443009E-16, 2.000000000000000444, 0.000000000000000000 ) ) ;
#280 = VERTEX_POINT ( 'NONE', #177 ) ;
#281 =( CONVERSION_BASED_UNIT ( 'INCH', #305 ) LENGTH_UNIT ( ) NAMED_UNIT ( #70 ) );
#282 = CARTESIAN_POINT ( 'NONE',  ( 0.000000000000000000, 0.5000000000000000000, 0.000000000000000000 ) ) ;
#283 = PRESENTATION_LAYER_ASSIGNMENT (  '', '', ( #82 ) ) ;
#284 = PRESENTATION_LAYER_ASSIGNMENT (  '', '', ( #277 ) ) ;
#285 = ORIENTED_EDGE ( 'NONE', *, *, #278, .T. ) ;
#286 = UNCERTAINTY_MEASURE_WITH_UNIT (LENGTH_MEASURE( 1.000000000000000082E-05 ), #198, 'distance_accuracy_value', 'NONE');
#287 = PRESENTATION_STYLE_ASSIGNMENT (( #72 ) ) ;
#288 = AXIS2_PLACEMENT_3D ( 'NONE', #46, #158, #209 ) ;
#289 = MECHANICAL_DESIGN_GEOMETRIC_PRESENTATION_REPRESENTATION (  '', ( #277 ), #39 ) ;
#290 = SURFACE_SIDE_STYLE ('',( #117 ) ) ;
#291 = MANIFOLD_SOLID_BREP ( 'Revolve - Tool Body (Straight Shanked)', #180 ) ;
#292 = DIRECTION ( 'NONE',  ( 4.490371596873628015E-16, 1.000000000000000000, -0.000000000000000000 ) ) ;
#293 = LENGTH_MEASURE_WITH_UNIT ( LENGTH_MEASURE( 0.02539999999999999897 ), #244 );
#294 = AXIS2_PLACEMENT_3D ( 'NONE', #160, #191, #74 ) ;
#295 = LINE ( 'NONE', #272, #48 ) ;
#296 = VERTEX_POINT ( 'NONE', #43 ) ;
#297 =( NAMED_UNIT ( * ) SI_UNIT ( $, .STERADIAN. ) SOLID_ANGLE_UNIT ( ) );
#298 = DIRECTION ( 'NONE',  ( 4.490371596873628015E-16, 1.000000000000000000, -0.000000000000000000 ) ) ;
#299 = VERTEX_POINT ( 'NONE', #254 ) ;
#300 = DIRECTION ( 'NONE',  ( -0.000000000000000000, -1.000000000000000000, -0.000000000000000000 ) ) ;
#301 = PRESENTATION_STYLE_ASSIGNMENT (( #182 ) ) ;
#302 = CIRCLE ( 'NONE', #3, 0.1250000000000000278 ) ;
#303 = PRODUCT_DEFINITION_CONTEXT ( 'detailed design', #56, 'design' ) ;
#304 = DIMENSIONAL_EXPONENTS ( 1.000000000000000000, 0.000000000000000000, 0.000000000000000000, 0.000000000000000000, 0.000000000000000000, 0.000000000000000000, 0.000000000000000000 ) ;
#305 = LENGTH_MEASURE_WITH_UNIT ( LENGTH_MEASURE( 0.02539999999999999897 ), #18 );
#306 = DIRECTION ( 'NONE',  ( -4.490371596873628015E-16, -1.000000000000000000, 0.000000000000000000 ) ) ;
#307 = DIMENSIONAL_EXPONENTS ( 1.000000000000000000, 0.000000000000000000, 0.000000000000000000, 0.000000000000000000, 0.000000000000000000, 0.000000000000000000, 0.000000000000000000 ) ;
#308 = CARTESIAN_POINT ( 'NONE',  ( -0.1249999999999990286, 2.000000000000000444, 0.000000000000000000 ) ) ;
#309 = AXIS2_PLACEMENT_3D ( 'NONE', #213, #49, #51 ) ;
ENDSEC;
END-ISO-10303-21;
