ISO-10303-21;
HEADER;
FILE_DESCRIPTION (( 'STEP AP214' ),
    '1' );
FILE_NAME ('Micro_SEM-265-04.STEP',
    '2021-09-02T02:38:47',
    ( '' ),
    ( '' ),
    'SwSTEP 2.0',
    'SolidWorks 2020',
    '' );
FILE_SCHEMA (( 'AUTOMOTIVE_DESIGN' ));
ENDSEC;

DATA;
#1 = VERTEX_POINT ( 'NONE', #135 ) ;
#2 = ORIENTED_EDGE ( 'NONE', *, *, #36, .T. ) ;
#3 = ORIENTED_EDGE ( 'NONE', *, *, #256, .T. ) ;
#4 = EDGE_LOOP ( 'NONE', ( #70, #260, #91, #262 ) ) ;
#5 =( NAMED_UNIT ( * ) PLANE_ANGLE_UNIT ( ) SI_UNIT ( $, .RADIAN. ) );
#6 = ORIENTED_EDGE ( 'NONE', *, *, #185, .T. ) ;
#7 = LENGTH_MEASURE_WITH_UNIT ( LENGTH_MEASURE( 0.02539999999999999897 ), #244 );
#8 = CARTESIAN_POINT ( 'NONE',  ( 6.123233995736766036E-17, 0.0000000000000000000, 0.5000000000000000000 ) ) ;
#9 = CARTESIAN_POINT ( 'NONE',  ( 0.1562500000000000000, 1.913510623667739463E-17, 1.984999999999999654 ) ) ;
#10 = CARTESIAN_POINT ( 'NONE',  ( 0.0000000000000000000, 0.0000000000000000000, 0.0000000000000000000 ) ) ;
#11 = VECTOR ( 'NONE', #97, 39.37007874015748143 ) ;
#12 = LINE ( 'NONE', #170, #203 ) ;
#13 = VECTOR ( 'NONE', #132, 39.37007874015748143 ) ;
#14 = EDGE_CURVE ( 'NONE', #112, #1, #41, .T. ) ;
#15 =( NAMED_UNIT ( * ) SI_UNIT ( $, .STERADIAN. ) SOLID_ANGLE_UNIT ( ) );
#16 = CIRCLE ( 'NONE', #236, 0.1326672000000000406 ) ;
#17 = ORIENTED_EDGE ( 'NONE', *, *, #241, .F. ) ;
#18 = FACE_OUTER_BOUND ( 'NONE', #4, .T. ) ;
#19 = EDGE_LOOP ( 'NONE', ( #206, #6 ) ) ;
#20 = UNCERTAINTY_MEASURE_WITH_UNIT (LENGTH_MEASURE( 1.000000000000000082E-05 ), #121, 'distance_accuracy_value', 'NONE');
#21 = CARTESIAN_POINT ( 'NONE',  ( -0.1412499999999997646, 0.0000000000000000000, 2.000000000000000000 ) ) ;
#22 = EDGE_LOOP ( 'NONE', ( #212, #133, #195, #237 ) ) ;
#23 = EDGE_CURVE ( 'NONE', #117, #209, #235, .T. ) ;
#24 =( NAMED_UNIT ( * ) PLANE_ANGLE_UNIT ( ) SI_UNIT ( $, .RADIAN. ) );
#25 = DIRECTION ( 'NONE',  ( -1.000000000000000000, 0.0000000000000000000, 1.224646799147353207E-16 ) ) ;
#26 = PRODUCT ( 'Micro_SEM-265-04', 'Micro_SEM-265-04', '', ( #181 ) ) ;
#27 = ORIENTED_EDGE ( 'NONE', *, *, #14, .T. ) ;
#28 = DIRECTION ( 'NONE',  ( -1.000000000000000000, 0.0000000000000000000, 0.0000000000000000000 ) ) ;
#29 = AXIS2_PLACEMENT_3D ( 'NONE', #291, #79, #271 ) ;
#30 = DIRECTION ( 'NONE',  ( 1.000000000000000000, 0.0000000000000000000, -0.0000000000000000000 ) ) ;
#31 = CARTESIAN_POINT ( 'NONE',  ( -0.1326671999999999851, 0.0000000000000000000, 3.249409236636834481E-17 ) ) ;
#32 = CARTESIAN_POINT ( 'NONE',  ( 0.1562500000000000000, 1.913510623667739463E-17, 2.000000000000000000 ) ) ;
#33 = AXIS2_PLACEMENT_3D ( 'NONE', #76, #220, #105 ) ;
#34 = CARTESIAN_POINT ( 'NONE',  ( 0.0000000000000000000, 0.0000000000000000000, 2.000000000000000000 ) ) ;
#35 = EDGE_CURVE ( 'NONE', #168, #209, #37, .T. ) ;
#36 = EDGE_CURVE ( 'NONE', #282, #161, #240, .T. ) ;
#37 = CIRCLE ( 'NONE', #183, 0.1562500000000000000 ) ;
#38 = ADVANCED_BREP_SHAPE_REPRESENTATION ( 'Micro_SEM-265-04', ( #290, #94 ), #179 ) ;
#39 = CONICAL_SURFACE ( 'NONE', #299, 0.1326672000000000406, 0.1745329251994338915 ) ;
#40 = EDGE_CURVE ( 'NONE', #1, #161, #182, .T. ) ;
#41 = LINE ( 'NONE', #42, #125 ) ;
#42 = CARTESIAN_POINT ( 'NONE',  ( -0.1326671999999999574, 1.624704618318417549E-17, 0.5000000000000000000 ) ) ;
#43 = DIRECTION ( 'NONE',  ( -1.224646799147353207E-16, -0.0000000000000000000, -1.000000000000000000 ) ) ;
#44 = ORIENTED_EDGE ( 'NONE', *, *, #60, .F. ) ;
#45 = AXIS2_PLACEMENT_3D ( 'NONE', #162, #232, #259 ) ;
#46 = CARTESIAN_POINT ( 'NONE',  ( 0.1326671999999999851, 1.624704618318417549E-17, 0.0000000000000000000 ) ) ;
#47 = DIMENSIONAL_EXPONENTS ( 1.000000000000000000, 0.0000000000000000000, 0.0000000000000000000, 0.0000000000000000000, 0.0000000000000000000, 0.0000000000000000000, 0.0000000000000000000 ) ;
#48 = ORIENTED_EDGE ( 'NONE', *, *, #256, .F. ) ;
#49 = SURFACE_STYLE_FILL_AREA ( #72 ) ;
#50 = CARTESIAN_POINT ( 'NONE',  ( 6.123233995736766036E-17, 0.0000000000000000000, 0.5000000000000000000 ) ) ;
#51 = ADVANCED_FACE ( 'NONE', ( #90 ), #159, .T. ) ;
#52 = CARTESIAN_POINT ( 'NONE',  ( 1.989689310383572291E-33, 0.0000000000000000000, 1.624704618318417241E-17 ) ) ;
#53 = CIRCLE ( 'NONE', #66, 0.1326671999999999851 ) ;
#54 =( NAMED_UNIT ( * ) SI_UNIT ( $, .STERADIAN. ) SOLID_ANGLE_UNIT ( ) );
#55 = STYLED_ITEM ( 'NONE', ( #146 ), #38 ) ;
#56 = DIRECTION ( 'NONE',  ( -1.224646799147353207E-16, -0.0000000000000000000, -1.000000000000000000 ) ) ;
#57 = SURFACE_STYLE_USAGE ( .BOTH. , #83 ) ;
#58 = CYLINDRICAL_SURFACE ( 'NONE', #154, 0.1326672000000000129 ) ;
#59 = DIRECTION ( 'NONE',  ( 1.224646799147353207E-16, 0.0000000000000000000, 1.000000000000000000 ) ) ;
#60 = EDGE_CURVE ( 'NONE', #161, #1, #80, .T. ) ;
#61 = AXIS2_PLACEMENT_3D ( 'NONE', #8, #201, #147 ) ;
#62 = SHAPE_DEFINITION_REPRESENTATION ( #269, #38 ) ;
#63 = CONICAL_SURFACE ( 'NONE', #101, 0.1412499999999997646, 0.7853981633974482790 ) ;
#64 = CARTESIAN_POINT ( 'NONE',  ( 0.1326672000000000129, 1.624704618318417549E-17, -1.624704618318417549E-17 ) ) ;
#65 = EDGE_CURVE ( 'NONE', #144, #68, #279, .T. ) ;
#66 = AXIS2_PLACEMENT_3D ( 'NONE', #52, #293, #199 ) ;
#67 = ORIENTED_EDGE ( 'NONE', *, *, #276, .F. ) ;
#68 = VERTEX_POINT ( 'NONE', #46 ) ;
#69 = ORIENTED_EDGE ( 'NONE', *, *, #234, .F. ) ;
#70 = ORIENTED_EDGE ( 'NONE', *, *, #285, .F. ) ;
#71 = AXIS2_PLACEMENT_3D ( 'NONE', #184, #115, #164 ) ;
#72 = FILL_AREA_STYLE ('',( #284 ) ) ;
#73 = DIRECTION ( 'NONE',  ( 0.0000000000000000000, 0.0000000000000000000, -1.000000000000000000 ) ) ;
#74 = ORIENTED_EDGE ( 'NONE', *, *, #292, .F. ) ;
#75 =( LENGTH_UNIT ( ) NAMED_UNIT ( * ) SI_UNIT ( $, .METRE. ) );
#76 = CARTESIAN_POINT ( 'NONE',  ( 0.0000000000000000000, 0.0000000000000000000, 2.000000000000000000 ) ) ;
#77 = CARTESIAN_POINT ( 'NONE',  ( 0.1326672000000000962, 0.0000000000000000000, 0.5000000000000000000 ) ) ;
#78 =( NAMED_UNIT ( * ) SI_UNIT ( $, .STERADIAN. ) SOLID_ANGLE_UNIT ( ) );
#79 = DIRECTION ( 'NONE',  ( 0.0000000000000000000, 0.0000000000000000000, -1.000000000000000000 ) ) ;
#80 = CIRCLE ( 'NONE', #45, 0.1562500000000000000 ) ;
#81 = CARTESIAN_POINT ( 'NONE',  ( -0.1562500000000000000, 0.0000000000000000000, 2.000000000000000000 ) ) ;
#82 = PLANE ( 'NONE',  #120 ) ;
#83 = SURFACE_SIDE_STYLE ('',( #246 ) ) ;
#84 = CYLINDRICAL_SURFACE ( 'NONE', #223, 0.1562500000000000000 ) ;
#85 = DIRECTION ( 'NONE',  ( 1.000000000000000000, 0.0000000000000000000, 0.0000000000000000000 ) ) ;
#86 = AXIS2_PLACEMENT_3D ( 'NONE', #111, #230, #25 ) ;
#87 = DIRECTION ( 'NONE',  ( -1.224646799147353207E-16, -0.0000000000000000000, -1.000000000000000000 ) ) ;
#88 = VECTOR ( 'NONE', #198, 39.37007874015748143 ) ;
#89 = ADVANCED_FACE ( 'NONE', ( #18 ), #143, .T. ) ;
#90 = FACE_OUTER_BOUND ( 'NONE', #287, .T. ) ;
#91 = ORIENTED_EDGE ( 'NONE', *, *, #213, .T. ) ;
#92 = VECTOR ( 'NONE', #245, 39.37007874015748143 ) ;
#93 = EDGE_LOOP ( 'NONE', ( #280, #67, #2, #238 ) ) ;
#94 = AXIS2_PLACEMENT_3D ( 'NONE', #204, #130, #85 ) ;
#95 = CARTESIAN_POINT ( 'NONE',  ( 0.0000000000000000000, 0.0000000000000000000, 2.000000000000000000 ) ) ;
#96 = ORIENTED_EDGE ( 'NONE', *, *, #292, .T. ) ;
#97 = DIRECTION ( 'NONE',  ( -0.7071067811865475727, 0.0000000000000000000, -0.7071067811865474617 ) ) ;
#98 = CARTESIAN_POINT ( 'NONE',  ( 0.0000000000000000000, 0.0000000000000000000, 2.000000000000000000 ) ) ;
#99 = CARTESIAN_POINT ( 'NONE',  ( 6.123233995736766036E-17, 0.0000000000000000000, 0.5000000000000000000 ) ) ;
#100 = EDGE_LOOP ( 'NONE', ( #163, #255, #233, #110 ) ) ;
#101 = AXIS2_PLACEMENT_3D ( 'NONE', #98, #200, #104 ) ;
#102 = DIRECTION ( 'NONE',  ( -1.224646799147353207E-16, -0.0000000000000000000, -1.000000000000000000 ) ) ;
#103 = FACE_OUTER_BOUND ( 'NONE', #114, .T. ) ;
#104 = DIRECTION ( 'NONE',  ( -1.000000000000000000, 0.0000000000000000000, 0.0000000000000000000 ) ) ;
#105 = DIRECTION ( 'NONE',  ( 1.000000000000000000, 0.0000000000000000000, 0.0000000000000000000 ) ) ;
#106 = EDGE_CURVE ( 'NONE', #264, #168, #277, .T. ) ;
#107 = AXIS2_PLACEMENT_3D ( 'NONE', #286, #296, #221 ) ;
#108 = CARTESIAN_POINT ( 'NONE',  ( 0.0000000000000000000, 0.0000000000000000000, 2.000000000000000000 ) ) ;
#109 = PRODUCT_DEFINITION_FORMATION_WITH_SPECIFIED_SOURCE ( 'ANY', '', #26, .NOT_KNOWN. ) ;
#110 = ORIENTED_EDGE ( 'NONE', *, *, #213, .F. ) ;
#111 = CARTESIAN_POINT ( 'NONE',  ( 0.0000000000000000000, 0.0000000000000000000, 0.0000000000000000000 ) ) ;
#112 = VERTEX_POINT ( 'NONE', #208 ) ;
#113 = CONICAL_SURFACE ( 'NONE', #249, 0.1412499999999997646, 0.7853981633974482790 ) ;
#114 = EDGE_LOOP ( 'NONE', ( #48, #189, #69, #191 ) ) ;
#115 = DIRECTION ( 'NONE',  ( -1.224646799147353207E-16, -0.0000000000000000000, -1.000000000000000000 ) ) ;
#116 = DIRECTION ( 'NONE',  ( -0.1736481776669311916, 2.126576849575783316E-17, 0.9848077530122080203 ) ) ;
#117 = VERTEX_POINT ( 'NONE', #148 ) ;
#118 = EDGE_CURVE ( 'NONE', #112, #282, #16, .T. ) ;
#119 = CARTESIAN_POINT ( 'NONE',  ( 0.1326672000000000962, 0.0000000000000000000, 0.5000000000000000000 ) ) ;
#120 = AXIS2_PLACEMENT_3D ( 'NONE', #242, #239, #247 ) ;
#121 =( CONVERSION_BASED_UNIT ( 'INCH', #7 ) LENGTH_UNIT ( ) NAMED_UNIT ( #47 ) );
#122 = DIRECTION ( 'NONE',  ( -1.000000000000000000, 0.0000000000000000000, 0.0000000000000000000 ) ) ;
#123 = FACE_OUTER_BOUND ( 'NONE', #278, .T. ) ;
#124 = DIRECTION ( 'NONE',  ( -1.224646799147353207E-16, -0.0000000000000000000, -1.000000000000000000 ) ) ;
#125 = VECTOR ( 'NONE', #116, 39.37007874015747433 ) ;
#126 = MECHANICAL_DESIGN_GEOMETRIC_PRESENTATION_REPRESENTATION (  '', ( #55 ), #156 ) ;
#127 = DIRECTION ( 'NONE',  ( -1.224646799147353207E-16, -0.0000000000000000000, -1.000000000000000000 ) ) ;
#128 = LENGTH_MEASURE_WITH_UNIT ( LENGTH_MEASURE( 0.02539999999999999897 ), #75 );
#129 = COLOUR_RGB ( '',0.7921568627450980005, 0.8196078431372548767, 0.9333333333333333481 ) ;
#130 = DIRECTION ( 'NONE',  ( 0.0000000000000000000, 0.0000000000000000000, 1.000000000000000000 ) ) ;
#131 = ADVANCED_FACE ( 'NONE', ( #248 ), #58, .T. ) ;
#132 = DIRECTION ( 'NONE',  ( 0.7071067811865475727, 8.659560562354932858E-17, -0.7071067811865474617 ) ) ;
#133 = ORIENTED_EDGE ( 'NONE', *, *, #171, .F. ) ;
#134 = DIRECTION ( 'NONE',  ( -1.000000000000000000, 0.0000000000000000000, 0.0000000000000000000 ) ) ;
#135 = CARTESIAN_POINT ( 'NONE',  ( -0.1562499999999999445, 0.0000000000000000000, 0.6337447048956795781 ) ) ;
#136 = FILL_AREA_STYLE_COLOUR ( '', #129 ) ;
#137 = UNCERTAINTY_MEASURE_WITH_UNIT (LENGTH_MEASURE( 1.000000000000000082E-05 ), #175, 'distance_accuracy_value', 'NONE');
#138 = ORIENTED_EDGE ( 'NONE', *, *, #40, .T. ) ;
#139 = DIRECTION ( 'NONE',  ( -1.000000000000000000, 0.0000000000000000000, 1.224646799147353207E-16 ) ) ;
#140 = CIRCLE ( 'NONE', #268, 0.1326672000000000406 ) ;
#141 = ORIENTED_EDGE ( 'NONE', *, *, #36, .F. ) ;
#142 =( LENGTH_UNIT ( ) NAMED_UNIT ( * ) SI_UNIT ( $, .METRE. ) );
#143 = CYLINDRICAL_SURFACE ( 'NONE', #86, 0.1326672000000000129 ) ;
#144 = VERTEX_POINT ( 'NONE', #31 ) ;
#145 = ADVANCED_FACE ( 'NONE', ( #103 ), #113, .T. ) ;
#146 = PRESENTATION_STYLE_ASSIGNMENT (( #169 ) ) ;
#147 = DIRECTION ( 'NONE',  ( 1.000000000000000000, 0.0000000000000000000, 0.0000000000000000000 ) ) ;
#148 = CARTESIAN_POINT ( 'NONE',  ( -0.1412499999999997646, 0.0000000000000000000, 2.000000000000000000 ) ) ;
#149 = AXIS2_PLACEMENT_3D ( 'NONE', #95, #257, #134 ) ;
#150 = DIRECTION ( 'NONE',  ( 1.000000000000000000, 0.0000000000000000000, 0.0000000000000000000 ) ) ;
#151 = DIRECTION ( 'NONE',  ( -1.000000000000000000, 0.0000000000000000000, 0.0000000000000000000 ) ) ;
#152 = DIRECTION ( 'NONE',  ( 0.0000000000000000000, 0.0000000000000000000, -1.000000000000000000 ) ) ;
#153 = FACE_OUTER_BOUND ( 'NONE', #93, .T. ) ;
#154 = AXIS2_PLACEMENT_3D ( 'NONE', #289, #56, #197 ) ;
#155 = CIRCLE ( 'NONE', #33, 0.1412499999999997646 ) ;
#156 =( GEOMETRIC_REPRESENTATION_CONTEXT ( 3 ) GLOBAL_UNCERTAINTY_ASSIGNED_CONTEXT ( ( #190 ) ) GLOBAL_UNIT_ASSIGNED_CONTEXT ( ( #202, #177, #15 ) ) REPRESENTATION_CONTEXT ( 'NONE', 'WORKASPACE' ) );
#157 = CARTESIAN_POINT ( 'NONE',  ( 0.1412499999999997646, 1.729813603795632883E-17, 2.000000000000000000 ) ) ;
#158 = CONICAL_SURFACE ( 'NONE', #61, 0.1326672000000000406, 0.1745329251994338915 ) ;
#159 = CYLINDRICAL_SURFACE ( 'NONE', #149, 0.1562500000000000000 ) ;
#160 = EDGE_LOOP ( 'NONE', ( #186, #3 ) ) ;
#161 = VERTEX_POINT ( 'NONE', #193 ) ;
#162 = CARTESIAN_POINT ( 'NONE',  ( 7.761134243270779603E-17, 0.0000000000000000000, 0.6337447048956795781 ) ) ;
#163 = ORIENTED_EDGE ( 'NONE', *, *, #118, .T. ) ;
#164 = DIRECTION ( 'NONE',  ( 1.000000000000000000, 0.0000000000000000000, 0.0000000000000000000 ) ) ;
#165 = CARTESIAN_POINT ( 'NONE',  ( 0.0000000000000000000, 0.0000000000000000000, 1.984999999999999654 ) ) ;
#166 = LINE ( 'NONE', #81, #88 ) ;
#167 = PLANE ( 'NONE',  #253 ) ;
#168 = VERTEX_POINT ( 'NONE', #9 ) ;
#169 = SURFACE_STYLE_USAGE ( .BOTH. , #288 ) ;
#170 = CARTESIAN_POINT ( 'NONE',  ( -0.1326672000000000129, 0.0000000000000000000, 1.624704618318417549E-17 ) ) ;
#171 = EDGE_CURVE ( 'NONE', #117, #264, #294, .T. ) ;
#172 = APPLICATION_PROTOCOL_DEFINITION ( 'draft international standard', 'automotive_design', 1998, #251 ) ;
#173 = LINE ( 'NONE', #32, #92 ) ;
#174 = DIRECTION ( 'NONE',  ( -0.0000000000000000000, -0.0000000000000000000, -1.000000000000000000 ) ) ;
#175 =( CONVERSION_BASED_UNIT ( 'INCH', #295 ) LENGTH_UNIT ( ) NAMED_UNIT ( #261 ) );
#176 = DIRECTION ( 'NONE',  ( 0.0000000000000000000, 0.0000000000000000000, 1.000000000000000000 ) ) ;
#177 =( NAMED_UNIT ( * ) PLANE_ANGLE_UNIT ( ) SI_UNIT ( $, .RADIAN. ) );
#178 = ADVANCED_FACE ( 'NONE', ( #123 ), #158, .T. ) ;
#179 =( GEOMETRIC_REPRESENTATION_CONTEXT ( 3 ) GLOBAL_UNCERTAINTY_ASSIGNED_CONTEXT ( ( #20 ) ) GLOBAL_UNIT_ASSIGNED_CONTEXT ( ( #121, #24, #78 ) ) REPRESENTATION_CONTEXT ( 'NONE', 'WORKASPACE' ) );
#180 = ADVANCED_FACE ( 'NONE', ( #263 ), #167, .F. ) ;
#181 = PRODUCT_CONTEXT ( 'NONE', #251, 'mechanical' ) ;
#182 = CIRCLE ( 'NONE', #71, 0.1562500000000000000 ) ;
#183 = AXIS2_PLACEMENT_3D ( 'NONE', #165, #152, #222 ) ;
#184 = CARTESIAN_POINT ( 'NONE',  ( 7.761134243270779603E-17, 0.0000000000000000000, 0.6337447048956795781 ) ) ;
#185 = EDGE_CURVE ( 'NONE', #68, #144, #53, .T. ) ;
#186 = ORIENTED_EDGE ( 'NONE', *, *, #171, .T. ) ;
#187 = CARTESIAN_POINT ( 'NONE',  ( 1.989689310383572291E-33, 0.0000000000000000000, 1.624704618318417241E-17 ) ) ;
#188 = EDGE_LOOP ( 'NONE', ( #17, #281, #96, #44 ) ) ;
#189 = ORIENTED_EDGE ( 'NONE', *, *, #106, .T. ) ;
#190 = UNCERTAINTY_MEASURE_WITH_UNIT (LENGTH_MEASURE( 1.000000000000000082E-05 ), #202, 'distance_accuracy_value', 'NONE');
#191 = ORIENTED_EDGE ( 'NONE', *, *, #23, .F. ) ;
#192 = FILL_AREA_STYLE ('',( #136 ) ) ;
#193 = CARTESIAN_POINT ( 'NONE',  ( 0.1562500000000000833, 1.913510623667740080E-17, 0.6337447048956795781 ) ) ;
#194 = MECHANICAL_DESIGN_GEOMETRIC_PRESENTATION_REPRESENTATION (  '', ( #298 ), #283 ) ;
#195 = ORIENTED_EDGE ( 'NONE', *, *, #23, .T. ) ;
#196 = FACE_OUTER_BOUND ( 'NONE', #160, .T. ) ;
#197 = DIRECTION ( 'NONE',  ( -1.000000000000000000, 0.0000000000000000000, 1.224646799147353207E-16 ) ) ;
#198 = DIRECTION ( 'NONE',  ( -0.0000000000000000000, -0.0000000000000000000, -1.000000000000000000 ) ) ;
#199 = DIRECTION ( 'NONE',  ( -1.000000000000000000, 0.0000000000000000000, 1.224646799147353207E-16 ) ) ;
#200 = DIRECTION ( 'NONE',  ( 0.0000000000000000000, 0.0000000000000000000, -1.000000000000000000 ) ) ;
#201 = DIRECTION ( 'NONE',  ( 1.224646799147353207E-16, 0.0000000000000000000, 1.000000000000000000 ) ) ;
#202 =( CONVERSION_BASED_UNIT ( 'INCH', #128 ) LENGTH_UNIT ( ) NAMED_UNIT ( #207 ) );
#203 = VECTOR ( 'NONE', #102, 39.37007874015748143 ) ;
#204 = CARTESIAN_POINT ( 'NONE',  ( 0.0000000000000000000, 0.0000000000000000000, 0.0000000000000000000 ) ) ;
#205 = VECTOR ( 'NONE', #275, 39.37007874015748143 ) ;
#206 = ORIENTED_EDGE ( 'NONE', *, *, #65, .T. ) ;
#207 = DIMENSIONAL_EXPONENTS ( 1.000000000000000000, 0.0000000000000000000, 0.0000000000000000000, 0.0000000000000000000, 0.0000000000000000000, 0.0000000000000000000, 0.0000000000000000000 ) ;
#208 = CARTESIAN_POINT ( 'NONE',  ( -0.1326671999999999574, 1.769107620993078506E-17, 0.5000000000000000000 ) ) ;
#209 = VERTEX_POINT ( 'NONE', #219 ) ;
#210 = CLOSED_SHELL ( 'NONE', ( #131, #178, #145, #51, #229, #224, #297, #250, #89, #180 ) ) ;
#211 = PRODUCT_DEFINITION_CONTEXT ( 'detailed design', #274, 'design' ) ;
#212 = ORIENTED_EDGE ( 'NONE', *, *, #106, .F. ) ;
#213 = EDGE_CURVE ( 'NONE', #112, #144, #12, .T. ) ;
#214 = ORIENTED_EDGE ( 'NONE', *, *, #40, .F. ) ;
#215 = ORIENTED_EDGE ( 'NONE', *, *, #118, .F. ) ;
#216 = PRESENTATION_STYLE_ASSIGNMENT (( #57 ) ) ;
#217 = LINE ( 'NONE', #64, #218 ) ;
#218 = VECTOR ( 'NONE', #87, 39.37007874015748143 ) ;
#219 = CARTESIAN_POINT ( 'NONE',  ( -0.1562500000000000000, 0.0000000000000000000, 1.984999999999999654 ) ) ;
#220 = DIRECTION ( 'NONE',  ( 0.0000000000000000000, 0.0000000000000000000, 1.000000000000000000 ) ) ;
#221 = DIRECTION ( 'NONE',  ( 1.000000000000000000, 0.0000000000000000000, 0.0000000000000000000 ) ) ;
#222 = DIRECTION ( 'NONE',  ( 1.000000000000000000, 0.0000000000000000000, 0.0000000000000000000 ) ) ;
#223 = AXIS2_PLACEMENT_3D ( 'NONE', #34, #174, #122 ) ;
#224 = ADVANCED_FACE ( 'NONE', ( #196 ), #82, .T. ) ;
#225 = DIRECTION ( 'NONE',  ( -1.000000000000000000, 0.0000000000000000000, 0.0000000000000000000 ) ) ;
#226 = CIRCLE ( 'NONE', #29, 0.1562500000000000000 ) ;
#227 = PRESENTATION_LAYER_ASSIGNMENT (  '', '', ( #55 ) ) ;
#228 = APPLICATION_PROTOCOL_DEFINITION ( 'draft international standard', 'automotive_design', 1998, #274 ) ;
#229 = ADVANCED_FACE ( 'NONE', ( #267 ), #84, .T. ) ;
#230 = DIRECTION ( 'NONE',  ( -1.224646799147353207E-16, -0.0000000000000000000, -1.000000000000000000 ) ) ;
#231 = ORIENTED_EDGE ( 'NONE', *, *, #241, .T. ) ;
#232 = DIRECTION ( 'NONE',  ( -1.224646799147353207E-16, -0.0000000000000000000, -1.000000000000000000 ) ) ;
#233 = ORIENTED_EDGE ( 'NONE', *, *, #65, .F. ) ;
#234 = EDGE_CURVE ( 'NONE', #209, #168, #226, .T. ) ;
#235 = LINE ( 'NONE', #21, #11 ) ;
#236 = AXIS2_PLACEMENT_3D ( 'NONE', #99, #127, #151 ) ;
#237 = ORIENTED_EDGE ( 'NONE', *, *, #35, .F. ) ;
#238 = ORIENTED_EDGE ( 'NONE', *, *, #60, .T. ) ;
#239 = DIRECTION ( 'NONE',  ( 0.0000000000000000000, 0.0000000000000000000, 1.000000000000000000 ) ) ;
#240 = LINE ( 'NONE', #77, #205 ) ;
#241 = EDGE_CURVE ( 'NONE', #168, #161, #173, .T. ) ;
#242 = CARTESIAN_POINT ( 'NONE',  ( 0.0000000000000000000, 0.0000000000000000000, 2.000000000000000000 ) ) ;
#243 = PRESENTATION_LAYER_ASSIGNMENT (  '', '', ( #298 ) ) ;
#244 =( LENGTH_UNIT ( ) NAMED_UNIT ( * ) SI_UNIT ( $, .METRE. ) );
#245 = DIRECTION ( 'NONE',  ( -0.0000000000000000000, -0.0000000000000000000, -1.000000000000000000 ) ) ;
#246 = SURFACE_STYLE_FILL_AREA ( #192 ) ;
#247 = DIRECTION ( 'NONE',  ( 1.000000000000000000, 0.0000000000000000000, -0.0000000000000000000 ) ) ;
#248 = FACE_OUTER_BOUND ( 'NONE', #100, .T. ) ;
#249 = AXIS2_PLACEMENT_3D ( 'NONE', #108, #73, #225 ) ;
#250 = ADVANCED_FACE ( 'NONE', ( #153 ), #39, .T. ) ;
#251 = APPLICATION_CONTEXT ( 'automotive_design' ) ;
#252 = AXIS2_PLACEMENT_3D ( 'NONE', #187, #43, #139 ) ;
#253 = AXIS2_PLACEMENT_3D ( 'NONE', #10, #176, #30 ) ;
#254 = COLOUR_RGB ( '',0.7921568627450980005, 0.8196078431372548767, 0.9333333333333333481 ) ;
#255 = ORIENTED_EDGE ( 'NONE', *, *, #285, .T. ) ;
#256 = EDGE_CURVE ( 'NONE', #264, #117, #155, .T. ) ;
#257 = DIRECTION ( 'NONE',  ( -0.0000000000000000000, -0.0000000000000000000, -1.000000000000000000 ) ) ;
#258 = ORIENTED_EDGE ( 'NONE', *, *, #234, .T. ) ;
#259 = DIRECTION ( 'NONE',  ( 1.000000000000000000, 0.0000000000000000000, 0.0000000000000000000 ) ) ;
#260 = ORIENTED_EDGE ( 'NONE', *, *, #276, .T. ) ;
#261 = DIMENSIONAL_EXPONENTS ( 1.000000000000000000, 0.0000000000000000000, 0.0000000000000000000, 0.0000000000000000000, 0.0000000000000000000, 0.0000000000000000000, 0.0000000000000000000 ) ;
#262 = ORIENTED_EDGE ( 'NONE', *, *, #185, .F. ) ;
#263 = FACE_OUTER_BOUND ( 'NONE', #19, .T. ) ;
#264 = VERTEX_POINT ( 'NONE', #266 ) ;
#265 = PRODUCT_RELATED_PRODUCT_CATEGORY ( 'part', '', ( #26 ) ) ;
#266 = CARTESIAN_POINT ( 'NONE',  ( 0.1412499999999997646, 1.821662113731686019E-17, 2.000000000000000000 ) ) ;
#267 = FACE_OUTER_BOUND ( 'NONE', #188, .T. ) ;
#268 = AXIS2_PLACEMENT_3D ( 'NONE', #50, #124, #28 ) ;
#269 = PRODUCT_DEFINITION_SHAPE ( 'NONE', 'NONE',  #270 ) ;
#270 = PRODUCT_DEFINITION ( 'UNKNOWN', '', #109, #211 ) ;
#271 = DIRECTION ( 'NONE',  ( 1.000000000000000000, 0.0000000000000000000, 0.0000000000000000000 ) ) ;
#272 = CARTESIAN_POINT ( 'NONE',  ( 6.123233995736766036E-17, 0.0000000000000000000, 0.5000000000000000000 ) ) ;
#273 = FACE_OUTER_BOUND ( 'NONE', #22, .T. ) ;
#274 = APPLICATION_CONTEXT ( 'automotive_design' ) ;
#275 = DIRECTION ( 'NONE',  ( 0.1736481776669313859, 0.0000000000000000000, 0.9848077530122077983 ) ) ;
#276 = EDGE_CURVE ( 'NONE', #282, #112, #140, .T. ) ;
#277 = LINE ( 'NONE', #157, #13 ) ;
#278 = EDGE_LOOP ( 'NONE', ( #215, #27, #138, #141 ) ) ;
#279 = CIRCLE ( 'NONE', #252, 0.1326671999999999851 ) ;
#280 = ORIENTED_EDGE ( 'NONE', *, *, #14, .F. ) ;
#281 = ORIENTED_EDGE ( 'NONE', *, *, #35, .T. ) ;
#282 = VERTEX_POINT ( 'NONE', #119 ) ;
#283 =( GEOMETRIC_REPRESENTATION_CONTEXT ( 3 ) GLOBAL_UNCERTAINTY_ASSIGNED_CONTEXT ( ( #137 ) ) GLOBAL_UNIT_ASSIGNED_CONTEXT ( ( #175, #5, #54 ) ) REPRESENTATION_CONTEXT ( 'NONE', 'WORKASPACE' ) );
#284 = FILL_AREA_STYLE_COLOUR ( '', #254 ) ;
#285 = EDGE_CURVE ( 'NONE', #282, #68, #217, .T. ) ;
#286 = CARTESIAN_POINT ( 'NONE',  ( 0.0000000000000000000, 0.0000000000000000000, 2.000000000000000000 ) ) ;
#287 = EDGE_LOOP ( 'NONE', ( #258, #231, #214, #74 ) ) ;
#288 = SURFACE_SIDE_STYLE ('',( #49 ) ) ;
#289 = CARTESIAN_POINT ( 'NONE',  ( 0.0000000000000000000, 0.0000000000000000000, 0.0000000000000000000 ) ) ;
#290 = MANIFOLD_SOLID_BREP ( 'Cut-Revolve1', #210 ) ;
#291 = CARTESIAN_POINT ( 'NONE',  ( 0.0000000000000000000, 0.0000000000000000000, 1.984999999999999654 ) ) ;
#292 = EDGE_CURVE ( 'NONE', #209, #1, #166, .T. ) ;
#293 = DIRECTION ( 'NONE',  ( -1.224646799147353207E-16, -0.0000000000000000000, -1.000000000000000000 ) ) ;
#294 = CIRCLE ( 'NONE', #107, 0.1412499999999997646 ) ;
#295 = LENGTH_MEASURE_WITH_UNIT ( LENGTH_MEASURE( 0.02539999999999999897 ), #142 );
#296 = DIRECTION ( 'NONE',  ( 0.0000000000000000000, 0.0000000000000000000, 1.000000000000000000 ) ) ;
#297 = ADVANCED_FACE ( 'NONE', ( #273 ), #63, .T. ) ;
#298 = STYLED_ITEM ( 'NONE', ( #216 ), #290 ) ;
#299 = AXIS2_PLACEMENT_3D ( 'NONE', #272, #59, #150 ) ;
ENDSEC;
END-ISO-10303-21;
