ISO-10303-21;
HEADER;
FILE_DESCRIPTION (( 'STEP AP214' ),
    '1' );
FILE_NAME ('Micro_AEMM-050-4X.STEP',
    '2022-03-15T14:26:40',
    ( '' ),
    ( '' ),
    'SwSTEP 2.0',
    'SolidWorks 2022',
    '' );
FILE_SCHEMA (( 'AUTOMOTIVE_DESIGN' ));
ENDSEC;

DATA;
#1 = PRESENTATION_STYLE_ASSIGNMENT (( #82 ) ) ;
#2 = LINE ( 'NONE', #183, #224 ) ;
#3 = ADVANCED_FACE ( 'NONE', ( #45 ), #276, .T. ) ;
#4 = MECHANICAL_DESIGN_GEOMETRIC_PRESENTATION_REPRESENTATION (  '', ( #157 ), #69 ) ;
#5 = DIRECTION ( 'NONE',  ( -0.000000000000000000, -0.000000000000000000, -1.000000000000000000 ) ) ;
#6 = DIRECTION ( 'NONE',  ( 1.000000000000000000, 0.000000000000000000, 0.000000000000000000 ) ) ;
#7 = EDGE_CURVE ( 'NONE', #184, #233, #2, .T. ) ;
#8 = COLOUR_RGB ( '',0.7921568627450980005, 0.8196078431372548767, 0.9333333333333333481 ) ;
#9 = AXIS2_PLACEMENT_3D ( 'NONE', #241, #101, #242 ) ;
#10 = CIRCLE ( 'NONE', #9, 0.1181100000000000066 ) ;
#11 = ADVANCED_FACE ( 'NONE', ( #189 ), #255, .T. ) ;
#12 = CARTESIAN_POINT ( 'NONE',  ( 0.000000000000000000, 0.000000000000000000, 2.244094000000000033 ) ) ;
#13 = MANIFOLD_SOLID_BREP ( 'Cut-Revolve1', #145 ) ;
#14 = DIMENSIONAL_EXPONENTS ( 1.000000000000000000, 0.000000000000000000, 0.000000000000000000, 0.000000000000000000, 0.000000000000000000, 0.000000000000000000, 0.000000000000000000 ) ;
#15 = DIRECTION ( 'NONE',  ( -1.224646799147353207E-16, -0.000000000000000000, -1.000000000000000000 ) ) ;
#16 = CARTESIAN_POINT ( 'NONE',  ( 7.714307363656999460E-17, 0.000000000000000000, 0.6299209999999999532 ) ) ;
#17 = ADVANCED_FACE ( 'NONE', ( #155 ), #62, .T. ) ;
#18 = DIRECTION ( 'NONE',  ( 0.7071067811865358044, 8.659560562354788645E-17, -0.7071067811865590080 ) ) ;
#19 = VERTEX_POINT ( 'NONE', #153 ) ;
#20 = DIRECTION ( 'NONE',  ( 0.000000000000000000, 0.000000000000000000, 1.000000000000000000 ) ) ;
#21 = ORIENTED_EDGE ( 'NONE', *, *, #283, .T. ) ;
#22 = ORIENTED_EDGE ( 'NONE', *, *, #7, .T. ) ;
#23 = EDGE_LOOP ( 'NONE', ( #89, #201, #22, #152 ) ) ;
#24 = DIRECTION ( 'NONE',  ( -1.224646799147353207E-16, -0.000000000000000000, -1.000000000000000000 ) ) ;
#25 = LINE ( 'NONE', #142, #243 ) ;
#26 = CIRCLE ( 'NONE', #97, 0.1181100000000000066 ) ;
#27 = ORIENTED_EDGE ( 'NONE', *, *, #166, .F. ) ;
#28 = EDGE_CURVE ( 'NONE', #116, #19, #68, .T. ) ;
#29 = ORIENTED_EDGE ( 'NONE', *, *, #221, .F. ) ;
#30 =( GEOMETRIC_REPRESENTATION_CONTEXT ( 3 ) GLOBAL_UNCERTAINTY_ASSIGNED_CONTEXT ( ( #85 ) ) GLOBAL_UNIT_ASSIGNED_CONTEXT ( ( #228, #297, #205 ) ) REPRESENTATION_CONTEXT ( 'NONE', 'WORKASPACE' ) );
#31 = CARTESIAN_POINT ( 'NONE',  ( 0.1181100000000000066, 1.446430334472939084E-17, 2.229093999999999465 ) ) ;
#32 = ADVANCED_FACE ( 'NONE', ( #199 ), #265, .T. ) ;
#33 = PLANE ( 'NONE',  #256 ) ;
#34 = DIRECTION ( 'NONE',  ( -0.7071067811865358044, 0.000000000000000000, -0.7071067811865590080 ) ) ;
#35 = AXIS2_PLACEMENT_3D ( 'NONE', #102, #267, #198 ) ;
#36 = DIRECTION ( 'NONE',  ( -0.000000000000000000, -0.000000000000000000, -1.000000000000000000 ) ) ;
#37 = ORIENTED_EDGE ( 'NONE', *, *, #192, .T. ) ;
#38 = CARTESIAN_POINT ( 'NONE',  ( -0.09832657499999990225, 1.325291793960830375E-17, 0.6299209999999999532 ) ) ;
#39 = CARTESIAN_POINT ( 'NONE',  ( 0.09832657500000008266, 0.000000000000000000, 0.6299209999999999532 ) ) ;
#40 = VERTEX_POINT ( 'NONE', #132 ) ;
#41 = CARTESIAN_POINT ( 'NONE',  ( 0.000000000000000000, 0.000000000000000000, 0.000000000000000000 ) ) ;
#42 = CIRCLE ( 'NONE', #210, 0.1031100000000002570 ) ;
#43 = VERTEX_POINT ( 'NONE', #223 ) ;
#44 = DIRECTION ( 'NONE',  ( 1.000000000000000000, 0.000000000000000000, 0.000000000000000000 ) ) ;
#45 = FACE_OUTER_BOUND ( 'NONE', #23, .T. ) ;
#46 = EDGE_LOOP ( 'NONE', ( #161, #273, #21, #278 ) ) ;
#47 = LENGTH_MEASURE_WITH_UNIT ( LENGTH_MEASURE( 0.02539999999999999897 ), #202 );
#48 = PRESENTATION_STYLE_ASSIGNMENT (( #295 ) ) ;
#49 = CARTESIAN_POINT ( 'NONE',  ( 0.000000000000000000, 0.000000000000000000, 2.229093999999999465 ) ) ;
#50 = AXIS2_PLACEMENT_3D ( 'NONE', #266, #53, #172 ) ;
#51 = EDGE_CURVE ( 'NONE', #63, #19, #25, .T. ) ;
#52 = ADVANCED_FACE ( 'NONE', ( #240 ), #33, .F. ) ;
#53 = DIRECTION ( 'NONE',  ( 0.000000000000000000, 0.000000000000000000, -1.000000000000000000 ) ) ;
#54 = DIRECTION ( 'NONE',  ( -1.224646799147353207E-16, -0.000000000000000000, -1.000000000000000000 ) ) ;
#55 = VECTOR ( 'NONE', #131, 39.37007874015748143 ) ;
#56 = DIRECTION ( 'NONE',  ( -1.224646799147353207E-16, -0.000000000000000000, -1.000000000000000000 ) ) ;
#57 = DIRECTION ( 'NONE',  ( -1.224646799147353207E-16, -0.000000000000000000, -1.000000000000000000 ) ) ;
#58 = PRODUCT_CONTEXT ( 'NONE', #130, 'mechanical' ) ;
#59 = AXIS2_PLACEMENT_3D ( 'NONE', #245, #54, #144 ) ;
#60 = ORIENTED_EDGE ( 'NONE', *, *, #156, .F. ) ;
#61 = CARTESIAN_POINT ( 'NONE',  ( 9.088328968579682115E-17, 0.000000000000000000, 0.7421183785322699178 ) ) ;
#62 = CYLINDRICAL_SURFACE ( 'NONE', #137, 0.09832657499999998552 ) ;
#63 = VERTEX_POINT ( 'NONE', #31 ) ;
#64 = SURFACE_STYLE_FILL_AREA ( #106 ) ;
#65 = ORIENTED_EDGE ( 'NONE', *, *, #212, .F. ) ;
#66 = CARTESIAN_POINT ( 'NONE',  ( 0.000000000000000000, 0.000000000000000000, 2.244094000000000033 ) ) ;
#67 = DIRECTION ( 'NONE',  ( -1.000000000000000000, 0.000000000000000000, 0.000000000000000000 ) ) ;
#68 = LINE ( 'NONE', #39, #55 ) ;
#69 =( GEOMETRIC_REPRESENTATION_CONTEXT ( 3 ) GLOBAL_UNCERTAINTY_ASSIGNED_CONTEXT ( ( #206 ) ) GLOBAL_UNIT_ASSIGNED_CONTEXT ( ( #136, #259, #91 ) ) REPRESENTATION_CONTEXT ( 'NONE', 'WORKASPACE' ) );
#70 = ADVANCED_FACE ( 'NONE', ( #121 ), #211, .T. ) ;
#71 = EDGE_CURVE ( 'NONE', #260, #43, #90, .T. ) ;
#72 = CARTESIAN_POINT ( 'NONE',  ( 0.000000000000000000, 0.000000000000000000, 0.000000000000000000 ) ) ;
#73 = PRODUCT ( 'Micro_AEMM-050-4X', 'Micro_AEMM-050-4X', '', ( #58 ) ) ;
#74 = PRESENTATION_LAYER_ASSIGNMENT (  '', '', ( #157 ) ) ;
#75 = PRODUCT_DEFINITION_CONTEXT ( 'detailed design', #238, 'design' ) ;
#76 = DIRECTION ( 'NONE',  ( 1.000000000000000000, 0.000000000000000000, 0.000000000000000000 ) ) ;
#77 = DIMENSIONAL_EXPONENTS ( 1.000000000000000000, 0.000000000000000000, 0.000000000000000000, 0.000000000000000000, 0.000000000000000000, 0.000000000000000000, 0.000000000000000000 ) ;
#78 = CYLINDRICAL_SURFACE ( 'NONE', #236, 0.1181100000000000066 ) ;
#79 = CARTESIAN_POINT ( 'NONE',  ( 0.000000000000000000, 0.000000000000000000, 2.244094000000000033 ) ) ;
#80 = EDGE_CURVE ( 'NONE', #63, #184, #284, .T. ) ;
#81 = EDGE_LOOP ( 'NONE', ( #105, #127, #251, #208 ) ) ;
#82 = SURFACE_STYLE_USAGE ( .BOTH. , #252 ) ;
#83 = ORIENTED_EDGE ( 'NONE', *, *, #95, .T. ) ;
#84 = DIRECTION ( 'NONE',  ( 1.224646799147353207E-16, 0.000000000000000000, 1.000000000000000000 ) ) ;
#85 = UNCERTAINTY_MEASURE_WITH_UNIT (LENGTH_MEASURE( 1.000000000000000082E-05 ), #228, 'distance_accuracy_value', 'NONE');
#86 = ADVANCED_FACE ( 'NONE', ( #92 ), #78, .T. ) ;
#87 =( LENGTH_UNIT ( ) NAMED_UNIT ( * ) SI_UNIT ( $, .METRE. ) );
#88 = FACE_OUTER_BOUND ( 'NONE', #226, .T. ) ;
#89 = ORIENTED_EDGE ( 'NONE', *, *, #51, .F. ) ;
#90 = CIRCLE ( 'NONE', #207, 0.1031100000000002570 ) ;
#91 =( NAMED_UNIT ( * ) SI_UNIT ( $, .STERADIAN. ) SOLID_ANGLE_UNIT ( ) );
#92 = FACE_OUTER_BOUND ( 'NONE', #81, .T. ) ;
#93 = AXIS2_PLACEMENT_3D ( 'NONE', #253, #254, #67 ) ;
#94 = AXIS2_PLACEMENT_3D ( 'NONE', #16, #171, #125 ) ;
#95 = EDGE_CURVE ( 'NONE', #260, #63, #147, .T. ) ;
#96 = DIRECTION ( 'NONE',  ( -0.000000000000000000, -0.000000000000000000, -1.000000000000000000 ) ) ;
#97 = AXIS2_PLACEMENT_3D ( 'NONE', #124, #57, #76 ) ;
#98 = CIRCLE ( 'NONE', #59, 0.09832657499999998552 ) ;
#99 = CARTESIAN_POINT ( 'NONE',  ( -0.1181099999999999234, 0.000000000000000000, 0.7421183785322699178 ) ) ;
#100 = DIRECTION ( 'NONE',  ( -1.000000000000000000, 0.000000000000000000, 1.224646799147353207E-16 ) ) ;
#101 = DIRECTION ( 'NONE',  ( 0.000000000000000000, 0.000000000000000000, -1.000000000000000000 ) ) ;
#102 = CARTESIAN_POINT ( 'NONE',  ( 7.714307363656999460E-17, 0.000000000000000000, 0.6299209999999999532 ) ) ;
#103 = EDGE_CURVE ( 'NONE', #218, #230, #176, .T. ) ;
#104 = CARTESIAN_POINT ( 'NONE',  ( -0.1031100000000002570, 0.000000000000000000, 2.244094000000000033 ) ) ;
#105 = ORIENTED_EDGE ( 'NONE', *, *, #156, .T. ) ;
#106 = FILL_AREA_STYLE ('',( #108 ) ) ;
#107 = DIRECTION ( 'NONE',  ( 0.000000000000000000, 0.000000000000000000, -1.000000000000000000 ) ) ;
#108 = FILL_AREA_STYLE_COLOUR ( '', #237 ) ;
#109 = EDGE_LOOP ( 'NONE', ( #296, #112, #203, #250 ) ) ;
#110 = SHAPE_DEFINITION_REPRESENTATION ( #140, #194 ) ;
#111 = EDGE_LOOP ( 'NONE', ( #37, #177 ) ) ;
#112 = ORIENTED_EDGE ( 'NONE', *, *, #221, .T. ) ;
#113 = EDGE_LOOP ( 'NONE', ( #65, #290, #186, #279 ) ) ;
#114 = CARTESIAN_POINT ( 'NONE',  ( 0.000000000000000000, 0.000000000000000000, 0.000000000000000000 ) ) ;
#115 = VECTOR ( 'NONE', #56, 39.37007874015748143 ) ;
#116 = VERTEX_POINT ( 'NONE', #244 ) ;
#117 = DIRECTION ( 'NONE',  ( 1.000000000000000000, 0.000000000000000000, -0.000000000000000000 ) ) ;
#118 = EDGE_CURVE ( 'NONE', #19, #233, #26, .T. ) ;
#119 = AXIS2_PLACEMENT_3D ( 'NONE', #66, #107, #200 ) ;
#120 = VECTOR ( 'NONE', #287, 39.37007874015747433 ) ;
#121 = FACE_OUTER_BOUND ( 'NONE', #154, .T. ) ;
#122 = FACE_OUTER_BOUND ( 'NONE', #222, .T. ) ;
#123 = CARTESIAN_POINT ( 'NONE',  ( 0.1031100000000002570, 1.262733314600838667E-17, 2.244094000000000033 ) ) ;
#124 = CARTESIAN_POINT ( 'NONE',  ( 9.088328968579682115E-17, 0.000000000000000000, 0.7421183785322699178 ) ) ;
#125 = DIRECTION ( 'NONE',  ( -1.000000000000000000, 0.000000000000000000, 0.000000000000000000 ) ) ;
#126 = AXIS2_PLACEMENT_3D ( 'NONE', #229, #84, #181 ) ;
#127 = ORIENTED_EDGE ( 'NONE', *, *, #51, .T. ) ;
#128 = PRODUCT_DEFINITION_FORMATION_WITH_SPECIFIED_SOURCE ( 'ANY', '', #73, .NOT_KNOWN. ) ;
#129 = CARTESIAN_POINT ( 'NONE',  ( -0.1181100000000000066, 0.000000000000000000, 2.229093999999999465 ) ) ;
#130 = APPLICATION_CONTEXT ( 'automotive_design' ) ;
#131 = DIRECTION ( 'NONE',  ( 0.1736481776669313581, 0.000000000000000000, 0.9848077530122077983 ) ) ;
#132 = CARTESIAN_POINT ( 'NONE',  ( 0.09832657499999998552, 1.204153253448721512E-17, 0.000000000000000000 ) ) ;
#133 = ORIENTED_EDGE ( 'NONE', *, *, #80, .F. ) ;
#134 = LENGTH_MEASURE_WITH_UNIT ( LENGTH_MEASURE( 0.02539999999999999897 ), #87 );
#135 = ORIENTED_EDGE ( 'NONE', *, *, #103, .T. ) ;
#136 =( CONVERSION_BASED_UNIT ( 'INCH', #134 ) LENGTH_UNIT ( ) NAMED_UNIT ( #14 ) );
#137 = AXIS2_PLACEMENT_3D ( 'NONE', #292, #220, #235 ) ;
#138 = DIRECTION ( 'NONE',  ( 0.000000000000000000, 0.000000000000000000, -1.000000000000000000 ) ) ;
#139 = STYLED_ITEM ( 'NONE', ( #1 ), #194 ) ;
#140 = PRODUCT_DEFINITION_SHAPE ( 'NONE', 'NONE',  #170 ) ;
#141 = EDGE_CURVE ( 'NONE', #116, #218, #179, .T. ) ;
#142 = CARTESIAN_POINT ( 'NONE',  ( 0.1181100000000000066, 1.446430334472939084E-17, 2.244094000000000033 ) ) ;
#143 = AXIS2_PLACEMENT_3D ( 'NONE', #215, #271, #216 ) ;
#144 = DIRECTION ( 'NONE',  ( -1.000000000000000000, 0.000000000000000000, 1.224646799147353207E-16 ) ) ;
#145 = CLOSED_SHELL ( 'NONE', ( #17, #195, #11, #86, #3, #70, #227, #32, #263, #52 ) ) ;
#146 = VECTOR ( 'NONE', #18, 39.37007874015748854 ) ;
#147 = LINE ( 'NONE', #123, #146 ) ;
#148 = LINE ( 'NONE', #104, #217 ) ;
#149 = CARTESIAN_POINT ( 'NONE',  ( -0.09832657499999998552, 0.000000000000000000, 1.204153253448721512E-17 ) ) ;
#150 = VECTOR ( 'NONE', #15, 39.37007874015748143 ) ;
#151 =( LENGTH_UNIT ( ) NAMED_UNIT ( * ) SI_UNIT ( $, .METRE. ) );
#152 = ORIENTED_EDGE ( 'NONE', *, *, #118, .F. ) ;
#153 = CARTESIAN_POINT ( 'NONE',  ( 0.1181100000000000899, 1.446430334472940009E-17, 0.7421183785322699178 ) ) ;
#154 = EDGE_LOOP ( 'NONE', ( #204, #158 ) ) ;
#155 = FACE_OUTER_BOUND ( 'NONE', #109, .T. ) ;
#156 = EDGE_CURVE ( 'NONE', #184, #63, #10, .T. ) ;
#157 = STYLED_ITEM ( 'NONE', ( #48 ), #13 ) ;
#158 = ORIENTED_EDGE ( 'NONE', *, *, #71, .T. ) ;
#159 = AXIS2_PLACEMENT_3D ( 'NONE', #197, #286, #100 ) ;
#160 = LENGTH_MEASURE_WITH_UNIT ( LENGTH_MEASURE( 0.02539999999999999897 ), #151 );
#161 = ORIENTED_EDGE ( 'NONE', *, *, #175, .F. ) ;
#162 = EDGE_CURVE ( 'NONE', #43, #260, #42, .T. ) ;
#163 = ORIENTED_EDGE ( 'NONE', *, *, #141, .T. ) ;
#164 = DIRECTION ( 'NONE',  ( 0.000000000000000000, 0.000000000000000000, 1.000000000000000000 ) ) ;
#165 = AXIS2_PLACEMENT_3D ( 'NONE', #114, #291, #178 ) ;
#166 = EDGE_CURVE ( 'NONE', #40, #230, #288, .T. ) ;
#167 = DIRECTION ( 'NONE',  ( 0.000000000000000000, 0.000000000000000000, 1.000000000000000000 ) ) ;
#168 = AXIS2_PLACEMENT_3D ( 'NONE', #41, #281, #294 ) ;
#169 = CARTESIAN_POINT ( 'NONE',  ( 0.09832657499999998552, 1.204153253448721512E-17, -1.204153253448721512E-17 ) ) ;
#170 = PRODUCT_DEFINITION ( 'UNKNOWN', '', #128, #75 ) ;
#171 = DIRECTION ( 'NONE',  ( -1.224646799147353207E-16, -0.000000000000000000, -1.000000000000000000 ) ) ;
#172 = DIRECTION ( 'NONE',  ( -1.000000000000000000, 0.000000000000000000, 0.000000000000000000 ) ) ;
#173 = AXIS2_PLACEMENT_3D ( 'NONE', #61, #24, #44 ) ;
#174 = CARTESIAN_POINT ( 'NONE',  ( 0.000000000000000000, 0.000000000000000000, 2.244094000000000033 ) ) ;
#175 = EDGE_CURVE ( 'NONE', #218, #116, #247, .T. ) ;
#176 = LINE ( 'NONE', #149, #115 ) ;
#177 = ORIENTED_EDGE ( 'NONE', *, *, #166, .T. ) ;
#178 = DIRECTION ( 'NONE',  ( 1.000000000000000000, 0.000000000000000000, 0.000000000000000000 ) ) ;
#179 = CIRCLE ( 'NONE', #94, 0.09832657499999998552 ) ;
#180 = ORIENTED_EDGE ( 'NONE', *, *, #187, .F. ) ;
#181 = DIRECTION ( 'NONE',  ( 1.000000000000000000, 0.000000000000000000, 0.000000000000000000 ) ) ;
#182 =( CONVERSION_BASED_UNIT ( 'INCH', #160 ) LENGTH_UNIT ( ) NAMED_UNIT ( #77 ) );
#183 = CARTESIAN_POINT ( 'NONE',  ( -0.1181100000000000066, 0.000000000000000000, 2.244094000000000033 ) ) ;
#184 = VERTEX_POINT ( 'NONE', #129 ) ;
#185 = CYLINDRICAL_SURFACE ( 'NONE', #168, 0.09832657499999998552 ) ;
#186 = ORIENTED_EDGE ( 'NONE', *, *, #28, .T. ) ;
#187 = EDGE_CURVE ( 'NONE', #43, #184, #148, .T. ) ;
#188 = MECHANICAL_DESIGN_GEOMETRIC_PRESENTATION_REPRESENTATION (  '', ( #139 ), #214 ) ;
#189 = FACE_OUTER_BOUND ( 'NONE', #277, .T. ) ;
#190 = FILL_AREA_STYLE ('',( #261 ) ) ;
#191 = CARTESIAN_POINT ( 'NONE',  ( 0.000000000000000000, 0.000000000000000000, 2.244094000000000033 ) ) ;
#192 = EDGE_CURVE ( 'NONE', #230, #40, #98, .T. ) ;
#193 = CARTESIAN_POINT ( 'NONE',  ( 0.1031100000000002570, 1.354581824536888722E-17, 2.244094000000000033 ) ) ;
#194 = ADVANCED_BREP_SHAPE_REPRESENTATION ( 'Micro_AEMM-050-4X', ( #13, #165 ), #30 ) ;
#195 = ADVANCED_FACE ( 'NONE', ( #246 ), #293, .T. ) ;
#196 = CARTESIAN_POINT ( 'NONE',  ( -0.09832657499999990225, 1.204153253448721512E-17, 0.6299209999999999532 ) ) ;
#197 = CARTESIAN_POINT ( 'NONE',  ( 1.474662427518848307E-33, 0.000000000000000000, 1.204153253448721512E-17 ) ) ;
#198 = DIRECTION ( 'NONE',  ( 1.000000000000000000, 0.000000000000000000, 0.000000000000000000 ) ) ;
#199 = FACE_OUTER_BOUND ( 'NONE', #113, .T. ) ;
#200 = DIRECTION ( 'NONE',  ( -1.000000000000000000, 0.000000000000000000, 0.000000000000000000 ) ) ;
#201 = ORIENTED_EDGE ( 'NONE', *, *, #80, .T. ) ;
#202 =( LENGTH_UNIT ( ) NAMED_UNIT ( * ) SI_UNIT ( $, .METRE. ) );
#203 = ORIENTED_EDGE ( 'NONE', *, *, #192, .F. ) ;
#204 = ORIENTED_EDGE ( 'NONE', *, *, #162, .T. ) ;
#205 =( NAMED_UNIT ( * ) SI_UNIT ( $, .STERADIAN. ) SOLID_ANGLE_UNIT ( ) );
#206 = UNCERTAINTY_MEASURE_WITH_UNIT (LENGTH_MEASURE( 1.000000000000000082E-05 ), #136, 'distance_accuracy_value', 'NONE');
#207 = AXIS2_PLACEMENT_3D ( 'NONE', #191, #164, #6 ) ;
#208 = ORIENTED_EDGE ( 'NONE', *, *, #7, .F. ) ;
#209 = DIRECTION ( 'NONE',  ( 1.000000000000000000, 0.000000000000000000, 0.000000000000000000 ) ) ;
#210 = AXIS2_PLACEMENT_3D ( 'NONE', #174, #20, #272 ) ;
#211 = PLANE ( 'NONE',  #225 ) ;
#212 = EDGE_CURVE ( 'NONE', #218, #233, #289, .T. ) ;
#213 = CARTESIAN_POINT ( 'NONE',  ( -0.09832657499999998552, 0.000000000000000000, 2.408306506897443024E-17 ) ) ;
#214 =( GEOMETRIC_REPRESENTATION_CONTEXT ( 3 ) GLOBAL_UNCERTAINTY_ASSIGNED_CONTEXT ( ( #298 ) ) GLOBAL_UNIT_ASSIGNED_CONTEXT ( ( #182, #234, #231 ) ) REPRESENTATION_CONTEXT ( 'NONE', 'WORKASPACE' ) );
#215 = CARTESIAN_POINT ( 'NONE',  ( 7.714307363656999460E-17, 0.000000000000000000, 0.6299209999999999532 ) ) ;
#216 = DIRECTION ( 'NONE',  ( -1.000000000000000000, 0.000000000000000000, 0.000000000000000000 ) ) ;
#217 = VECTOR ( 'NONE', #34, 39.37007874015748854 ) ;
#218 = VERTEX_POINT ( 'NONE', #38 ) ;
#219 = LINE ( 'NONE', #169, #150 ) ;
#220 = DIRECTION ( 'NONE',  ( -1.224646799147353207E-16, -0.000000000000000000, -1.000000000000000000 ) ) ;
#221 = EDGE_CURVE ( 'NONE', #116, #40, #219, .T. ) ;
#222 = EDGE_LOOP ( 'NONE', ( #280, #299, #248, #133 ) ) ;
#223 = CARTESIAN_POINT ( 'NONE',  ( -0.1031100000000002570, 0.000000000000000000, 2.244094000000000033 ) ) ;
#224 = VECTOR ( 'NONE', #5, 39.37007874015748143 ) ;
#225 = AXIS2_PLACEMENT_3D ( 'NONE', #12, #285, #117 ) ;
#226 = EDGE_LOOP ( 'NONE', ( #29, #163, #135, #27 ) ) ;
#227 = ADVANCED_FACE ( 'NONE', ( #122 ), #257, .T. ) ;
#228 =( CONVERSION_BASED_UNIT ( 'INCH', #47 ) LENGTH_UNIT ( ) NAMED_UNIT ( #270 ) );
#229 = CARTESIAN_POINT ( 'NONE',  ( 7.714307363656999460E-17, 0.000000000000000000, 0.6299209999999999532 ) ) ;
#230 = VERTEX_POINT ( 'NONE', #213 ) ;
#231 =( NAMED_UNIT ( * ) SI_UNIT ( $, .STERADIAN. ) SOLID_ANGLE_UNIT ( ) );
#232 = SURFACE_SIDE_STYLE ('',( #282 ) ) ;
#233 = VERTEX_POINT ( 'NONE', #99 ) ;
#234 =( NAMED_UNIT ( * ) PLANE_ANGLE_UNIT ( ) SI_UNIT ( $, .RADIAN. ) );
#235 = DIRECTION ( 'NONE',  ( -1.000000000000000000, 0.000000000000000000, 1.224646799147353207E-16 ) ) ;
#236 = AXIS2_PLACEMENT_3D ( 'NONE', #79, #36, #268 ) ;
#237 = COLOUR_RGB ( '',0.7921568627450980005, 0.8196078431372548767, 0.9333333333333333481 ) ;
#238 = APPLICATION_CONTEXT ( 'automotive_design' ) ;
#239 = DIRECTION ( 'NONE',  ( 1.000000000000000000, 0.000000000000000000, -0.000000000000000000 ) ) ;
#240 = FACE_OUTER_BOUND ( 'NONE', #111, .T. ) ;
#241 = CARTESIAN_POINT ( 'NONE',  ( 0.000000000000000000, 0.000000000000000000, 2.229093999999999465 ) ) ;
#242 = DIRECTION ( 'NONE',  ( 1.000000000000000000, 0.000000000000000000, 0.000000000000000000 ) ) ;
#243 = VECTOR ( 'NONE', #96, 39.37007874015748143 ) ;
#244 = CARTESIAN_POINT ( 'NONE',  ( 0.09832657500000008266, 0.000000000000000000, 0.6299209999999999532 ) ) ;
#245 = CARTESIAN_POINT ( 'NONE',  ( 1.474662427518848307E-33, 0.000000000000000000, 1.204153253448721512E-17 ) ) ;
#246 = FACE_OUTER_BOUND ( 'NONE', #46, .T. ) ;
#247 = CIRCLE ( 'NONE', #143, 0.09832657499999998552 ) ;
#248 = ORIENTED_EDGE ( 'NONE', *, *, #187, .T. ) ;
#249 = APPLICATION_PROTOCOL_DEFINITION ( 'draft international standard', 'automotive_design', 1998, #238 ) ;
#250 = ORIENTED_EDGE ( 'NONE', *, *, #103, .F. ) ;
#251 = ORIENTED_EDGE ( 'NONE', *, *, #283, .F. ) ;
#252 = SURFACE_SIDE_STYLE ('',( #64 ) ) ;
#253 = CARTESIAN_POINT ( 'NONE',  ( 0.000000000000000000, 0.000000000000000000, 2.244094000000000033 ) ) ;
#254 = DIRECTION ( 'NONE',  ( -0.000000000000000000, -0.000000000000000000, -1.000000000000000000 ) ) ;
#255 = CONICAL_SURFACE ( 'NONE', #119, 0.1031100000000002570, 0.7853981633974318477 ) ;
#256 = AXIS2_PLACEMENT_3D ( 'NONE', #72, #167, #239 ) ;
#257 = CONICAL_SURFACE ( 'NONE', #50, 0.1031100000000002570, 0.7853981633974318477 ) ;
#258 = ORIENTED_EDGE ( 'NONE', *, *, #71, .F. ) ;
#259 =( NAMED_UNIT ( * ) PLANE_ANGLE_UNIT ( ) SI_UNIT ( $, .RADIAN. ) );
#260 = VERTEX_POINT ( 'NONE', #193 ) ;
#261 = FILL_AREA_STYLE_COLOUR ( '', #8 ) ;
#262 = PRESENTATION_LAYER_ASSIGNMENT (  '', '', ( #139 ) ) ;
#263 = ADVANCED_FACE ( 'NONE', ( #88 ), #185, .T. ) ;
#264 = PRODUCT_RELATED_PRODUCT_CATEGORY ( 'part', '', ( #73 ) ) ;
#265 = CONICAL_SURFACE ( 'NONE', #126, 0.09832657499999998552, 0.1745329251994338637 ) ;
#266 = CARTESIAN_POINT ( 'NONE',  ( 0.000000000000000000, 0.000000000000000000, 2.244094000000000033 ) ) ;
#267 = DIRECTION ( 'NONE',  ( 1.224646799147353207E-16, 0.000000000000000000, 1.000000000000000000 ) ) ;
#268 = DIRECTION ( 'NONE',  ( -1.000000000000000000, 0.000000000000000000, 0.000000000000000000 ) ) ;
#269 = AXIS2_PLACEMENT_3D ( 'NONE', #49, #138, #209 ) ;
#270 = DIMENSIONAL_EXPONENTS ( 1.000000000000000000, 0.000000000000000000, 0.000000000000000000, 0.000000000000000000, 0.000000000000000000, 0.000000000000000000, 0.000000000000000000 ) ;
#271 = DIRECTION ( 'NONE',  ( -1.224646799147353207E-16, -0.000000000000000000, -1.000000000000000000 ) ) ;
#272 = DIRECTION ( 'NONE',  ( 1.000000000000000000, 0.000000000000000000, 0.000000000000000000 ) ) ;
#273 = ORIENTED_EDGE ( 'NONE', *, *, #212, .T. ) ;
#274 = APPLICATION_PROTOCOL_DEFINITION ( 'draft international standard', 'automotive_design', 1998, #130 ) ;
#275 = CIRCLE ( 'NONE', #173, 0.1181100000000000066 ) ;
#276 = CYLINDRICAL_SURFACE ( 'NONE', #93, 0.1181100000000000066 ) ;
#277 = EDGE_LOOP ( 'NONE', ( #258, #83, #60, #180 ) ) ;
#278 = ORIENTED_EDGE ( 'NONE', *, *, #28, .F. ) ;
#279 = ORIENTED_EDGE ( 'NONE', *, *, #118, .T. ) ;
#280 = ORIENTED_EDGE ( 'NONE', *, *, #95, .F. ) ;
#281 = DIRECTION ( 'NONE',  ( -1.224646799147353207E-16, -0.000000000000000000, -1.000000000000000000 ) ) ;
#282 = SURFACE_STYLE_FILL_AREA ( #190 ) ;
#283 = EDGE_CURVE ( 'NONE', #233, #19, #275, .T. ) ;
#284 = CIRCLE ( 'NONE', #269, 0.1181100000000000066 ) ;
#285 = DIRECTION ( 'NONE',  ( 0.000000000000000000, 0.000000000000000000, 1.000000000000000000 ) ) ;
#286 = DIRECTION ( 'NONE',  ( -1.224646799147353207E-16, -0.000000000000000000, -1.000000000000000000 ) ) ;
#287 = DIRECTION ( 'NONE',  ( -0.1736481776669311639, 2.126576849575783008E-17, 0.9848077530122080203 ) ) ;
#288 = CIRCLE ( 'NONE', #159, 0.09832657499999998552 ) ;
#289 = LINE ( 'NONE', #196, #120 ) ;
#290 = ORIENTED_EDGE ( 'NONE', *, *, #141, .F. ) ;
#291 = DIRECTION ( 'NONE',  ( 0.000000000000000000, 0.000000000000000000, 1.000000000000000000 ) ) ;
#292 = CARTESIAN_POINT ( 'NONE',  ( 0.000000000000000000, 0.000000000000000000, 0.000000000000000000 ) ) ;
#293 = CONICAL_SURFACE ( 'NONE', #35, 0.09832657499999998552, 0.1745329251994338637 ) ;
#294 = DIRECTION ( 'NONE',  ( -1.000000000000000000, 0.000000000000000000, 1.224646799147353207E-16 ) ) ;
#295 = SURFACE_STYLE_USAGE ( .BOTH. , #232 ) ;
#296 = ORIENTED_EDGE ( 'NONE', *, *, #175, .T. ) ;
#297 =( NAMED_UNIT ( * ) PLANE_ANGLE_UNIT ( ) SI_UNIT ( $, .RADIAN. ) );
#298 = UNCERTAINTY_MEASURE_WITH_UNIT (LENGTH_MEASURE( 1.000000000000000082E-05 ), #182, 'distance_accuracy_value', 'NONE');
#299 = ORIENTED_EDGE ( 'NONE', *, *, #162, .F. ) ;
ENDSEC;
END-ISO-10303-21;
