ISO-10303-21;
HEADER;
FILE_DESCRIPTION (( 'STEP AP214' ),
    '1' );
FILE_NAME ('01767.STEP',
    '2023-06-22T14:48:02',
    ( '' ),
    ( '' ),
    'SwSTEP 2.0',
    'SolidWorks 2023',
    '' );
FILE_SCHEMA (( 'AUTOMOTIVE_DESIGN' ));
ENDSEC;

DATA;
#1 =( NAMED_UNIT ( * ) PLANE_ANGLE_UNIT ( ) SI_UNIT ( $, .RADIAN. ) );
#2 = EDGE_CURVE ( 'NONE', #69, #162, #130, .T. ) ;
#3 = UNCERTAINTY_MEASURE_WITH_UNIT (LENGTH_MEASURE( 1.000000000000000082E-05 ), #127, 'distance_accuracy_value', 'NONE');
#4 = AXIS2_PLACEMENT_3D ( 'NONE', #170, #35, #132 ) ;
#5 = CARTESIAN_POINT ( 'NONE',  ( -1.224646799147354440E-16, 6.000000000000000888, 0.000000000000000000 ) ) ;
#6 = PRODUCT_DEFINITION_CONTEXT ( 'detailed design', #86, 'design' ) ;
#7 = ADVANCED_FACE ( 'NONE', ( #301 ), #280, .T. ) ;
#8 = DIRECTION ( 'NONE',  ( 0.000000000000000000, -0.000000000000000000, 1.000000000000000000 ) ) ;
#9 = CIRCLE ( 'NONE', #262, 0.5000000000000001110 ) ;
#10 = CARTESIAN_POINT ( 'NONE',  ( 6.123233995736766036E-17, 0.000000000000000000, 0.5000000000000000000 ) ) ;
#11 = ADVANCED_FACE ( 'NONE', ( #305 ), #234, .T. ) ;
#12 = FACE_OUTER_BOUND ( 'NONE', #158, .T. ) ;
#13 = CYLINDRICAL_SURFACE ( 'NONE', #142, 0.5000000000000001110 ) ;
#14 = AXIS2_PLACEMENT_3D ( 'NONE', #163, #124, #218 ) ;
#15 =( LENGTH_UNIT ( ) NAMED_UNIT ( * ) SI_UNIT ( $, .METRE. ) );
#16 = ORIENTED_EDGE ( 'NONE', *, *, #265, .T. ) ;
#17 = FILL_AREA_STYLE_COLOUR ( '', #299 ) ;
#18 =( NAMED_UNIT ( * ) PLANE_ANGLE_UNIT ( ) SI_UNIT ( $, .RADIAN. ) );
#19 = EDGE_LOOP ( 'NONE', ( #152, #307 ) ) ;
#20 = CARTESIAN_POINT ( 'NONE',  ( 3.291653843976647826E-34, 2.625000000000000000, 0.000000000000000000 ) ) ;
#21 = PRESENTATION_LAYER_ASSIGNMENT (  '', '', ( #289 ) ) ;
#22 =( NAMED_UNIT ( * ) SI_UNIT ( $, .STERADIAN. ) SOLID_ANGLE_UNIT ( ) );
#23 = CIRCLE ( 'NONE', #212, 0.5000000000000000000 ) ;
#24 = FILL_AREA_STYLE_COLOUR ( '', #153 ) ;
#25 =( LENGTH_UNIT ( ) NAMED_UNIT ( * ) SI_UNIT ( $, .METRE. ) );
#26 = SURFACE_SIDE_STYLE ('',( #202 ) ) ;
#27 = EDGE_LOOP ( 'NONE', ( #148, #45, #36, #249 ) ) ;
#28 = UNCERTAINTY_MEASURE_WITH_UNIT (LENGTH_MEASURE( 1.000000000000000082E-05 ), #197, 'distance_accuracy_value', 'NONE');
#29 = APPLICATION_PROTOCOL_DEFINITION ( 'draft international standard', 'automotive_design', 1998, #70 ) ;
#30 = DIRECTION ( 'NONE',  ( -0.000000000000000000, -1.000000000000000000, -0.000000000000000000 ) ) ;
#31 =( NAMED_UNIT ( * ) PLANE_ANGLE_UNIT ( ) SI_UNIT ( $, .RADIAN. ) );
#32 =( NAMED_UNIT ( * ) SI_UNIT ( $, .STERADIAN. ) SOLID_ANGLE_UNIT ( ) );
#33 = MECHANICAL_DESIGN_GEOMETRIC_PRESENTATION_REPRESENTATION (  '', ( #240 ), #270 ) ;
#34 = CARTESIAN_POINT ( 'NONE',  ( 0.000000000000000000, 0.000000000000000000, -0.5000000000000000000 ) ) ;
#35 = DIRECTION ( 'NONE',  ( -3.628583108584753553E-17, 1.000000000000000000, -0.000000000000000000 ) ) ;
#36 = ORIENTED_EDGE ( 'NONE', *, *, #171, .T. ) ;
#37 = PRODUCT_RELATED_PRODUCT_CATEGORY ( 'part', '', ( #191 ) ) ;
#38 =( LENGTH_UNIT ( ) NAMED_UNIT ( * ) SI_UNIT ( $, .METRE. ) );
#39 = DIMENSIONAL_EXPONENTS ( 1.000000000000000000, 0.000000000000000000, 0.000000000000000000, 0.000000000000000000, 0.000000000000000000, 0.000000000000000000, 0.000000000000000000 ) ;
#40 = LINE ( 'NONE', #279, #258 ) ;
#41 = CIRCLE ( 'NONE', #263, 0.5000000000000000000 ) ;
#42 = DIRECTION ( 'NONE',  ( -3.628583108584753553E-17, 1.000000000000000000, -0.000000000000000000 ) ) ;
#43 =( CONVERSION_BASED_UNIT ( 'INCH', #85 ) LENGTH_UNIT ( ) NAMED_UNIT ( #226 ) );
#44 = DIMENSIONAL_EXPONENTS ( 1.000000000000000000, 0.000000000000000000, 0.000000000000000000, 0.000000000000000000, 0.000000000000000000, 0.000000000000000000, 0.000000000000000000 ) ;
#45 = ORIENTED_EDGE ( 'NONE', *, *, #230, .T. ) ;
#46 = ADVANCED_FACE ( 'NONE', ( #72 ), #126, .T. ) ;
#47 =( NAMED_UNIT ( * ) SI_UNIT ( $, .STERADIAN. ) SOLID_ANGLE_UNIT ( ) );
#48 = AXIS2_PLACEMENT_3D ( 'NONE', #282, #208, #182 ) ;
#49 = FILL_AREA_STYLE ('',( #156 ) ) ;
#50 =( GEOMETRIC_REPRESENTATION_CONTEXT ( 3 ) GLOBAL_UNCERTAINTY_ASSIGNED_CONTEXT ( ( #3 ) ) GLOBAL_UNIT_ASSIGNED_CONTEXT ( ( #127, #274, #103 ) ) REPRESENTATION_CONTEXT ( 'NONE', 'WORKASPACE' ) );
#51 = SURFACE_STYLE_USAGE ( .BOTH. , #63 ) ;
#52 =( NAMED_UNIT ( * ) PLANE_ANGLE_UNIT ( ) SI_UNIT ( $, .RADIAN. ) );
#53 = PRESENTATION_STYLE_ASSIGNMENT (( #267 ) ) ;
#54 =( CONVERSION_BASED_UNIT ( 'INCH', #190 ) LENGTH_UNIT ( ) NAMED_UNIT ( #83 ) );
#55 = APPLICATION_PROTOCOL_DEFINITION ( 'draft international standard', 'automotive_design', 1998, #86 ) ;
#56 = PRESENTATION_STYLE_ASSIGNMENT (( #101 ) ) ;
#57 = SURFACE_STYLE_FILL_AREA ( #81 ) ;
#58 = EDGE_CURVE ( 'NONE', #185, #110, #251, .T. ) ;
#59 = VECTOR ( 'NONE', #295, 39.37007874015748143 ) ;
#60 = PLANE ( 'NONE',  #160 ) ;
#61 = EDGE_CURVE ( 'NONE', #180, #276, #111, .T. ) ;
#62 = ORIENTED_EDGE ( 'NONE', *, *, #61, .F. ) ;
#63 = SURFACE_SIDE_STYLE ('',( #64 ) ) ;
#64 = SURFACE_STYLE_FILL_AREA ( #306 ) ;
#65 = CARTESIAN_POINT ( 'NONE',  ( 0.5000000000000000000, 6.000000000000000888, 0.000000000000000000 ) ) ;
#66 = DIRECTION ( 'NONE',  ( 0.000000000000000000, 0.000000000000000000, -1.000000000000000000 ) ) ;
#67 = AXIS2_PLACEMENT_3D ( 'NONE', #155, #250, #66 ) ;
#68 = DIRECTION ( 'NONE',  ( -1.000000000000000000, 0.000000000000000000, 0.000000000000000000 ) ) ;
#69 = VERTEX_POINT ( 'NONE', #71 ) ;
#70 = APPLICATION_CONTEXT ( 'automotive_design' ) ;
#71 = CARTESIAN_POINT ( 'NONE',  ( 0.5000000000000000000, 6.000000000000000888, 6.123233995736767268E-17 ) ) ;
#72 = FACE_OUTER_BOUND ( 'NONE', #286, .T. ) ;
#73 = AXIS2_PLACEMENT_3D ( 'NONE', #65, #283, #184 ) ;
#74 = SURFACE_STYLE_FILL_AREA ( #290 ) ;
#75 = FILL_AREA_STYLE_COLOUR ( '', #177 ) ;
#76 = STYLED_ITEM ( 'NONE', ( #56 ), #46 ) ;
#77 = DIRECTION ( 'NONE',  ( -1.000000000000000000, 0.000000000000000000, 0.000000000000000000 ) ) ;
#78 = MANIFOLD_SOLID_BREP ( 'Revolve - Tool Body (Straight Shanked)', #284 ) ;
#79 = AXIS2_PLACEMENT_3D ( 'NONE', #118, #113, #90 ) ;
#80 = LINE ( 'NONE', #220, #59 ) ;
#81 = FILL_AREA_STYLE ('',( #225 ) ) ;
#82 =( CONVERSION_BASED_UNIT ( 'INCH', #281 ) LENGTH_UNIT ( ) NAMED_UNIT ( #39 ) );
#83 = DIMENSIONAL_EXPONENTS ( 1.000000000000000000, 0.000000000000000000, 0.000000000000000000, 0.000000000000000000, 0.000000000000000000, 0.000000000000000000, 0.000000000000000000 ) ;
#84 = MECHANICAL_DESIGN_GEOMETRIC_PRESENTATION_REPRESENTATION (  '', ( #76 ), #159 ) ;
#85 = LENGTH_MEASURE_WITH_UNIT ( LENGTH_MEASURE( 0.02539999999999999897 ), #278 );
#86 = APPLICATION_CONTEXT ( 'automotive_design' ) ;
#87 = CARTESIAN_POINT ( 'NONE',  ( 6.123233995736766036E-17, 2.625000000000000000, 0.5000000000000000000 ) ) ;
#88 = ORIENTED_EDGE ( 'NONE', *, *, #275, .F. ) ;
#89 = LENGTH_MEASURE_WITH_UNIT ( LENGTH_MEASURE( 0.02539999999999999897 ), #25 );
#90 = DIRECTION ( 'NONE',  ( 0.000000000000000000, 0.000000000000000000, -1.000000000000000000 ) ) ;
#91 = EDGE_CURVE ( 'NONE', #162, #69, #9, .T. ) ;
#92 = PRESENTATION_LAYER_ASSIGNMENT (  '', '', ( #222 ) ) ;
#93 = SURFACE_SIDE_STYLE ('',( #210 ) ) ;
#94 = MANIFOLD_SOLID_BREP ( 'Revolve - Cutting Edge', #140 ) ;
#95 = PRESENTATION_STYLE_ASSIGNMENT (( #266 ) ) ;
#96 = SURFACE_STYLE_FILL_AREA ( #120 ) ;
#97 = SHAPE_DEFINITION_REPRESENTATION ( #241, #168 ) ;
#98 = EDGE_CURVE ( 'NONE', #180, #110, #133, .T. ) ;
#99 =( NAMED_UNIT ( * ) SI_UNIT ( $, .STERADIAN. ) SOLID_ANGLE_UNIT ( ) );
#100 = UNCERTAINTY_MEASURE_WITH_UNIT (LENGTH_MEASURE( 1.000000000000000082E-05 ), #82, 'distance_accuracy_value', 'NONE');
#101 = SURFACE_STYLE_USAGE ( .BOTH. , #271 ) ;
#102 =( LENGTH_UNIT ( ) NAMED_UNIT ( * ) SI_UNIT ( $, .METRE. ) );
#103 =( NAMED_UNIT ( * ) SI_UNIT ( $, .STERADIAN. ) SOLID_ANGLE_UNIT ( ) );
#104 = MECHANICAL_DESIGN_GEOMETRIC_PRESENTATION_REPRESENTATION (  '', ( #239 ), #204 ) ;
#105 = FACE_OUTER_BOUND ( 'NONE', #207, .T. ) ;
#106 = DIRECTION ( 'NONE',  ( -3.628583108584753553E-17, 1.000000000000000000, -0.000000000000000000 ) ) ;
#107 =( NAMED_UNIT ( * ) SI_UNIT ( $, .STERADIAN. ) SOLID_ANGLE_UNIT ( ) );
#108 = ORIENTED_EDGE ( 'NONE', *, *, #61, .T. ) ;
#109 = ORIENTED_EDGE ( 'NONE', *, *, #58, .F. ) ;
#110 = VERTEX_POINT ( 'NONE', #34 ) ;
#111 = CIRCLE ( 'NONE', #14, 0.5000000000000000000 ) ;
#112 = CYLINDRICAL_SURFACE ( 'NONE', #199, 0.5000000000000000000 ) ;
#113 = DIRECTION ( 'NONE',  ( 0.000000000000000000, -1.000000000000000000, -0.000000000000000000 ) ) ;
#114 =( LENGTH_UNIT ( ) NAMED_UNIT ( * ) SI_UNIT ( $, .METRE. ) );
#115 = EDGE_CURVE ( 'NONE', #176, #69, #80, .T. ) ;
#116 = ORIENTED_EDGE ( 'NONE', *, *, #58, .T. ) ;
#117 = DIRECTION ( 'NONE',  ( -1.000000000000000000, 0.000000000000000000, 0.000000000000000000 ) ) ;
#118 = CARTESIAN_POINT ( 'NONE',  ( 0.000000000000000000, 0.000000000000000000, 0.000000000000000000 ) ) ;
#119 = STYLED_ITEM ( 'NONE', ( #137 ), #7 ) ;
#120 = FILL_AREA_STYLE ('',( #75 ) ) ;
#121 = UNCERTAINTY_MEASURE_WITH_UNIT (LENGTH_MEASURE( 1.000000000000000082E-05 ), #54, 'distance_accuracy_value', 'NONE');
#122 = ADVANCED_FACE ( 'NONE', ( #293 ), #13, .T. ) ;
#123 =( LENGTH_UNIT ( ) NAMED_UNIT ( * ) SI_UNIT ( $, .METRE. ) );
#124 = DIRECTION ( 'NONE',  ( -0.000000000000000000, -1.000000000000000000, -0.000000000000000000 ) ) ;
#125 = PRODUCT_DEFINITION_FORMATION_WITH_SPECIFIED_SOURCE ( 'ANY', '', #191, .NOT_KNOWN. ) ;
#126 = PLANE ( 'NONE',  #245 ) ;
#127 =( CONVERSION_BASED_UNIT ( 'INCH', #149 ) LENGTH_UNIT ( ) NAMED_UNIT ( #277 ) );
#128 = DIRECTION ( 'NONE',  ( -3.628583108584753553E-17, 1.000000000000000000, -0.000000000000000000 ) ) ;
#129 = ORIENTED_EDGE ( 'NONE', *, *, #115, .T. ) ;
#130 = CIRCLE ( 'NONE', #48, 0.5000000000000001110 ) ;
#131 =( GEOMETRIC_REPRESENTATION_CONTEXT ( 3 ) GLOBAL_UNCERTAINTY_ASSIGNED_CONTEXT ( ( #100 ) ) GLOBAL_UNIT_ASSIGNED_CONTEXT ( ( #82, #18, #242 ) ) REPRESENTATION_CONTEXT ( 'NONE', 'WORKASPACE' ) );
#132 = DIRECTION ( 'NONE',  ( -1.000000000000000000, 0.000000000000000000, 0.000000000000000000 ) ) ;
#133 = LINE ( 'NONE', #248, #173 ) ;
#134 = EDGE_LOOP ( 'NONE', ( #139, #116 ) ) ;
#135 = DIRECTION ( 'NONE',  ( -0.000000000000000000, -1.000000000000000000, -0.000000000000000000 ) ) ;
#136 = CARTESIAN_POINT ( 'NONE',  ( 0.000000000000000000, 0.000000000000000000, 0.000000000000000000 ) ) ;
#137 = PRESENTATION_STYLE_ASSIGNMENT (( #309 ) ) ;
#138 = CARTESIAN_POINT ( 'NONE',  ( 1.516480271171051896E-32, 2.625000000000000000, 0.000000000000000000 ) ) ;
#139 = ORIENTED_EDGE ( 'NONE', *, *, #269, .T. ) ;
#140 = CLOSED_SHELL ( 'NONE', ( #205, #46, #11, #7 ) ) ;
#141 = DIRECTION ( 'NONE',  ( 0.000000000000000000, 0.000000000000000000, -1.000000000000000000 ) ) ;
#142 = AXIS2_PLACEMENT_3D ( 'NONE', #244, #106, #77 ) ;
#143 = ORIENTED_EDGE ( 'NONE', *, *, #98, .F. ) ;
#144 = FILL_AREA_STYLE ('',( #24 ) ) ;
#145 =( GEOMETRIC_REPRESENTATION_CONTEXT ( 3 ) GLOBAL_UNCERTAINTY_ASSIGNED_CONTEXT ( ( #28 ) ) GLOBAL_UNIT_ASSIGNED_CONTEXT ( ( #197, #151, #107 ) ) REPRESENTATION_CONTEXT ( 'NONE', 'WORKASPACE' ) );
#146 = LENGTH_MEASURE_WITH_UNIT ( LENGTH_MEASURE( 0.02539999999999999897 ), #102 );
#147 = CARTESIAN_POINT ( 'NONE',  ( 0.000000000000000000, 0.000000000000000000, 0.000000000000000000 ) ) ;
#148 = ORIENTED_EDGE ( 'NONE', *, *, #115, .F. ) ;
#149 = LENGTH_MEASURE_WITH_UNIT ( LENGTH_MEASURE( 0.02539999999999999897 ), #38 );
#150 = LENGTH_MEASURE_WITH_UNIT ( LENGTH_MEASURE( 0.02539999999999999897 ), #15 );
#151 =( NAMED_UNIT ( * ) PLANE_ANGLE_UNIT ( ) SI_UNIT ( $, .RADIAN. ) );
#152 = ORIENTED_EDGE ( 'NONE', *, *, #91, .T. ) ;
#153 = COLOUR_RGB ( '',1.000000000000000000, 0.000000000000000000, 0.000000000000000000 ) ;
#154 = DIRECTION ( 'NONE',  ( -3.628583108584753553E-17, 1.000000000000000000, 0.000000000000000000 ) ) ;
#155 = CARTESIAN_POINT ( 'NONE',  ( 0.000000000000000000, 2.625000000000000000, 0.000000000000000000 ) ) ;
#156 = FILL_AREA_STYLE_COLOUR ( '', #215 ) ;
#157 = CARTESIAN_POINT ( 'NONE',  ( 0.000000000000000000, 0.000000000000000000, 0.000000000000000000 ) ) ;
#158 = EDGE_LOOP ( 'NONE', ( #201, #254 ) ) ;
#159 =( GEOMETRIC_REPRESENTATION_CONTEXT ( 3 ) GLOBAL_UNCERTAINTY_ASSIGNED_CONTEXT ( ( #121 ) ) GLOBAL_UNIT_ASSIGNED_CONTEXT ( ( #54, #31, #99 ) ) REPRESENTATION_CONTEXT ( 'NONE', 'WORKASPACE' ) );
#160 = AXIS2_PLACEMENT_3D ( 'NONE', #20, #154, #235 ) ;
#161 = ORIENTED_EDGE ( 'NONE', *, *, #98, .T. ) ;
#162 = VERTEX_POINT ( 'NONE', #169 ) ;
#163 = CARTESIAN_POINT ( 'NONE',  ( 0.000000000000000000, 2.625000000000000000, 0.000000000000000000 ) ) ;
#164 = COLOUR_RGB ( '',0.7921568627450980005, 0.8196078431372548767, 0.9333333333333333481 ) ;
#165 = DIRECTION ( 'NONE',  ( 1.000000000000000000, 0.000000000000000000, 0.000000000000000000 ) ) ;
#166 = DIRECTION ( 'NONE',  ( 0.000000000000000000, 0.000000000000000000, -1.000000000000000000 ) ) ;
#167 = SURFACE_SIDE_STYLE ('',( #74 ) ) ;
#168 = ADVANCED_BREP_SHAPE_REPRESENTATION ( '01767', ( #94, #78, #257 ), #131 ) ;
#169 = CARTESIAN_POINT ( 'NONE',  ( -0.5000000000000002220, 6.000000000000000888, 0.000000000000000000 ) ) ;
#170 = CARTESIAN_POINT ( 'NONE',  ( -1.224646799147354440E-16, 6.000000000000000888, 0.000000000000000000 ) ) ;
#171 = EDGE_CURVE ( 'NONE', #237, #162, #174, .T. ) ;
#172 = DIRECTION ( 'NONE',  ( -3.628583108584753553E-17, 1.000000000000000000, -0.000000000000000000 ) ) ;
#173 = VECTOR ( 'NONE', #227, 39.37007874015748143 ) ;
#174 = LINE ( 'NONE', #272, #194 ) ;
#175 = PRESENTATION_STYLE_ASSIGNMENT (( #296 ) ) ;
#176 = VERTEX_POINT ( 'NONE', #273 ) ;
#177 = COLOUR_RGB ( '',1.000000000000000000, 0.000000000000000000, 0.000000000000000000 ) ;
#178 = PRESENTATION_STYLE_ASSIGNMENT (( #51 ) ) ;
#179 = DIRECTION ( 'NONE',  ( -3.628583108584753553E-17, 1.000000000000000000, -0.000000000000000000 ) ) ;
#180 = VERTEX_POINT ( 'NONE', #221 ) ;
#181 =( CONVERSION_BASED_UNIT ( 'INCH', #89 ) LENGTH_UNIT ( ) NAMED_UNIT ( #44 ) );
#182 = DIRECTION ( 'NONE',  ( -1.000000000000000000, 0.000000000000000000, 0.000000000000000000 ) ) ;
#183 = COLOUR_RGB ( '',0.7921568627450980005, 0.8196078431372548767, 0.9333333333333333481 ) ;
#184 = DIRECTION ( 'NONE',  ( 1.000000000000000000, 3.628583108584753553E-17, 0.000000000000000000 ) ) ;
#185 = VERTEX_POINT ( 'NONE', #10 ) ;
#186 = CARTESIAN_POINT ( 'NONE',  ( 0.000000000000000000, 0.000000000000000000, 0.000000000000000000 ) ) ;
#187 = MECHANICAL_DESIGN_GEOMETRIC_PRESENTATION_REPRESENTATION (  '', ( #289 ), #50 ) ;
#188 = CARTESIAN_POINT ( 'NONE',  ( 0.000000000000000000, 0.000000000000000000, 0.000000000000000000 ) ) ;
#189 = ADVANCED_FACE ( 'NONE', ( #105 ), #195, .T. ) ;
#190 = LENGTH_MEASURE_WITH_UNIT ( LENGTH_MEASURE( 0.02539999999999999897 ), #123 );
#191 = PRODUCT ( '01767', '01767', '', ( #288 ) ) ;
#192 = DIRECTION ( 'NONE',  ( 0.000000000000000000, 0.000000000000000000, -1.000000000000000000 ) ) ;
#193 = PRESENTATION_LAYER_ASSIGNMENT (  '', '', ( #239 ) ) ;
#194 = VECTOR ( 'NONE', #128, 39.37007874015748143 ) ;
#195 = CYLINDRICAL_SURFACE ( 'NONE', #4, 0.5000000000000001110 ) ;
#196 = DIRECTION ( 'NONE',  ( -1.000000000000000000, 0.000000000000000000, 0.000000000000000000 ) ) ;
#197 =( CONVERSION_BASED_UNIT ( 'INCH', #150 ) LENGTH_UNIT ( ) NAMED_UNIT ( #300 ) );
#198 = ADVANCED_FACE ( 'NONE', ( #12 ), #60, .F. ) ;
#199 = AXIS2_PLACEMENT_3D ( 'NONE', #157, #233, #206 ) ;
#200 = DIMENSIONAL_EXPONENTS ( 1.000000000000000000, 0.000000000000000000, 0.000000000000000000, 0.000000000000000000, 0.000000000000000000, 0.000000000000000000, 0.000000000000000000 ) ;
#201 = ORIENTED_EDGE ( 'NONE', *, *, #247, .F. ) ;
#202 = SURFACE_STYLE_FILL_AREA ( #49 ) ;
#203 = UNCERTAINTY_MEASURE_WITH_UNIT (LENGTH_MEASURE( 1.000000000000000082E-05 ), #181, 'distance_accuracy_value', 'NONE');
#204 =( GEOMETRIC_REPRESENTATION_CONTEXT ( 3 ) GLOBAL_UNCERTAINTY_ASSIGNED_CONTEXT ( ( #255 ) ) GLOBAL_UNIT_ASSIGNED_CONTEXT ( ( #214, #1, #32 ) ) REPRESENTATION_CONTEXT ( 'NONE', 'WORKASPACE' ) );
#205 = ADVANCED_FACE ( 'NONE', ( #308 ), #112, .T. ) ;
#206 = DIRECTION ( 'NONE',  ( 0.000000000000000000, 0.000000000000000000, -1.000000000000000000 ) ) ;
#207 = EDGE_LOOP ( 'NONE', ( #260, #129, #259, #229 ) ) ;
#208 = DIRECTION ( 'NONE',  ( -3.628583108584753553E-17, 1.000000000000000000, -0.000000000000000000 ) ) ;
#209 = PLANE ( 'NONE',  #73 ) ;
#210 = SURFACE_STYLE_FILL_AREA ( #144 ) ;
#211 = PRODUCT_DEFINITION ( 'UNKNOWN', '', #125, #6 ) ;
#212 = AXIS2_PLACEMENT_3D ( 'NONE', #228, #42, #68 ) ;
#213 = CARTESIAN_POINT ( 'NONE',  ( 0.000000000000000000, 2.625000000000000000, 0.000000000000000000 ) ) ;
#214 =( CONVERSION_BASED_UNIT ( 'INCH', #146 ) LENGTH_UNIT ( ) NAMED_UNIT ( #200 ) );
#215 = COLOUR_RGB ( '',1.000000000000000000, 0.000000000000000000, 0.000000000000000000 ) ;
#216 = PRESENTATION_LAYER_ASSIGNMENT (  '', '', ( #119 ) ) ;
#217 = CIRCLE ( 'NONE', #252, 0.5000000000000000000 ) ;
#218 = DIRECTION ( 'NONE',  ( 0.000000000000000000, 0.000000000000000000, -1.000000000000000000 ) ) ;
#219 = DIRECTION ( 'NONE',  ( 0.000000000000000000, 1.000000000000000000, 0.000000000000000000 ) ) ;
#220 = CARTESIAN_POINT ( 'NONE',  ( 0.4999999999999999445, 6.000000000000000888, 6.123233995736767268E-17 ) ) ;
#221 = CARTESIAN_POINT ( 'NONE',  ( 0.000000000000000000, 2.625000000000000000, -0.5000000000000000000 ) ) ;
#222 = STYLED_ITEM ( 'NONE', ( #53 ), #78 ) ;
#223 = PRESENTATION_LAYER_ASSIGNMENT (  '', '', ( #240 ) ) ;
#224 = ORIENTED_EDGE ( 'NONE', *, *, #265, .F. ) ;
#225 = FILL_AREA_STYLE_COLOUR ( '', #164 ) ;
#226 = DIMENSIONAL_EXPONENTS ( 1.000000000000000000, 0.000000000000000000, 0.000000000000000000, 0.000000000000000000, 0.000000000000000000, 0.000000000000000000, 0.000000000000000000 ) ;
#227 = DIRECTION ( 'NONE',  ( -0.000000000000000000, -1.000000000000000000, -0.000000000000000000 ) ) ;
#228 = CARTESIAN_POINT ( 'NONE',  ( 1.516480271171051896E-32, 2.625000000000000000, 0.000000000000000000 ) ) ;
#229 = ORIENTED_EDGE ( 'NONE', *, *, #171, .F. ) ;
#230 = EDGE_CURVE ( 'NONE', #176, #237, #41, .T. ) ;
#231 = DIRECTION ( 'NONE',  ( -0.000000000000000000, -1.000000000000000000, -0.000000000000000000 ) ) ;
#232 = EDGE_LOOP ( 'NONE', ( #108, #238, #303, #143 ) ) ;
#233 = DIRECTION ( 'NONE',  ( -0.000000000000000000, -1.000000000000000000, -0.000000000000000000 ) ) ;
#234 = CYLINDRICAL_SURFACE ( 'NONE', #297, 0.5000000000000000000 ) ;
#235 = DIRECTION ( 'NONE',  ( -1.000000000000000000, -3.628583108584753553E-17, 0.000000000000000000 ) ) ;
#236 = ADVANCED_FACE ( 'NONE', ( #304 ), #209, .F. ) ;
#237 = VERTEX_POINT ( 'NONE', #285 ) ;
#238 = ORIENTED_EDGE ( 'NONE', *, *, #275, .T. ) ;
#239 = STYLED_ITEM ( 'NONE', ( #95 ), #11 ) ;
#240 = STYLED_ITEM ( 'NONE', ( #178 ), #205 ) ;
#241 = PRODUCT_DEFINITION_SHAPE ( 'NONE', 'NONE',  #211 ) ;
#242 =( NAMED_UNIT ( * ) SI_UNIT ( $, .STERADIAN. ) SOLID_ANGLE_UNIT ( ) );
#243 = AXIS2_PLACEMENT_3D ( 'NONE', #147, #287, #166 ) ;
#244 = CARTESIAN_POINT ( 'NONE',  ( -1.224646799147354440E-16, 6.000000000000000888, 0.000000000000000000 ) ) ;
#245 = AXIS2_PLACEMENT_3D ( 'NONE', #213, #219, #8 ) ;
#246 = CIRCLE ( 'NONE', #67, 0.5000000000000000000 ) ;
#247 = EDGE_CURVE ( 'NONE', #237, #176, #23, .T. ) ;
#248 = CARTESIAN_POINT ( 'NONE',  ( 0.000000000000000000, 0.000000000000000000, -0.5000000000000000000 ) ) ;
#249 = ORIENTED_EDGE ( 'NONE', *, *, #2, .F. ) ;
#250 = DIRECTION ( 'NONE',  ( -0.000000000000000000, -1.000000000000000000, -0.000000000000000000 ) ) ;
#251 = CIRCLE ( 'NONE', #243, 0.5000000000000000000 ) ;
#252 = AXIS2_PLACEMENT_3D ( 'NONE', #136, #231, #141 ) ;
#253 =( NAMED_UNIT ( * ) PLANE_ANGLE_UNIT ( ) SI_UNIT ( $, .RADIAN. ) );
#254 = ORIENTED_EDGE ( 'NONE', *, *, #230, .F. ) ;
#255 = UNCERTAINTY_MEASURE_WITH_UNIT (LENGTH_MEASURE( 1.000000000000000082E-05 ), #214, 'distance_accuracy_value', 'NONE');
#256 =( GEOMETRIC_REPRESENTATION_CONTEXT ( 3 ) GLOBAL_UNCERTAINTY_ASSIGNED_CONTEXT ( ( #264 ) ) GLOBAL_UNIT_ASSIGNED_CONTEXT ( ( #43, #52, #22 ) ) REPRESENTATION_CONTEXT ( 'NONE', 'WORKASPACE' ) );
#257 = AXIS2_PLACEMENT_3D ( 'NONE', #186, #291, #165 ) ;
#258 = VECTOR ( 'NONE', #135, 39.37007874015748143 ) ;
#259 = ORIENTED_EDGE ( 'NONE', *, *, #91, .F. ) ;
#260 = ORIENTED_EDGE ( 'NONE', *, *, #247, .T. ) ;
#261 = FILL_AREA_STYLE_COLOUR ( '', #183 ) ;
#262 = AXIS2_PLACEMENT_3D ( 'NONE', #5, #172, #196 ) ;
#263 = AXIS2_PLACEMENT_3D ( 'NONE', #138, #179, #117 ) ;
#264 = UNCERTAINTY_MEASURE_WITH_UNIT (LENGTH_MEASURE( 1.000000000000000082E-05 ), #43, 'distance_accuracy_value', 'NONE');
#265 = EDGE_CURVE ( 'NONE', #276, #180, #246, .T. ) ;
#266 = SURFACE_STYLE_USAGE ( .BOTH. , #93 ) ;
#267 = SURFACE_STYLE_USAGE ( .BOTH. , #167 ) ;
#268 = MECHANICAL_DESIGN_GEOMETRIC_PRESENTATION_REPRESENTATION (  '', ( #222 ), #145 ) ;
#269 = EDGE_CURVE ( 'NONE', #110, #185, #217, .T. ) ;
#270 =( GEOMETRIC_REPRESENTATION_CONTEXT ( 3 ) GLOBAL_UNCERTAINTY_ASSIGNED_CONTEXT ( ( #203 ) ) GLOBAL_UNIT_ASSIGNED_CONTEXT ( ( #181, #253, #47 ) ) REPRESENTATION_CONTEXT ( 'NONE', 'WORKASPACE' ) );
#271 = SURFACE_SIDE_STYLE ('',( #96 ) ) ;
#272 = CARTESIAN_POINT ( 'NONE',  ( -0.5000000000000002220, 6.000000000000000888, 0.000000000000000000 ) ) ;
#273 = CARTESIAN_POINT ( 'NONE',  ( 0.5000000000000000000, 2.625000000000000000, 6.123233995736767268E-17 ) ) ;
#274 =( NAMED_UNIT ( * ) PLANE_ANGLE_UNIT ( ) SI_UNIT ( $, .RADIAN. ) );
#275 = EDGE_CURVE ( 'NONE', #276, #185, #40, .T. ) ;
#276 = VERTEX_POINT ( 'NONE', #87 ) ;
#277 = DIMENSIONAL_EXPONENTS ( 1.000000000000000000, 0.000000000000000000, 0.000000000000000000, 0.000000000000000000, 0.000000000000000000, 0.000000000000000000, 0.000000000000000000 ) ;
#278 =( LENGTH_UNIT ( ) NAMED_UNIT ( * ) SI_UNIT ( $, .METRE. ) );
#279 = CARTESIAN_POINT ( 'NONE',  ( 6.123233995736766036E-17, 0.000000000000000000, 0.5000000000000000000 ) ) ;
#280 = PLANE ( 'NONE',  #79 ) ;
#281 = LENGTH_MEASURE_WITH_UNIT ( LENGTH_MEASURE( 0.02539999999999999897 ), #114 );
#282 = CARTESIAN_POINT ( 'NONE',  ( -1.224646799147354440E-16, 6.000000000000000888, 0.000000000000000000 ) ) ;
#283 = DIRECTION ( 'NONE',  ( 3.628583108584753553E-17, -1.000000000000000000, 0.000000000000000000 ) ) ;
#284 = CLOSED_SHELL ( 'NONE', ( #189, #198, #122, #236 ) ) ;
#285 = CARTESIAN_POINT ( 'NONE',  ( -0.5000000000000000000, 2.625000000000000000, 0.000000000000000000 ) ) ;
#286 = EDGE_LOOP ( 'NONE', ( #62, #224 ) ) ;
#287 = DIRECTION ( 'NONE',  ( -0.000000000000000000, -1.000000000000000000, -0.000000000000000000 ) ) ;
#288 = PRODUCT_CONTEXT ( 'NONE', #70, 'mechanical' ) ;
#289 = STYLED_ITEM ( 'NONE', ( #175 ), #94 ) ;
#290 = FILL_AREA_STYLE ('',( #261 ) ) ;
#291 = DIRECTION ( 'NONE',  ( 0.000000000000000000, 0.000000000000000000, 1.000000000000000000 ) ) ;
#292 = MECHANICAL_DESIGN_GEOMETRIC_PRESENTATION_REPRESENTATION (  '', ( #119 ), #256 ) ;
#293 = FACE_OUTER_BOUND ( 'NONE', #27, .T. ) ;
#294 = EDGE_LOOP ( 'NONE', ( #88, #16, #161, #109 ) ) ;
#295 = DIRECTION ( 'NONE',  ( -3.628583108584753553E-17, 1.000000000000000000, -0.000000000000000000 ) ) ;
#296 = SURFACE_STYLE_USAGE ( .BOTH. , #298 ) ;
#297 = AXIS2_PLACEMENT_3D ( 'NONE', #188, #30, #192 ) ;
#298 = SURFACE_SIDE_STYLE ('',( #57 ) ) ;
#299 = COLOUR_RGB ( '',1.000000000000000000, 0.000000000000000000, 0.000000000000000000 ) ;
#300 = DIMENSIONAL_EXPONENTS ( 1.000000000000000000, 0.000000000000000000, 0.000000000000000000, 0.000000000000000000, 0.000000000000000000, 0.000000000000000000, 0.000000000000000000 ) ;
#301 = FACE_OUTER_BOUND ( 'NONE', #134, .T. ) ;
#302 = PRESENTATION_LAYER_ASSIGNMENT (  '', '', ( #76 ) ) ;
#303 = ORIENTED_EDGE ( 'NONE', *, *, #269, .F. ) ;
#304 = FACE_OUTER_BOUND ( 'NONE', #19, .T. ) ;
#305 = FACE_OUTER_BOUND ( 'NONE', #294, .T. ) ;
#306 = FILL_AREA_STYLE ('',( #17 ) ) ;
#307 = ORIENTED_EDGE ( 'NONE', *, *, #2, .T. ) ;
#308 = FACE_OUTER_BOUND ( 'NONE', #232, .T. ) ;
#309 = SURFACE_STYLE_USAGE ( .BOTH. , #26 ) ;
ENDSEC;
END-ISO-10303-21;
