ISO-10303-21;
HEADER;
FILE_DESCRIPTION (( 'STEP AP214' ),
    '1' );
FILE_NAME ('06033.STEP',
    '2023-07-05T16:00:25',
    ( '' ),
    ( '' ),
    'SwSTEP 2.0',
    'SolidWorks 2023',
    '' );
FILE_SCHEMA (( 'AUTOMOTIVE_DESIGN' ));
ENDSEC;

DATA;
#1 = PRODUCT ( '06033', '06033', '', ( #67 ) ) ;
#2 = EDGE_LOOP ( 'NONE', ( #247, #8, #10 ) ) ;
#3 = UNCERTAINTY_MEASURE_WITH_UNIT (LENGTH_MEASURE( 1.000000000000000082E-05 ), #218, 'distance_accuracy_value', 'NONE');
#4 = AXIS2_PLACEMENT_3D ( 'NONE', #91, #170, #111 ) ;
#5 = CIRCLE ( 'NONE', #24, 0.09374999999999998612 ) ;
#6 = ORIENTED_EDGE ( 'NONE', *, *, #250, .F. ) ;
#7 = EDGE_LOOP ( 'NONE', ( #26, #188, #192, #49 ) ) ;
#8 = ORIENTED_EDGE ( 'NONE', *, *, #127, .T. ) ;
#9 = COLOUR_RGB ( '',1.000000000000000000, 0.000000000000000000, 0.000000000000000000 ) ;
#10 = ORIENTED_EDGE ( 'NONE', *, *, #206, .T. ) ;
#11 = DIRECTION ( 'NONE',  ( -1.231570816815856252E-16, 1.000000000000000000, -0.000000000000000000 ) ) ;
#12 = AXIS2_PLACEMENT_3D ( 'NONE', #198, #16, #236 ) ;
#13 = SURFACE_STYLE_FILL_AREA ( #195 ) ;
#14 = MECHANICAL_DESIGN_GEOMETRIC_PRESENTATION_REPRESENTATION (  '', ( #98 ), #258 ) ;
#15 = PRESENTATION_LAYER_ASSIGNMENT (  '', '', ( #147 ) ) ;
#16 = DIRECTION ( 'NONE',  ( -0.000000000000000000, -1.000000000000000000, -0.000000000000000000 ) ) ;
#17 = EDGE_CURVE ( 'NONE', #112, #93, #168, .T. ) ;
#18 = SURFACE_SIDE_STYLE ('',( #217 ) ) ;
#19 = CLOSED_SHELL ( 'NONE', ( #185, #70, #191 ) ) ;
#20 = AXIS2_PLACEMENT_3D ( 'NONE', #36, #181, #203 ) ;
#21 =( CONVERSION_BASED_UNIT ( 'INCH', #204 ) LENGTH_UNIT ( ) NAMED_UNIT ( #225 ) );
#22 =( NAMED_UNIT ( * ) PLANE_ANGLE_UNIT ( ) SI_UNIT ( $, .RADIAN. ) );
#23 = AXIS2_PLACEMENT_3D ( 'NONE', #79, #116, #140 ) ;
#24 = AXIS2_PLACEMENT_3D ( 'NONE', #240, #144, #216 ) ;
#25 = APPLICATION_PROTOCOL_DEFINITION ( 'draft international standard', 'automotive_design', 1998, #33 ) ;
#26 = ORIENTED_EDGE ( 'NONE', *, *, #32, .F. ) ;
#27 = DIMENSIONAL_EXPONENTS ( 1.000000000000000000, 0.000000000000000000, 0.000000000000000000, 0.000000000000000000, 0.000000000000000000, 0.000000000000000000, 0.000000000000000000 ) ;
#28 = EDGE_LOOP ( 'NONE', ( #187, #34, #86 ) ) ;
#29 = STYLED_ITEM ( 'NONE', ( #182 ), #185 ) ;
#30 =( GEOMETRIC_REPRESENTATION_CONTEXT ( 3 ) GLOBAL_UNCERTAINTY_ASSIGNED_CONTEXT ( ( #223 ) ) GLOBAL_UNIT_ASSIGNED_CONTEXT ( ( #243, #45, #161 ) ) REPRESENTATION_CONTEXT ( 'NONE', 'WORKASPACE' ) );
#31 = ORIENTED_EDGE ( 'NONE', *, *, #113, .F. ) ;
#32 = EDGE_CURVE ( 'NONE', #112, #132, #190, .T. ) ;
#33 = APPLICATION_CONTEXT ( 'automotive_design' ) ;
#34 = ORIENTED_EDGE ( 'NONE', *, *, #95, .T. ) ;
#35 = SURFACE_STYLE_FILL_AREA ( #37 ) ;
#36 = CARTESIAN_POINT ( 'NONE',  ( 0.000000000000000000, 39.37007874015748143, 0.000000000000000000 ) ) ;
#37 = FILL_AREA_STYLE ('',( #40 ) ) ;
#38 = SURFACE_STYLE_USAGE ( .BOTH. , #117 ) ;
#39 = LENGTH_MEASURE_WITH_UNIT ( LENGTH_MEASURE( 0.02539999999999999897 ), #120 );
#40 = FILL_AREA_STYLE_COLOUR ( '', #160 ) ;
#41 = SURFACE_STYLE_FILL_AREA ( #220 ) ;
#42 = CARTESIAN_POINT ( 'NONE',  ( 0.000000000000000000, 39.37007874015748143, 0.000000000000000000 ) ) ;
#43 = MECHANICAL_DESIGN_GEOMETRIC_PRESENTATION_REPRESENTATION (  '', ( #147 ), #30 ) ;
#44 = SURFACE_SIDE_STYLE ('',( #41 ) ) ;
#45 =( NAMED_UNIT ( * ) PLANE_ANGLE_UNIT ( ) SI_UNIT ( $, .RADIAN. ) );
#46 = UNCERTAINTY_MEASURE_WITH_UNIT (LENGTH_MEASURE( 1.000000000000000082E-05 ), #256, 'distance_accuracy_value', 'NONE');
#47 = PRESENTATION_LAYER_ASSIGNMENT (  '', '', ( #72 ) ) ;
#48 = ORIENTED_EDGE ( 'NONE', *, *, #222, .F. ) ;
#49 = ORIENTED_EDGE ( 'NONE', *, *, #171, .F. ) ;
#50 = CARTESIAN_POINT ( 'NONE',  ( 0.000000000000000000, 0.000000000000000000, 0.000000000000000000 ) ) ;
#51 = EDGE_LOOP ( 'NONE', ( #229, #248, #6, #31 ) ) ;
#52 = ADVANCED_FACE ( 'NONE', ( #231 ), #154, .T. ) ;
#53 = EDGE_LOOP ( 'NONE', ( #208, #169 ) ) ;
#54 = LINE ( 'NONE', #121, #74 ) ;
#55 = CARTESIAN_POINT ( 'NONE',  ( 0.000000000000000000, 2.000000000000000000, 0.000000000000000000 ) ) ;
#56 = LINE ( 'NONE', #157, #108 ) ;
#57 = CARTESIAN_POINT ( 'NONE',  ( 2.347681869555226296E-16, 0.09374999999999979183, 0.000000000000000000 ) ) ;
#58 = CARTESIAN_POINT ( 'NONE',  ( -0.09374999999999951428, 0.09374999999999976408, 0.000000000000000000 ) ) ;
#59 = DIRECTION ( 'NONE',  ( -1.000000000000000000, -1.231570816815856252E-16, 0.000000000000000000 ) ) ;
#60 = AXIS2_PLACEMENT_3D ( 'NONE', #57, #124, #213 ) ;
#61 = DIRECTION ( 'NONE',  ( 0.000000000000000000, 0.000000000000000000, 1.000000000000000000 ) ) ;
#62 =( NAMED_UNIT ( * ) SI_UNIT ( $, .STERADIAN. ) SOLID_ANGLE_UNIT ( ) );
#63 = CIRCLE ( 'NONE', #12, 0.09374999999999998612 ) ;
#64 = SURFACE_STYLE_USAGE ( .BOTH. , #162 ) ;
#65 = ADVANCED_FACE ( 'NONE', ( #215 ), #238, .F. ) ;
#66 = DIRECTION ( 'NONE',  ( 0.000000000000000000, 0.000000000000000000, 1.000000000000000000 ) ) ;
#67 = PRODUCT_CONTEXT ( 'NONE', #230, 'mechanical' ) ;
#68 = EDGE_LOOP ( 'NONE', ( #48, #135 ) ) ;
#69 = DIMENSIONAL_EXPONENTS ( 1.000000000000000000, 0.000000000000000000, 0.000000000000000000, 0.000000000000000000, 0.000000000000000000, 0.000000000000000000, 0.000000000000000000 ) ;
#70 = ADVANCED_FACE ( 'NONE', ( #239 ), #76, .T. ) ;
#71 = DIRECTION ( 'NONE',  ( -1.231570816815856252E-16, 1.000000000000000000, -0.000000000000000000 ) ) ;
#72 = STYLED_ITEM ( 'NONE', ( #184 ), #197 ) ;
#73 = EDGE_LOOP ( 'NONE', ( #173, #249 ) ) ;
#74 = VECTOR ( 'NONE', #141, 39.37007874015748854 ) ;
#75 =( NAMED_UNIT ( * ) SI_UNIT ( $, .STERADIAN. ) SOLID_ANGLE_UNIT ( ) );
#76 = PLANE ( 'NONE',  #186 ) ;
#77 = CARTESIAN_POINT ( 'NONE',  ( 0.09374999999999998612, 0.09374999999999980571, 1.148106374200642938E-17 ) ) ;
#78 = PLANE ( 'NONE',  #125 ) ;
#79 = CARTESIAN_POINT ( 'NONE',  ( 1.421968759530445629E-33, 2.000000000000000000, 0.000000000000000000 ) ) ;
#80 = CARTESIAN_POINT ( 'NONE',  ( 0.000000000000000000, 0.09374999999999966693, 0.09374999999999998612 ) ) ;
#81 =( NAMED_UNIT ( * ) PLANE_ANGLE_UNIT ( ) SI_UNIT ( $, .RADIAN. ) );
#82 = UNCERTAINTY_MEASURE_WITH_UNIT (LENGTH_MEASURE( 1.000000000000000082E-05 ), #21, 'distance_accuracy_value', 'NONE');
#83 =( LENGTH_UNIT ( ) NAMED_UNIT ( * ) SI_UNIT ( $, .METRE. ) );
#84 = COLOUR_RGB ( '',0.7921568627450980005, 0.8196078431372548767, 0.9333333333333333481 ) ;
#85 =( CONVERSION_BASED_UNIT ( 'INCH', #226 ) LENGTH_UNIT ( ) NAMED_UNIT ( #90 ) );
#86 = ORIENTED_EDGE ( 'NONE', *, *, #153, .T. ) ;
#87 = VECTOR ( 'NONE', #71, 39.37007874015748143 ) ;
#88 =( GEOMETRIC_REPRESENTATION_CONTEXT ( 3 ) GLOBAL_UNCERTAINTY_ASSIGNED_CONTEXT ( ( #82 ) ) GLOBAL_UNIT_ASSIGNED_CONTEXT ( ( #21, #149, #89 ) ) REPRESENTATION_CONTEXT ( 'NONE', 'WORKASPACE' ) );
#89 =( NAMED_UNIT ( * ) SI_UNIT ( $, .STERADIAN. ) SOLID_ANGLE_UNIT ( ) );
#90 = DIMENSIONAL_EXPONENTS ( 1.000000000000000000, 0.000000000000000000, 0.000000000000000000, 0.000000000000000000, 0.000000000000000000, 0.000000000000000000, 0.000000000000000000 ) ;
#91 = CARTESIAN_POINT ( 'NONE',  ( 2.347681869555226296E-16, 0.09374999999999979183, 0.000000000000000000 ) ) ;
#92 = CARTESIAN_POINT ( 'NONE',  ( 0.09374999999999987510, 2.000000000000000000, 1.148106374200642168E-17 ) ) ;
#93 = VERTEX_POINT ( 'NONE', #58 ) ;
#94 = MECHANICAL_DESIGN_GEOMETRIC_PRESENTATION_REPRESENTATION (  '', ( #72 ), #88 ) ;
#95 = EDGE_CURVE ( 'NONE', #110, #233, #54, .T. ) ;
#96 = DIRECTION ( 'NONE',  ( 0.000000000000000000, 1.000000000000000000, 0.000000000000000000 ) ) ;
#97 = CARTESIAN_POINT ( 'NONE',  ( 0.000000000000000000, 2.000000000000000000, 0.000000000000000000 ) ) ;
#98 = STYLED_ITEM ( 'NONE', ( #196 ), #70 ) ;
#99 = CYLINDRICAL_SURFACE ( 'NONE', #242, 0.09374999999999987510 ) ;
#100 = DIRECTION ( 'NONE',  ( -0.000000000000000000, -1.000000000000000000, -0.000000000000000000 ) ) ;
#101 = FACE_OUTER_BOUND ( 'NONE', #2, .T. ) ;
#102 = DIRECTION ( 'NONE',  ( 0.000000000000000000, 0.000000000000000000, -1.000000000000000000 ) ) ;
#103 = DIRECTION ( 'NONE',  ( 1.000000000000000000, 1.231570816815856252E-16, 0.000000000000000000 ) ) ;
#104 =( LENGTH_UNIT ( ) NAMED_UNIT ( * ) SI_UNIT ( $, .METRE. ) );
#105 = FILL_AREA_STYLE_COLOUR ( '', #84 ) ;
#106 = APPLICATION_PROTOCOL_DEFINITION ( 'draft international standard', 'automotive_design', 1998, #230 ) ;
#107 = ADVANCED_FACE ( 'NONE', ( #138 ), #99, .T. ) ;
#108 = VECTOR ( 'NONE', #11, 39.37007874015748143 ) ;
#109 =( NAMED_UNIT ( * ) SI_UNIT ( $, .STERADIAN. ) SOLID_ANGLE_UNIT ( ) );
#110 = VERTEX_POINT ( 'NONE', #176 ) ;
#111 = DIRECTION ( 'NONE',  ( -1.000000000000000000, -1.821231995776180409E-16, 0.000000000000000000 ) ) ;
#112 = VERTEX_POINT ( 'NONE', #77 ) ;
#113 = EDGE_CURVE ( 'NONE', #93, #207, #56, .T. ) ;
#114 = DIRECTION ( 'NONE',  ( -1.231570816815856252E-16, 1.000000000000000000, -0.000000000000000000 ) ) ;
#115 =( GEOMETRIC_REPRESENTATION_CONTEXT ( 3 ) GLOBAL_UNCERTAINTY_ASSIGNED_CONTEXT ( ( #3 ) ) GLOBAL_UNIT_ASSIGNED_CONTEXT ( ( #218, #81, #145 ) ) REPRESENTATION_CONTEXT ( 'NONE', 'WORKASPACE' ) );
#116 = DIRECTION ( 'NONE',  ( -1.231570816815856252E-16, 1.000000000000000000, -0.000000000000000000 ) ) ;
#117 = SURFACE_SIDE_STYLE ('',( #35 ) ) ;
#118 = CIRCLE ( 'NONE', #23, 0.09374999999999998612 ) ;
#119 =( NAMED_UNIT ( * ) PLANE_ANGLE_UNIT ( ) SI_UNIT ( $, .RADIAN. ) );
#120 =( LENGTH_UNIT ( ) NAMED_UNIT ( * ) SI_UNIT ( $, .METRE. ) );
#121 = CARTESIAN_POINT ( 'NONE',  ( 0.000000000000000000, 0.000000000000000000, 0.000000000000000000 ) ) ;
#122 = SURFACE_STYLE_FILL_AREA ( #241 ) ;
#123 = SURFACE_STYLE_USAGE ( .BOTH. , #244 ) ;
#124 = DIRECTION ( 'NONE',  ( -1.231570816815856252E-16, 1.000000000000000000, -0.000000000000000000 ) ) ;
#125 = AXIS2_PLACEMENT_3D ( 'NONE', #159, #183, #59 ) ;
#126 = PRESENTATION_STYLE_ASSIGNMENT (( #221 ) ) ;
#127 = EDGE_CURVE ( 'NONE', #110, #228, #142, .T. ) ;
#128 =( LENGTH_UNIT ( ) NAMED_UNIT ( * ) SI_UNIT ( $, .METRE. ) );
#129 = PRODUCT_DEFINITION ( 'UNKNOWN', '', #214, #172 ) ;
#130 = FILL_AREA_STYLE_COLOUR ( '', #205 ) ;
#131 = AXIS2_PLACEMENT_3D ( 'NONE', #50, #66, #152 ) ;
#132 = VERTEX_POINT ( 'NONE', #211 ) ;
#133 = DIMENSIONAL_EXPONENTS ( 1.000000000000000000, 0.000000000000000000, 0.000000000000000000, 0.000000000000000000, 0.000000000000000000, 0.000000000000000000, 0.000000000000000000 ) ;
#134 = PRODUCT_RELATED_PRODUCT_CATEGORY ( 'part', '', ( #1 ) ) ;
#135 = ORIENTED_EDGE ( 'NONE', *, *, #17, .F. ) ;
#136 = PRESENTATION_LAYER_ASSIGNMENT (  '', '', ( #98 ) ) ;
#137 = CARTESIAN_POINT ( 'NONE',  ( 0.000000000000000000, 0.09374999999999966693, 0.000000000000000000 ) ) ;
#138 = FACE_OUTER_BOUND ( 'NONE', #51, .T. ) ;
#139 = COLOUR_RGB ( '',0.7921568627450980005, 0.8196078431372548767, 0.9333333333333333481 ) ;
#140 = DIRECTION ( 'NONE',  ( -1.000000000000000000, 0.000000000000000000, 0.000000000000000000 ) ) ;
#141 = DIRECTION ( 'NONE',  ( 0.000000000000000000, 0.7071067811865462405, 0.7071067811865486830 ) ) ;
#142 = LINE ( 'NONE', #257, #251 ) ;
#143 =( GEOMETRIC_REPRESENTATION_CONTEXT ( 3 ) GLOBAL_UNCERTAINTY_ASSIGNED_CONTEXT ( ( #46 ) ) GLOBAL_UNIT_ASSIGNED_CONTEXT ( ( #256, #146, #62 ) ) REPRESENTATION_CONTEXT ( 'NONE', 'WORKASPACE' ) );
#144 = DIRECTION ( 'NONE',  ( -1.231570816815856252E-16, 1.000000000000000000, -0.000000000000000000 ) ) ;
#145 =( NAMED_UNIT ( * ) SI_UNIT ( $, .STERADIAN. ) SOLID_ANGLE_UNIT ( ) );
#146 =( NAMED_UNIT ( * ) PLANE_ANGLE_UNIT ( ) SI_UNIT ( $, .RADIAN. ) );
#147 = STYLED_ITEM ( 'NONE', ( #126 ), #191 ) ;
#148 = CLOSED_SHELL ( 'NONE', ( #107, #234, #52, #65 ) ) ;
#149 =( NAMED_UNIT ( * ) PLANE_ANGLE_UNIT ( ) SI_UNIT ( $, .RADIAN. ) );
#150 = ADVANCED_BREP_SHAPE_REPRESENTATION ( '06033', ( #197, #200, #131 ), #189 ) ;
#151 = PRODUCT_DEFINITION_SHAPE ( 'NONE', 'NONE',  #129 ) ;
#152 = DIRECTION ( 'NONE',  ( 1.000000000000000000, 0.000000000000000000, 0.000000000000000000 ) ) ;
#153 = EDGE_CURVE ( 'NONE', #233, #228, #63, .T. ) ;
#154 = CYLINDRICAL_SURFACE ( 'NONE', #155, 0.09374999999999987510 ) ;
#155 = AXIS2_PLACEMENT_3D ( 'NONE', #97, #175, #179 ) ;
#156 =( CONVERSION_BASED_UNIT ( 'INCH', #174 ) LENGTH_UNIT ( ) NAMED_UNIT ( #27 ) );
#157 = CARTESIAN_POINT ( 'NONE',  ( -0.09374999999999987510, 2.000000000000000000, 0.000000000000000000 ) ) ;
#158 = FILL_AREA_STYLE_COLOUR ( '', #9 ) ;
#159 = CARTESIAN_POINT ( 'NONE',  ( 2.347681869555226296E-16, 0.09374999999999966693, 0.000000000000000000 ) ) ;
#160 = COLOUR_RGB ( '',1.000000000000000000, 0.000000000000000000, 0.000000000000000000 ) ;
#161 =( NAMED_UNIT ( * ) SI_UNIT ( $, .STERADIAN. ) SOLID_ANGLE_UNIT ( ) );
#162 = SURFACE_SIDE_STYLE ('',( #13 ) ) ;
#163 = UNCERTAINTY_MEASURE_WITH_UNIT (LENGTH_MEASURE( 1.000000000000000082E-05 ), #85, 'distance_accuracy_value', 'NONE');
#164 =( LENGTH_UNIT ( ) NAMED_UNIT ( * ) SI_UNIT ( $, .METRE. ) );
#165 = CIRCLE ( 'NONE', #246, 0.09374999999999998612 ) ;
#166 = DIMENSIONAL_EXPONENTS ( 1.000000000000000000, 0.000000000000000000, 0.000000000000000000, 0.000000000000000000, 0.000000000000000000, 0.000000000000000000, 0.000000000000000000 ) ;
#167 = FACE_OUTER_BOUND ( 'NONE', #28, .T. ) ;
#168 = CIRCLE ( 'NONE', #4, 0.09374999999999975020 ) ;
#169 = ORIENTED_EDGE ( 'NONE', *, *, #171, .T. ) ;
#170 = DIRECTION ( 'NONE',  ( -1.231570816815856252E-16, 1.000000000000000000, -0.000000000000000000 ) ) ;
#171 = EDGE_CURVE ( 'NONE', #132, #207, #118, .T. ) ;
#172 = PRODUCT_DEFINITION_CONTEXT ( 'detailed design', #33, 'design' ) ;
#173 = ORIENTED_EDGE ( 'NONE', *, *, #153, .F. ) ;
#174 = LENGTH_MEASURE_WITH_UNIT ( LENGTH_MEASURE( 0.02539999999999999897 ), #254 );
#175 = DIRECTION ( 'NONE',  ( -1.231570816815856252E-16, 1.000000000000000000, -0.000000000000000000 ) ) ;
#176 = CARTESIAN_POINT ( 'NONE',  ( 0.000000000000000000, 0.000000000000000000, 0.000000000000000000 ) ) ;
#177 = CARTESIAN_POINT ( 'NONE',  ( 1.148106374200643555E-17, 0.09374999999999966693, -0.09374999999999998612 ) ) ;
#178 = DIRECTION ( 'NONE',  ( 0.000000000000000000, -0.000000000000000000, 1.000000000000000000 ) ) ;
#179 = DIRECTION ( 'NONE',  ( -1.000000000000000000, 0.000000000000000000, 0.000000000000000000 ) ) ;
#180 = CONICAL_SURFACE ( 'NONE', #20, 39.37007874015762354, 0.7853981633974500554 ) ;
#181 = DIRECTION ( 'NONE',  ( 0.000000000000000000, 1.000000000000000000, 0.000000000000000000 ) ) ;
#182 = PRESENTATION_STYLE_ASSIGNMENT (( #64 ) ) ;
#183 = DIRECTION ( 'NONE',  ( -1.231570816815856252E-16, 1.000000000000000000, 0.000000000000000000 ) ) ;
#184 = PRESENTATION_STYLE_ASSIGNMENT (( #123 ) ) ;
#185 = ADVANCED_FACE ( 'NONE', ( #101 ), #180, .T. ) ;
#186 = AXIS2_PLACEMENT_3D ( 'NONE', #235, #96, #178 ) ;
#187 = ORIENTED_EDGE ( 'NONE', *, *, #127, .F. ) ;
#188 = ORIENTED_EDGE ( 'NONE', *, *, #17, .T. ) ;
#189 =( GEOMETRIC_REPRESENTATION_CONTEXT ( 3 ) GLOBAL_UNCERTAINTY_ASSIGNED_CONTEXT ( ( #163 ) ) GLOBAL_UNIT_ASSIGNED_CONTEXT ( ( #85, #22, #109 ) ) REPRESENTATION_CONTEXT ( 'NONE', 'WORKASPACE' ) );
#190 = LINE ( 'NONE', #92, #87 ) ;
#191 = ADVANCED_FACE ( 'NONE', ( #167 ), #201, .T. ) ;
#192 = ORIENTED_EDGE ( 'NONE', *, *, #113, .T. ) ;
#193 = STYLED_ITEM ( 'NONE', ( #199 ), #200 ) ;
#194 = DIRECTION ( 'NONE',  ( -1.000000000000000000, 0.000000000000000000, 0.000000000000000000 ) ) ;
#195 = FILL_AREA_STYLE ('',( #158 ) ) ;
#196 = PRESENTATION_STYLE_ASSIGNMENT (( #38 ) ) ;
#197 = MANIFOLD_SOLID_BREP ( 'Revolve - Cutting Edge', #19 ) ;
#198 = CARTESIAN_POINT ( 'NONE',  ( 0.000000000000000000, 0.09374999999999966693, 0.000000000000000000 ) ) ;
#199 = PRESENTATION_STYLE_ASSIGNMENT (( #259 ) ) ;
#200 = MANIFOLD_SOLID_BREP ( 'Revolve - Tool Body (Pointed)', #148 ) ;
#201 = CONICAL_SURFACE ( 'NONE', #264, 39.37007874015762354, 0.7853981633974500554 ) ;
#202 = FACE_OUTER_BOUND ( 'NONE', #68, .T. ) ;
#203 = DIRECTION ( 'NONE',  ( 0.000000000000000000, 0.000000000000000000, 1.000000000000000000 ) ) ;
#204 = LENGTH_MEASURE_WITH_UNIT ( LENGTH_MEASURE( 0.02539999999999999897 ), #128 );
#205 = COLOUR_RGB ( '',1.000000000000000000, 0.000000000000000000, 0.000000000000000000 ) ;
#206 = EDGE_CURVE ( 'NONE', #228, #233, #165, .T. ) ;
#207 = VERTEX_POINT ( 'NONE', #219 ) ;
#208 = ORIENTED_EDGE ( 'NONE', *, *, #250, .T. ) ;
#209 = FILL_AREA_STYLE_COLOUR ( '', #139 ) ;
#210 = CARTESIAN_POINT ( 'NONE',  ( 0.09374999999999998612, 2.000000000000000000, 0.000000000000000000 ) ) ;
#211 = CARTESIAN_POINT ( 'NONE',  ( 0.09374999999999998612, 2.000000000000000000, 1.148106374200642938E-17 ) ) ;
#212 = PRESENTATION_LAYER_ASSIGNMENT (  '', '', ( #29 ) ) ;
#213 = DIRECTION ( 'NONE',  ( -1.000000000000000000, -1.821231995776180409E-16, 0.000000000000000000 ) ) ;
#214 = PRODUCT_DEFINITION_FORMATION_WITH_SPECIFIED_SOURCE ( 'ANY', '', #1, .NOT_KNOWN. ) ;
#215 = FACE_OUTER_BOUND ( 'NONE', #53, .T. ) ;
#216 = DIRECTION ( 'NONE',  ( -1.000000000000000000, 0.000000000000000000, 0.000000000000000000 ) ) ;
#217 = SURFACE_STYLE_FILL_AREA ( #265 ) ;
#218 =( CONVERSION_BASED_UNIT ( 'INCH', #262 ) LENGTH_UNIT ( ) NAMED_UNIT ( #133 ) );
#219 = CARTESIAN_POINT ( 'NONE',  ( -0.09374999999999998612, 2.000000000000000000, 0.000000000000000000 ) ) ;
#220 = FILL_AREA_STYLE ('',( #130 ) ) ;
#221 = SURFACE_STYLE_USAGE ( .BOTH. , #44 ) ;
#222 = EDGE_CURVE ( 'NONE', #93, #112, #237, .T. ) ;
#223 = UNCERTAINTY_MEASURE_WITH_UNIT (LENGTH_MEASURE( 1.000000000000000082E-05 ), #243, 'distance_accuracy_value', 'NONE');
#224 = MECHANICAL_DESIGN_GEOMETRIC_PRESENTATION_REPRESENTATION (  '', ( #29 ), #115 ) ;
#225 = DIMENSIONAL_EXPONENTS ( 1.000000000000000000, 0.000000000000000000, 0.000000000000000000, 0.000000000000000000, 0.000000000000000000, 0.000000000000000000, 0.000000000000000000 ) ;
#226 = LENGTH_MEASURE_WITH_UNIT ( LENGTH_MEASURE( 0.02539999999999999897 ), #164 );
#227 = PRESENTATION_LAYER_ASSIGNMENT (  '', '', ( #193 ) ) ;
#228 = VERTEX_POINT ( 'NONE', #177 ) ;
#229 = ORIENTED_EDGE ( 'NONE', *, *, #222, .T. ) ;
#230 = APPLICATION_CONTEXT ( 'automotive_design' ) ;
#231 = FACE_OUTER_BOUND ( 'NONE', #7, .T. ) ;
#232 = MECHANICAL_DESIGN_GEOMETRIC_PRESENTATION_REPRESENTATION (  '', ( #193 ), #143 ) ;
#233 = VERTEX_POINT ( 'NONE', #80 ) ;
#234 = ADVANCED_FACE ( 'NONE', ( #202 ), #78, .F. ) ;
#235 = CARTESIAN_POINT ( 'NONE',  ( 0.000000000000000000, 0.09374999999999966693, 0.000000000000000000 ) ) ;
#236 = DIRECTION ( 'NONE',  ( 0.000000000000000000, 0.000000000000000000, -1.000000000000000000 ) ) ;
#237 = CIRCLE ( 'NONE', #60, 0.09374999999999975020 ) ;
#238 = PLANE ( 'NONE',  #253 ) ;
#239 = FACE_OUTER_BOUND ( 'NONE', #73, .T. ) ;
#240 = CARTESIAN_POINT ( 'NONE',  ( 1.421968759530445629E-33, 2.000000000000000000, 0.000000000000000000 ) ) ;
#241 = FILL_AREA_STYLE ('',( #105 ) ) ;
#242 = AXIS2_PLACEMENT_3D ( 'NONE', #55, #114, #194 ) ;
#243 =( CONVERSION_BASED_UNIT ( 'INCH', #260 ) LENGTH_UNIT ( ) NAMED_UNIT ( #69 ) );
#244 = SURFACE_SIDE_STYLE ('',( #122 ) ) ;
#245 = DIRECTION ( 'NONE',  ( 0.000000000000000000, 1.000000000000000000, 0.000000000000000000 ) ) ;
#246 = AXIS2_PLACEMENT_3D ( 'NONE', #137, #100, #102 ) ;
#247 = ORIENTED_EDGE ( 'NONE', *, *, #95, .F. ) ;
#248 = ORIENTED_EDGE ( 'NONE', *, *, #32, .T. ) ;
#249 = ORIENTED_EDGE ( 'NONE', *, *, #206, .F. ) ;
#250 = EDGE_CURVE ( 'NONE', #207, #132, #5, .T. ) ;
#251 = VECTOR ( 'NONE', #252, 39.37007874015748854 ) ;
#252 = DIRECTION ( 'NONE',  ( 8.659560562354947649E-17, 0.7071067811865462405, -0.7071067811865486830 ) ) ;
#253 = AXIS2_PLACEMENT_3D ( 'NONE', #210, #255, #103 ) ;
#254 =( LENGTH_UNIT ( ) NAMED_UNIT ( * ) SI_UNIT ( $, .METRE. ) );
#255 = DIRECTION ( 'NONE',  ( 1.231570816815856252E-16, -1.000000000000000000, 0.000000000000000000 ) ) ;
#256 =( CONVERSION_BASED_UNIT ( 'INCH', #39 ) LENGTH_UNIT ( ) NAMED_UNIT ( #166 ) );
#257 = CARTESIAN_POINT ( 'NONE',  ( 0.000000000000000000, 0.000000000000000000, 0.000000000000000000 ) ) ;
#258 =( GEOMETRIC_REPRESENTATION_CONTEXT ( 3 ) GLOBAL_UNCERTAINTY_ASSIGNED_CONTEXT ( ( #261 ) ) GLOBAL_UNIT_ASSIGNED_CONTEXT ( ( #156, #119, #75 ) ) REPRESENTATION_CONTEXT ( 'NONE', 'WORKASPACE' ) );
#259 = SURFACE_STYLE_USAGE ( .BOTH. , #18 ) ;
#260 = LENGTH_MEASURE_WITH_UNIT ( LENGTH_MEASURE( 0.02539999999999999897 ), #104 );
#261 = UNCERTAINTY_MEASURE_WITH_UNIT (LENGTH_MEASURE( 1.000000000000000082E-05 ), #156, 'distance_accuracy_value', 'NONE');
#262 = LENGTH_MEASURE_WITH_UNIT ( LENGTH_MEASURE( 0.02539999999999999897 ), #83 );
#263 = SHAPE_DEFINITION_REPRESENTATION ( #151, #150 ) ;
#264 = AXIS2_PLACEMENT_3D ( 'NONE', #42, #245, #61 ) ;
#265 = FILL_AREA_STYLE ('',( #209 ) ) ;
ENDSEC;
END-ISO-10303-21;
