ISO-10303-21;
HEADER;
FILE_DESCRIPTION (( 'STEP AP214' ),
    '1' );
FILE_NAME ('83368.STEP',
    '2023-06-30T23:08:05',
    ( '' ),
    ( '' ),
    'SwSTEP 2.0',
    'SolidWorks 2023',
    '' );
FILE_SCHEMA (( 'AUTOMOTIVE_DESIGN' ));
ENDSEC;

DATA;
#1 = PRESENTATION_LAYER_ASSIGNMENT (  '', '', ( #113 ) ) ;
#2 = CARTESIAN_POINT ( 'NONE',  ( -0.2499999999999996947, 2.500000000000000000, 0.000000000000000000 ) ) ;
#3 = EDGE_CURVE ( 'NONE', #362, #133, #5, .T. ) ;
#4 = SURFACE_SIDE_STYLE ('',( #120 ) ) ;
#5 = CIRCLE ( 'NONE', #247, 0.2499999999999996947 ) ;
#6 = SURFACE_STYLE_FILL_AREA ( #275 ) ;
#7 = DIMENSIONAL_EXPONENTS ( 1.000000000000000000, 0.000000000000000000, 0.000000000000000000, 0.000000000000000000, 0.000000000000000000, 0.000000000000000000, 0.000000000000000000 ) ;
#8 = DIRECTION ( 'NONE',  ( 0.000000000000000000, 1.000000000000000000, 0.000000000000000000 ) ) ;
#9 = FILL_AREA_STYLE_COLOUR ( '', #323 ) ;
#10 = DIRECTION ( 'NONE',  ( -1.208176680378093092E-16, 1.000000000000000000, -0.000000000000000000 ) ) ;
#11 = PRODUCT_CONTEXT ( 'NONE', #184, 'mechanical' ) ;
#12 = STYLED_ITEM ( 'NONE', ( #190 ), #122 ) ;
#13 =( LENGTH_UNIT ( ) NAMED_UNIT ( * ) SI_UNIT ( $, .METRE. ) );
#14 = SURFACE_STYLE_USAGE ( .BOTH. , #97 ) ;
#15 = ORIENTED_EDGE ( 'NONE', *, *, #169, .T. ) ;
#16 = DIRECTION ( 'NONE',  ( 0.000000000000000000, 0.000000000000000000, -1.000000000000000000 ) ) ;
#17 = ORIENTED_EDGE ( 'NONE', *, *, #325, .F. ) ;
#18 = DIRECTION ( 'NONE',  ( 0.000000000000000000, 0.000000000000000000, 1.000000000000000000 ) ) ;
#19 = ORIENTED_EDGE ( 'NONE', *, *, #85, .T. ) ;
#20 = VERTEX_POINT ( 'NONE', #127 ) ;
#21 =( LENGTH_UNIT ( ) NAMED_UNIT ( * ) SI_UNIT ( $, .METRE. ) );
#22 = VERTEX_POINT ( 'NONE', #149 ) ;
#23 = CARTESIAN_POINT ( 'NONE',  ( -4.117529692314995014E-18, 2.500000000000000000, 0.000000000000000000 ) ) ;
#24 = EDGE_CURVE ( 'NONE', #136, #255, #137, .T. ) ;
#25 =( LENGTH_UNIT ( ) NAMED_UNIT ( * ) SI_UNIT ( $, .METRE. ) );
#26 = LENGTH_MEASURE_WITH_UNIT ( LENGTH_MEASURE( 0.02539999999999999897 ), #25 );
#27 = COLOUR_RGB ( '',0.7921568627450980005, 0.8196078431372548767, 0.9333333333333333481 ) ;
#28 = ORIENTED_EDGE ( 'NONE', *, *, #3, .T. ) ;
#29 = AXIS2_PLACEMENT_3D ( 'NONE', #208, #373, #317 ) ;
#30 =( NAMED_UNIT ( * ) PLANE_ANGLE_UNIT ( ) SI_UNIT ( $, .RADIAN. ) );
#31 = AXIS2_PLACEMENT_3D ( 'NONE', #34, #96, #98 ) ;
#32 = LENGTH_MEASURE_WITH_UNIT ( LENGTH_MEASURE( 0.02539999999999999897 ), #124 );
#33 = DIRECTION ( 'NONE',  ( -0.000000000000000000, -1.000000000000000000, -0.000000000000000000 ) ) ;
#34 = CARTESIAN_POINT ( 'NONE',  ( -3.061616997868383018E-17, 0.2500000000000000000, 0.000000000000000000 ) ) ;
#35 = CARTESIAN_POINT ( 'NONE',  ( -3.061616997868383141E-16, 5.000000000000000000, 0.000000000000000000 ) ) ;
#36 = VERTEX_POINT ( 'NONE', #156 ) ;
#37 = CARTESIAN_POINT ( 'NONE',  ( 0.2499999999999996947, 5.000000000000000000, 0.000000000000000000 ) ) ;
#38 = PRESENTATION_STYLE_ASSIGNMENT (( #14 ) ) ;
#39 = ORIENTED_EDGE ( 'NONE', *, *, #85, .F. ) ;
#40 = PRODUCT_DEFINITION_SHAPE ( 'NONE', 'NONE',  #63 ) ;
#41 = FILL_AREA_STYLE_COLOUR ( '', #318 ) ;
#42 = ORIENTED_EDGE ( 'NONE', *, *, #69, .T. ) ;
#43 =( NAMED_UNIT ( * ) SI_UNIT ( $, .STERADIAN. ) SOLID_ANGLE_UNIT ( ) );
#44 = DIRECTION ( 'NONE',  ( -0.000000000000000000, -1.000000000000000000, -0.000000000000000000 ) ) ;
#45 = ORIENTED_EDGE ( 'NONE', *, *, #282, .T. ) ;
#46 = MECHANICAL_DESIGN_GEOMETRIC_PRESENTATION_REPRESENTATION (  '', ( #94 ), #246 ) ;
#47 = FILL_AREA_STYLE_COLOUR ( '', #204 ) ;
#48 = PRESENTATION_STYLE_ASSIGNMENT (( #293 ) ) ;
#49 = CARTESIAN_POINT ( 'NONE',  ( 0.2500000000000000000, 0.2500000000000000000, 0.000000000000000000 ) ) ;
#50 = MANIFOLD_SOLID_BREP ( 'Revolve - Tool Body (Straight Shanked)', #91 ) ;
#51 = AXIS2_PLACEMENT_3D ( 'NONE', #218, #252, #248 ) ;
#52 = PRODUCT_DEFINITION_CONTEXT ( 'detailed design', #228, 'design' ) ;
#53 = PRESENTATION_LAYER_ASSIGNMENT (  '', '', ( #12 ) ) ;
#54 = DIRECTION ( 'NONE',  ( -1.000000000000000000, 0.000000000000000000, 0.000000000000000000 ) ) ;
#55 = CARTESIAN_POINT ( 'NONE',  ( 0.000000000000000000, 0.2500000000000000000, 0.000000000000000000 ) ) ;
#56 = EDGE_CURVE ( 'NONE', #20, #36, #80, .T. ) ;
#57 = PRESENTATION_STYLE_ASSIGNMENT (( #295 ) ) ;
#58 =( GEOMETRIC_REPRESENTATION_CONTEXT ( 3 ) GLOBAL_UNCERTAINTY_ASSIGNED_CONTEXT ( ( #227 ) ) GLOBAL_UNIT_ASSIGNED_CONTEXT ( ( #368, #225, #193 ) ) REPRESENTATION_CONTEXT ( 'NONE', 'WORKASPACE' ) );
#59 = DIMENSIONAL_EXPONENTS ( 1.000000000000000000, 0.000000000000000000, 0.000000000000000000, 0.000000000000000000, 0.000000000000000000, 0.000000000000000000, 0.000000000000000000 ) ;
#60 = CLOSED_SHELL ( 'NONE', ( #115, #122, #242, #260, #263 ) ) ;
#61 = CARTESIAN_POINT ( 'NONE',  ( 0.000000000000000000, 0.2500000000000000000, 0.000000000000000000 ) ) ;
#62 = LENGTH_MEASURE_WITH_UNIT ( LENGTH_MEASURE( 0.02539999999999999897 ), #267 );
#63 = PRODUCT_DEFINITION ( 'UNKNOWN', '', #118, #52 ) ;
#64 =( LENGTH_UNIT ( ) NAMED_UNIT ( * ) SI_UNIT ( $, .METRE. ) );
#65 = DIMENSIONAL_EXPONENTS ( 1.000000000000000000, 0.000000000000000000, 0.000000000000000000, 0.000000000000000000, 0.000000000000000000, 0.000000000000000000, 0.000000000000000000 ) ;
#66 = CARTESIAN_POINT ( 'NONE',  ( -0.2500000000000001665, 5.000000000000000000, 0.000000000000000000 ) ) ;
#67 =( GEOMETRIC_REPRESENTATION_CONTEXT ( 3 ) GLOBAL_UNCERTAINTY_ASSIGNED_CONTEXT ( ( #138 ) ) GLOBAL_UNIT_ASSIGNED_CONTEXT ( ( #215, #30, #329 ) ) REPRESENTATION_CONTEXT ( 'NONE', 'WORKASPACE' ) );
#68 = CARTESIAN_POINT ( 'NONE',  ( 0.000000000000000000, 2.500000000000000000, 0.000000000000000000 ) ) ;
#69 = EDGE_CURVE ( 'NONE', #133, #36, #123, .T. ) ;
#70 = CARTESIAN_POINT ( 'NONE',  ( 0.2499999999999996947, 2.500000000000000000, 3.061616997868382402E-17 ) ) ;
#71 = DIRECTION ( 'NONE',  ( -0.000000000000000000, -1.000000000000000000, -0.000000000000000000 ) ) ;
#72 = SURFACE_SIDE_STYLE ('',( #332 ) ) ;
#73 = AXIS2_PLACEMENT_3D ( 'NONE', #68, #8, #147 ) ;
#74 = VERTEX_POINT ( 'NONE', #301 ) ;
#75 =( GEOMETRIC_REPRESENTATION_CONTEXT ( 3 ) GLOBAL_UNCERTAINTY_ASSIGNED_CONTEXT ( ( #82 ) ) GLOBAL_UNIT_ASSIGNED_CONTEXT ( ( #155, #107, #43 ) ) REPRESENTATION_CONTEXT ( 'NONE', 'WORKASPACE' ) );
#76 = DIRECTION ( 'NONE',  ( 1.000000000000000000, 1.208176680378093092E-16, 0.000000000000000000 ) ) ;
#77 = FILL_AREA_STYLE ('',( #47 ) ) ;
#78 = EDGE_CURVE ( 'NONE', #22, #74, #125, .T. ) ;
#79 = ORIENTED_EDGE ( 'NONE', *, *, #173, .F. ) ;
#80 = CIRCLE ( 'NONE', #153, 0.2500000000000000000 ) ;
#81 = ADVANCED_FACE ( 'NONE', ( #132 ), #304, .T. ) ;
#82 = UNCERTAINTY_MEASURE_WITH_UNIT (LENGTH_MEASURE( 1.000000000000000082E-05 ), #155, 'distance_accuracy_value', 'NONE');
#83 = DIRECTION ( 'NONE',  ( -1.208176680378093092E-16, 1.000000000000000000, 0.000000000000000000 ) ) ;
#84 = DIRECTION ( 'NONE',  ( 1.000000000000000000, 0.000000000000000000, -1.224646799147353207E-16 ) ) ;
#85 = EDGE_CURVE ( 'NONE', #136, #309, #286, .T. ) ;
#86 = FACE_OUTER_BOUND ( 'NONE', #283, .T. ) ;
#87 = FACE_OUTER_BOUND ( 'NONE', #287, .T. ) ;
#88 = PRESENTATION_STYLE_ASSIGNMENT (( #326 ) ) ;
#89 = AXIS2_PLACEMENT_3D ( 'NONE', #272, #238, #241 ) ;
#90 =( NAMED_UNIT ( * ) PLANE_ANGLE_UNIT ( ) SI_UNIT ( $, .RADIAN. ) );
#91 = CLOSED_SHELL ( 'NONE', ( #213, #131, #81, #328 ) ) ;
#92 = DIRECTION ( 'NONE',  ( -1.000000000000000000, 0.000000000000000000, 0.000000000000000000 ) ) ;
#93 =( NAMED_UNIT ( * ) SI_UNIT ( $, .STERADIAN. ) SOLID_ANGLE_UNIT ( ) );
#94 = STYLED_ITEM ( 'NONE', ( #48 ), #181 ) ;
#95 =( LENGTH_UNIT ( ) NAMED_UNIT ( * ) SI_UNIT ( $, .METRE. ) );
#96 = DIRECTION ( 'NONE',  ( 0.000000000000000000, 0.000000000000000000, 1.000000000000000000 ) ) ;
#97 = SURFACE_SIDE_STYLE ('',( #160 ) ) ;
#98 = DIRECTION ( 'NONE',  ( 1.000000000000000000, 0.000000000000000000, 0.000000000000000000 ) ) ;
#99 = PRODUCT ( '83368', '83368', '', ( #11 ) ) ;
#100 = SPHERICAL_SURFACE ( 'NONE', #31, 0.2500000000000000000 ) ;
#101 = AXIS2_PLACEMENT_3D ( 'NONE', #360, #288, #340 ) ;
#102 =( NAMED_UNIT ( * ) PLANE_ANGLE_UNIT ( ) SI_UNIT ( $, .RADIAN. ) );
#103 = AXIS2_PLACEMENT_3D ( 'NONE', #320, #294, #54 ) ;
#104 = ORIENTED_EDGE ( 'NONE', *, *, #192, .F. ) ;
#105 = VECTOR ( 'NONE', #183, 39.37007874015748143 ) ;
#106 = ORIENTED_EDGE ( 'NONE', *, *, #69, .F. ) ;
#107 =( NAMED_UNIT ( * ) PLANE_ANGLE_UNIT ( ) SI_UNIT ( $, .RADIAN. ) );
#108 = ADVANCED_BREP_SHAPE_REPRESENTATION ( '83368', ( #181, #50, #231 ), #75 ) ;
#109 = DIRECTION ( 'NONE',  ( 0.000000000000000000, 0.000000000000000000, 1.000000000000000000 ) ) ;
#110 = EDGE_CURVE ( 'NONE', #74, #22, #270, .T. ) ;
#111 = FACE_OUTER_BOUND ( 'NONE', #165, .T. ) ;
#112 = ORIENTED_EDGE ( 'NONE', *, *, #370, .F. ) ;
#113 = STYLED_ITEM ( 'NONE', ( #154 ), #260 ) ;
#114 = CARTESIAN_POINT ( 'NONE',  ( -3.061616997868383018E-17, 0.2500000000000000000, 0.000000000000000000 ) ) ;
#115 = ADVANCED_FACE ( 'NONE', ( #308 ), #229, .T. ) ;
#116 = CARTESIAN_POINT ( 'NONE',  ( 0.000000000000000000, 0.2500000000000000000, 0.000000000000000000 ) ) ;
#117 = MECHANICAL_DESIGN_GEOMETRIC_PRESENTATION_REPRESENTATION (  '', ( #150 ), #313 ) ;
#118 = PRODUCT_DEFINITION_FORMATION_WITH_SPECIFIED_SOURCE ( 'ANY', '', #99, .NOT_KNOWN. ) ;
#119 = DIRECTION ( 'NONE',  ( 0.000000000000000000, 0.000000000000000000, -1.000000000000000000 ) ) ;
#120 = SURFACE_STYLE_FILL_AREA ( #268 ) ;
#121 =( CONVERSION_BASED_UNIT ( 'INCH', #214 ) LENGTH_UNIT ( ) NAMED_UNIT ( #259 ) );
#122 = ADVANCED_FACE ( 'NONE', ( #337 ), #285, .T. ) ;
#123 = LINE ( 'NONE', #66, #105 ) ;
#124 =( LENGTH_UNIT ( ) NAMED_UNIT ( * ) SI_UNIT ( $, .METRE. ) );
#125 = CIRCLE ( 'NONE', #336, 0.2499999999999996947 ) ;
#126 = FACE_OUTER_BOUND ( 'NONE', #312, .T. ) ;
#127 = CARTESIAN_POINT ( 'NONE',  ( 0.2499999999999996947, 5.000000000000000000, 3.061616997868382402E-17 ) ) ;
#128 = UNCERTAINTY_MEASURE_WITH_UNIT (LENGTH_MEASURE( 1.000000000000000082E-05 ), #243, 'distance_accuracy_value', 'NONE');
#129 = CIRCLE ( 'NONE', #103, 0.2500000000000000000 ) ;
#130 =( LENGTH_UNIT ( ) NAMED_UNIT ( * ) SI_UNIT ( $, .METRE. ) );
#131 = ADVANCED_FACE ( 'NONE', ( #111 ), #292, .F. ) ;
#132 = FACE_OUTER_BOUND ( 'NONE', #289, .T. ) ;
#133 = VERTEX_POINT ( 'NONE', #2 ) ;
#134 =( GEOMETRIC_REPRESENTATION_CONTEXT ( 3 ) GLOBAL_UNCERTAINTY_ASSIGNED_CONTEXT ( ( #128 ) ) GLOBAL_UNIT_ASSIGNED_CONTEXT ( ( #243, #244, #359 ) ) REPRESENTATION_CONTEXT ( 'NONE', 'WORKASPACE' ) );
#135 = CARTESIAN_POINT ( 'NONE',  ( -3.061616997868383018E-17, 0.2500000000000000000, 0.000000000000000000 ) ) ;
#136 = VERTEX_POINT ( 'NONE', #49 ) ;
#137 = CIRCLE ( 'NONE', #199, 0.2500000000000000000 ) ;
#138 = UNCERTAINTY_MEASURE_WITH_UNIT (LENGTH_MEASURE( 1.000000000000000082E-05 ), #215, 'distance_accuracy_value', 'NONE');
#139 = CARTESIAN_POINT ( 'NONE',  ( 0.000000000000000000, 0.000000000000000000, 0.000000000000000000 ) ) ;
#140 = DIRECTION ( 'NONE',  ( -1.208176680378093092E-16, 1.000000000000000000, -0.000000000000000000 ) ) ;
#141 = EDGE_LOOP ( 'NONE', ( #194, #226 ) ) ;
#142 = ORIENTED_EDGE ( 'NONE', *, *, #347, .F. ) ;
#143 = UNCERTAINTY_MEASURE_WITH_UNIT (LENGTH_MEASURE( 1.000000000000000082E-05 ), #185, 'distance_accuracy_value', 'NONE');
#144 = CARTESIAN_POINT ( 'NONE',  ( -4.117529692315053563E-18, 2.500000000000000000, 0.000000000000000000 ) ) ;
#145 = DIRECTION ( 'NONE',  ( -1.000000000000000000, 0.000000000000000000, 0.000000000000000000 ) ) ;
#146 = CARTESIAN_POINT ( 'NONE',  ( -3.061616997868383141E-16, 5.000000000000000000, 0.000000000000000000 ) ) ;
#147 = DIRECTION ( 'NONE',  ( 0.000000000000000000, -0.000000000000000000, 1.000000000000000000 ) ) ;
#148 =( NAMED_UNIT ( * ) PLANE_ANGLE_UNIT ( ) SI_UNIT ( $, .RADIAN. ) );
#149 = CARTESIAN_POINT ( 'NONE',  ( 3.061616997868379936E-17, 2.500000000000000000, 0.2499999999999996947 ) ) ;
#150 = STYLED_ITEM ( 'NONE', ( #38 ), #115 ) ;
#151 =( GEOMETRIC_REPRESENTATION_CONTEXT ( 3 ) GLOBAL_UNCERTAINTY_ASSIGNED_CONTEXT ( ( #290 ) ) GLOBAL_UNIT_ASSIGNED_CONTEXT ( ( #121, #90, #327 ) ) REPRESENTATION_CONTEXT ( 'NONE', 'WORKASPACE' ) );
#152 = FILL_AREA_STYLE_COLOUR ( '', #220 ) ;
#153 = AXIS2_PLACEMENT_3D ( 'NONE', #356, #298, #92 ) ;
#154 = PRESENTATION_STYLE_ASSIGNMENT (( #297 ) ) ;
#155 =( CONVERSION_BASED_UNIT ( 'INCH', #307 ) LENGTH_UNIT ( ) NAMED_UNIT ( #59 ) );
#156 = CARTESIAN_POINT ( 'NONE',  ( -0.2500000000000002776, 5.000000000000000000, 0.000000000000000000 ) ) ;
#157 = DIMENSIONAL_EXPONENTS ( 1.000000000000000000, 0.000000000000000000, 0.000000000000000000, 0.000000000000000000, 0.000000000000000000, 0.000000000000000000, 0.000000000000000000 ) ;
#158 = CARTESIAN_POINT ( 'NONE',  ( 0.000000000000000000, 0.2500000000000000000, -0.2500000000000000000 ) ) ;
#159 = STYLED_ITEM ( 'NONE', ( #88 ), #263 ) ;
#160 = SURFACE_STYLE_FILL_AREA ( #278 ) ;
#161 = ORIENTED_EDGE ( 'NONE', *, *, #56, .F. ) ;
#162 = DIRECTION ( 'NONE',  ( 0.000000000000000000, 0.000000000000000000, -1.000000000000000000 ) ) ;
#163 =( CONVERSION_BASED_UNIT ( 'INCH', #186 ) LENGTH_UNIT ( ) NAMED_UNIT ( #157 ) );
#164 = ORIENTED_EDGE ( 'NONE', *, *, #24, .F. ) ;
#165 = EDGE_LOOP ( 'NONE', ( #257, #266 ) ) ;
#166 = DIRECTION ( 'NONE',  ( 1.000000000000000000, 0.000000000000000000, 0.000000000000000000 ) ) ;
#167 = AXIS2_PLACEMENT_3D ( 'NONE', #116, #235, #119 ) ;
#168 =( NAMED_UNIT ( * ) SI_UNIT ( $, .STERADIAN. ) SOLID_ANGLE_UNIT ( ) );
#169 = EDGE_CURVE ( 'NONE', #133, #362, #276, .T. ) ;
#170 = ORIENTED_EDGE ( 'NONE', *, *, #192, .T. ) ;
#171 = DIRECTION ( 'NONE',  ( -1.000000000000000000, 0.000000000000000000, 0.000000000000000000 ) ) ;
#172 = MECHANICAL_DESIGN_GEOMETRIC_PRESENTATION_REPRESENTATION (  '', ( #159 ), #134 ) ;
#173 = EDGE_CURVE ( 'NONE', #255, #202, #239, .T. ) ;
#174 = CYLINDRICAL_SURFACE ( 'NONE', #236, 0.2499999999999998612 ) ;
#175 = FILL_AREA_STYLE ('',( #343 ) ) ;
#176 = SURFACE_STYLE_FILL_AREA ( #175 ) ;
#177 = PRESENTATION_LAYER_ASSIGNMENT (  '', '', ( #319 ) ) ;
#178 = CARTESIAN_POINT ( 'NONE',  ( 3.061616997868383018E-17, 0.2500000000000000000, 0.2499999999999999722 ) ) ;
#179 = CARTESIAN_POINT ( 'NONE',  ( -4.117529692314995014E-18, 2.500000000000000000, 0.000000000000000000 ) ) ;
#180 = LINE ( 'NONE', #361, #306 ) ;
#181 = MANIFOLD_SOLID_BREP ( 'Revolve - Cutting Edge', #60 ) ;
#182 = LENGTH_MEASURE_WITH_UNIT ( LENGTH_MEASURE( 0.02539999999999999897 ), #95 );
#183 = DIRECTION ( 'NONE',  ( -1.208176680378093092E-16, 1.000000000000000000, -0.000000000000000000 ) ) ;
#184 = APPLICATION_CONTEXT ( 'automotive_design' ) ;
#185 =( CONVERSION_BASED_UNIT ( 'INCH', #32 ) LENGTH_UNIT ( ) NAMED_UNIT ( #345 ) );
#186 = LENGTH_MEASURE_WITH_UNIT ( LENGTH_MEASURE( 0.02539999999999999897 ), #130 );
#187 = ORIENTED_EDGE ( 'NONE', *, *, #223, .T. ) ;
#188 = MECHANICAL_DESIGN_GEOMETRIC_PRESENTATION_REPRESENTATION (  '', ( #240 ), #67 ) ;
#189 = ORIENTED_EDGE ( 'NONE', *, *, #223, .F. ) ;
#190 = PRESENTATION_STYLE_ASSIGNMENT (( #256 ) ) ;
#191 = CARTESIAN_POINT ( 'NONE',  ( 0.000000000000000000, 0.2500000000000000000, 0.000000000000000000 ) ) ;
#192 = EDGE_CURVE ( 'NONE', #202, #309, #210, .T. ) ;
#193 =( NAMED_UNIT ( * ) SI_UNIT ( $, .STERADIAN. ) SOLID_ANGLE_UNIT ( ) );
#194 = ORIENTED_EDGE ( 'NONE', *, *, #209, .T. ) ;
#195 = AXIS2_PLACEMENT_3D ( 'NONE', #135, #109, #221 ) ;
#196 = LENGTH_MEASURE_WITH_UNIT ( LENGTH_MEASURE( 0.02539999999999999897 ), #21 );
#197 = VECTOR ( 'NONE', #280, 39.37007874015748143 ) ;
#198 = EDGE_LOOP ( 'NONE', ( #315, #369, #364, #189, #79 ) ) ;
#199 = AXIS2_PLACEMENT_3D ( 'NONE', #61, #273, #303 ) ;
#200 = DIRECTION ( 'NONE',  ( -1.000000000000000000, -1.208176680378093092E-16, 0.000000000000000000 ) ) ;
#201 =( CONVERSION_BASED_UNIT ( 'INCH', #26 ) LENGTH_UNIT ( ) NAMED_UNIT ( #7 ) );
#202 = VERTEX_POINT ( 'NONE', #203 ) ;
#203 = CARTESIAN_POINT ( 'NONE',  ( -0.2500000000000000000, 0.2500000000000000000, 3.061616997868382402E-17 ) ) ;
#204 = COLOUR_RGB ( '',1.000000000000000000, 0.000000000000000000, 0.000000000000000000 ) ;
#205 = AXIS2_PLACEMENT_3D ( 'NONE', #37, #335, #76 ) ;
#206 = COLOUR_RGB ( '',0.7921568627450980005, 0.8196078431372548767, 0.9333333333333333481 ) ;
#207 = PLANE ( 'NONE',  #73 ) ;
#208 = CARTESIAN_POINT ( 'NONE',  ( 0.000000000000000000, 0.000000000000000000, 0.000000000000000000 ) ) ;
#209 = EDGE_CURVE ( 'NONE', #36, #20, #129, .T. ) ;
#210 = CIRCLE ( 'NONE', #296, 0.2500000000000000000 ) ;
#211 = CYLINDRICAL_SURFACE ( 'NONE', #89, 0.2499999999999998612 ) ;
#212 = PRESENTATION_STYLE_ASSIGNMENT (( #324 ) ) ;
#213 = ADVANCED_FACE ( 'NONE', ( #87 ), #174, .T. ) ;
#214 = LENGTH_MEASURE_WITH_UNIT ( LENGTH_MEASURE( 0.02539999999999999897 ), #64 );
#215 =( CONVERSION_BASED_UNIT ( 'INCH', #182 ) LENGTH_UNIT ( ) NAMED_UNIT ( #302 ) );
#216 = SURFACE_SIDE_STYLE ('',( #6 ) ) ;
#217 = CARTESIAN_POINT ( 'NONE',  ( -1.530808498934191509E-17, 0.000000000000000000, 0.000000000000000000 ) ) ;
#218 = CARTESIAN_POINT ( 'NONE',  ( -3.061616997868383018E-17, 0.2500000000000000000, 0.000000000000000000 ) ) ;
#219 = AXIS2_PLACEMENT_3D ( 'NONE', #35, #140, #314 ) ;
#220 = COLOUR_RGB ( '',1.000000000000000000, 0.000000000000000000, 0.000000000000000000 ) ;
#221 = DIRECTION ( 'NONE',  ( 1.000000000000000000, 0.000000000000000000, 0.000000000000000000 ) ) ;
#222 = ORIENTED_EDGE ( 'NONE', *, *, #347, .T. ) ;
#223 = EDGE_CURVE ( 'NONE', #202, #341, #357, .T. ) ;
#224 = CARTESIAN_POINT ( 'NONE',  ( 0.2499999999999995559, 5.000000000000000000, 3.061616997868381785E-17 ) ) ;
#225 =( NAMED_UNIT ( * ) PLANE_ANGLE_UNIT ( ) SI_UNIT ( $, .RADIAN. ) );
#226 = ORIENTED_EDGE ( 'NONE', *, *, #56, .T. ) ;
#227 = UNCERTAINTY_MEASURE_WITH_UNIT (LENGTH_MEASURE( 1.000000000000000082E-05 ), #368, 'distance_accuracy_value', 'NONE');
#228 = APPLICATION_CONTEXT ( 'automotive_design' ) ;
#229 = SPHERICAL_SURFACE ( 'NONE', #195, 0.2500000000000000000 ) ;
#230 = ORIENTED_EDGE ( 'NONE', *, *, #24, .T. ) ;
#231 = AXIS2_PLACEMENT_3D ( 'NONE', #139, #18, #166 ) ;
#232 = UNCERTAINTY_MEASURE_WITH_UNIT (LENGTH_MEASURE( 1.000000000000000082E-05 ), #201, 'distance_accuracy_value', 'NONE');
#233 = DIRECTION ( 'NONE',  ( -0.000000000000000000, -1.000000000000000000, -0.000000000000000000 ) ) ;
#234 = DIRECTION ( 'NONE',  ( 1.224646799147353207E-16, -0.000000000000000000, 1.000000000000000000 ) ) ;
#235 = DIRECTION ( 'NONE',  ( -0.000000000000000000, -1.000000000000000000, -0.000000000000000000 ) ) ;
#236 = AXIS2_PLACEMENT_3D ( 'NONE', #146, #264, #145 ) ;
#237 = FILL_AREA_STYLE_COLOUR ( '', #342 ) ;
#238 = DIRECTION ( 'NONE',  ( -0.000000000000000000, -1.000000000000000000, -0.000000000000000000 ) ) ;
#239 = CIRCLE ( 'NONE', #334, 0.2500000000000000000 ) ;
#240 = STYLED_ITEM ( 'NONE', ( #212 ), #50 ) ;
#241 = DIRECTION ( 'NONE',  ( 0.000000000000000000, 0.000000000000000000, -1.000000000000000000 ) ) ;
#242 = ADVANCED_FACE ( 'NONE', ( #86 ), #207, .T. ) ;
#243 =( CONVERSION_BASED_UNIT ( 'INCH', #62 ) LENGTH_UNIT ( ) NAMED_UNIT ( #351 ) );
#244 =( NAMED_UNIT ( * ) PLANE_ANGLE_UNIT ( ) SI_UNIT ( $, .RADIAN. ) );
#245 = ORIENTED_EDGE ( 'NONE', *, *, #325, .T. ) ;
#246 =( GEOMETRIC_REPRESENTATION_CONTEXT ( 3 ) GLOBAL_UNCERTAINTY_ASSIGNED_CONTEXT ( ( #232 ) ) GLOBAL_UNIT_ASSIGNED_CONTEXT ( ( #201, #346, #262 ) ) REPRESENTATION_CONTEXT ( 'NONE', 'WORKASPACE' ) );
#247 = AXIS2_PLACEMENT_3D ( 'NONE', #179, #10, #300 ) ;
#248 = DIRECTION ( 'NONE',  ( -1.000000000000000000, 0.000000000000000000, 0.000000000000000000 ) ) ;
#249 = UNCERTAINTY_MEASURE_WITH_UNIT (LENGTH_MEASURE( 1.000000000000000082E-05 ), #163, 'distance_accuracy_value', 'NONE');
#250 = ORIENTED_EDGE ( 'NONE', *, *, #110, .T. ) ;
#251 = APPLICATION_PROTOCOL_DEFINITION ( 'draft international standard', 'automotive_design', 1998, #228 ) ;
#252 = DIRECTION ( 'NONE',  ( 0.000000000000000000, 0.000000000000000000, -1.000000000000000000 ) ) ;
#253 = SHAPE_DEFINITION_REPRESENTATION ( #40, #108 ) ;
#254 = VECTOR ( 'NONE', #363, 39.37007874015748143 ) ;
#255 = VERTEX_POINT ( 'NONE', #178 ) ;
#256 = SURFACE_STYLE_USAGE ( .BOTH. , #72 ) ;
#257 = ORIENTED_EDGE ( 'NONE', *, *, #169, .F. ) ;
#258 = SURFACE_STYLE_FILL_AREA ( #350 ) ;
#259 = DIMENSIONAL_EXPONENTS ( 1.000000000000000000, 0.000000000000000000, 0.000000000000000000, 0.000000000000000000, 0.000000000000000000, 0.000000000000000000, 0.000000000000000000 ) ;
#260 = ADVANCED_FACE ( 'NONE', ( #299 ), #211, .T. ) ;
#261 = MECHANICAL_DESIGN_GEOMETRIC_PRESENTATION_REPRESENTATION (  '', ( #113 ), #265 ) ;
#262 =( NAMED_UNIT ( * ) SI_UNIT ( $, .STERADIAN. ) SOLID_ANGLE_UNIT ( ) );
#263 = ADVANCED_FACE ( 'NONE', ( #126 ), #100, .T. ) ;
#264 = DIRECTION ( 'NONE',  ( -1.208176680378093092E-16, 1.000000000000000000, -0.000000000000000000 ) ) ;
#265 =( GEOMETRIC_REPRESENTATION_CONTEXT ( 3 ) GLOBAL_UNCERTAINTY_ASSIGNED_CONTEXT ( ( #143 ) ) GLOBAL_UNIT_ASSIGNED_CONTEXT ( ( #185, #148, #93 ) ) REPRESENTATION_CONTEXT ( 'NONE', 'WORKASPACE' ) );
#266 = ORIENTED_EDGE ( 'NONE', *, *, #3, .F. ) ;
#267 =( LENGTH_UNIT ( ) NAMED_UNIT ( * ) SI_UNIT ( $, .METRE. ) );
#268 = FILL_AREA_STYLE ('',( #152 ) ) ;
#269 = FILL_AREA_STYLE_COLOUR ( '', #206 ) ;
#270 = CIRCLE ( 'NONE', #101, 0.2499999999999996947 ) ;
#271 = PRESENTATION_LAYER_ASSIGNMENT (  '', '', ( #94 ) ) ;
#272 = CARTESIAN_POINT ( 'NONE',  ( 0.000000000000000000, 0.000000000000000000, 0.000000000000000000 ) ) ;
#273 = DIRECTION ( 'NONE',  ( -0.000000000000000000, -1.000000000000000000, -0.000000000000000000 ) ) ;
#274 = LINE ( 'NONE', #224, #254 ) ;
#275 = FILL_AREA_STYLE ('',( #269 ) ) ;
#276 = CIRCLE ( 'NONE', #366, 0.2499999999999996947 ) ;
#277 = CARTESIAN_POINT ( 'NONE',  ( 0.000000000000000000, 0.000000000000000000, -0.2499999999999998612 ) ) ;
#278 = FILL_AREA_STYLE ('',( #41 ) ) ;
#279 = ORIENTED_EDGE ( 'NONE', *, *, #173, .T. ) ;
#280 = DIRECTION ( 'NONE',  ( -0.000000000000000000, -1.000000000000000000, -0.000000000000000000 ) ) ;
#281 = EDGE_LOOP ( 'NONE', ( #250, #45, #164, #142, #112 ) ) ;
#282 = EDGE_CURVE ( 'NONE', #22, #255, #180, .T. ) ;
#283 = EDGE_LOOP ( 'NONE', ( #371, #339 ) ) ;
#284 = APPLICATION_PROTOCOL_DEFINITION ( 'draft international standard', 'automotive_design', 1998, #184 ) ;
#285 = CYLINDRICAL_SURFACE ( 'NONE', #29, 0.2499999999999998612 ) ;
#286 = CIRCLE ( 'NONE', #51, 0.2500000000000000000 ) ;
#287 = EDGE_LOOP ( 'NONE', ( #15, #245, #344, #106 ) ) ;
#288 = DIRECTION ( 'NONE',  ( -0.000000000000000000, -1.000000000000000000, -0.000000000000000000 ) ) ;
#289 = EDGE_LOOP ( 'NONE', ( #17, #28, #42, #161 ) ) ;
#290 = UNCERTAINTY_MEASURE_WITH_UNIT (LENGTH_MEASURE( 1.000000000000000082E-05 ), #121, 'distance_accuracy_value', 'NONE');
#291 = DIRECTION ( 'NONE',  ( 0.000000000000000000, 0.000000000000000000, -1.000000000000000000 ) ) ;
#292 = PLANE ( 'NONE',  #372 ) ;
#293 = SURFACE_STYLE_USAGE ( .BOTH. , #321 ) ;
#294 = DIRECTION ( 'NONE',  ( -1.208176680378093092E-16, 1.000000000000000000, -0.000000000000000000 ) ) ;
#295 = SURFACE_STYLE_USAGE ( .BOTH. , #322 ) ;
#296 = AXIS2_PLACEMENT_3D ( 'NONE', #114, #234, #84 ) ;
#297 = SURFACE_STYLE_USAGE ( .BOTH. , #4 ) ;
#298 = DIRECTION ( 'NONE',  ( -1.208176680378093092E-16, 1.000000000000000000, -0.000000000000000000 ) ) ;
#299 = FACE_OUTER_BOUND ( 'NONE', #198, .T. ) ;
#300 = DIRECTION ( 'NONE',  ( -1.000000000000000000, 0.000000000000000000, 0.000000000000000000 ) ) ;
#301 = CARTESIAN_POINT ( 'NONE',  ( 0.000000000000000000, 2.500000000000000000, -0.2499999999999996947 ) ) ;
#302 = DIMENSIONAL_EXPONENTS ( 1.000000000000000000, 0.000000000000000000, 0.000000000000000000, 0.000000000000000000, 0.000000000000000000, 0.000000000000000000, 0.000000000000000000 ) ;
#303 = DIRECTION ( 'NONE',  ( 0.000000000000000000, 0.000000000000000000, -1.000000000000000000 ) ) ;
#304 = CYLINDRICAL_SURFACE ( 'NONE', #219, 0.2499999999999998612 ) ;
#305 = PRESENTATION_LAYER_ASSIGNMENT (  '', '', ( #159 ) ) ;
#306 = VECTOR ( 'NONE', #33, 39.37007874015748143 ) ;
#307 = LENGTH_MEASURE_WITH_UNIT ( LENGTH_MEASURE( 0.02539999999999999897 ), #13 );
#308 = FACE_OUTER_BOUND ( 'NONE', #310, .T. ) ;
#309 = VERTEX_POINT ( 'NONE', #217 ) ;
#310 = EDGE_LOOP ( 'NONE', ( #279, #170, #39, #230 ) ) ;
#311 = FACE_OUTER_BOUND ( 'NONE', #141, .T. ) ;
#312 = EDGE_LOOP ( 'NONE', ( #104, #187, #222, #19 ) ) ;
#313 =( GEOMETRIC_REPRESENTATION_CONTEXT ( 3 ) GLOBAL_UNCERTAINTY_ASSIGNED_CONTEXT ( ( #249 ) ) GLOBAL_UNIT_ASSIGNED_CONTEXT ( ( #163, #102, #168 ) ) REPRESENTATION_CONTEXT ( 'NONE', 'WORKASPACE' ) );
#314 = DIRECTION ( 'NONE',  ( -1.000000000000000000, 0.000000000000000000, 0.000000000000000000 ) ) ;
#315 = ORIENTED_EDGE ( 'NONE', *, *, #282, .F. ) ;
#316 = DIRECTION ( 'NONE',  ( -1.208176680378093092E-16, 1.000000000000000000, -0.000000000000000000 ) ) ;
#317 = DIRECTION ( 'NONE',  ( 0.000000000000000000, 0.000000000000000000, -1.000000000000000000 ) ) ;
#318 = COLOUR_RGB ( '',1.000000000000000000, 0.000000000000000000, 0.000000000000000000 ) ;
#319 = STYLED_ITEM ( 'NONE', ( #57 ), #242 ) ;
#320 = CARTESIAN_POINT ( 'NONE',  ( -3.061616997868383141E-16, 5.000000000000000000, 0.000000000000000000 ) ) ;
#321 = SURFACE_SIDE_STYLE ('',( #176 ) ) ;
#322 = SURFACE_SIDE_STYLE ('',( #258 ) ) ;
#323 = COLOUR_RGB ( '',1.000000000000000000, 0.000000000000000000, 0.000000000000000000 ) ;
#324 = SURFACE_STYLE_USAGE ( .BOTH. , #216 ) ;
#325 = EDGE_CURVE ( 'NONE', #362, #20, #274, .T. ) ;
#326 = SURFACE_STYLE_USAGE ( .BOTH. , #352 ) ;
#327 =( NAMED_UNIT ( * ) SI_UNIT ( $, .STERADIAN. ) SOLID_ANGLE_UNIT ( ) );
#328 = ADVANCED_FACE ( 'NONE', ( #311 ), #331, .F. ) ;
#329 =( NAMED_UNIT ( * ) SI_UNIT ( $, .STERADIAN. ) SOLID_ANGLE_UNIT ( ) );
#330 = AXIS2_PLACEMENT_3D ( 'NONE', #191, #71, #162 ) ;
#331 = PLANE ( 'NONE',  #205 ) ;
#332 = SURFACE_STYLE_FILL_AREA ( #77 ) ;
#333 = PRODUCT_RELATED_PRODUCT_CATEGORY ( 'part', '', ( #99 ) ) ;
#334 = AXIS2_PLACEMENT_3D ( 'NONE', #55, #233, #291 ) ;
#335 = DIRECTION ( 'NONE',  ( 1.208176680378093092E-16, -1.000000000000000000, 0.000000000000000000 ) ) ;
#336 = AXIS2_PLACEMENT_3D ( 'NONE', #338, #44, #16 ) ;
#337 = FACE_OUTER_BOUND ( 'NONE', #281, .T. ) ;
#338 = CARTESIAN_POINT ( 'NONE',  ( 0.000000000000000000, 2.500000000000000000, 0.000000000000000000 ) ) ;
#339 = ORIENTED_EDGE ( 'NONE', *, *, #78, .F. ) ;
#340 = DIRECTION ( 'NONE',  ( 0.000000000000000000, 0.000000000000000000, -1.000000000000000000 ) ) ;
#341 = VERTEX_POINT ( 'NONE', #158 ) ;
#342 = COLOUR_RGB ( '',1.000000000000000000, 0.000000000000000000, 0.000000000000000000 ) ;
#343 = FILL_AREA_STYLE_COLOUR ( '', #27 ) ;
#344 = ORIENTED_EDGE ( 'NONE', *, *, #209, .F. ) ;
#345 = DIMENSIONAL_EXPONENTS ( 1.000000000000000000, 0.000000000000000000, 0.000000000000000000, 0.000000000000000000, 0.000000000000000000, 0.000000000000000000, 0.000000000000000000 ) ;
#346 =( NAMED_UNIT ( * ) PLANE_ANGLE_UNIT ( ) SI_UNIT ( $, .RADIAN. ) );
#347 = EDGE_CURVE ( 'NONE', #341, #136, #358, .T. ) ;
#348 = MECHANICAL_DESIGN_GEOMETRIC_PRESENTATION_REPRESENTATION (  '', ( #12 ), #58 ) ;
#349 = PRESENTATION_LAYER_ASSIGNMENT (  '', '', ( #240 ) ) ;
#350 = FILL_AREA_STYLE ('',( #237 ) ) ;
#351 = DIMENSIONAL_EXPONENTS ( 1.000000000000000000, 0.000000000000000000, 0.000000000000000000, 0.000000000000000000, 0.000000000000000000, 0.000000000000000000, 0.000000000000000000 ) ;
#352 = SURFACE_SIDE_STYLE ('',( #355 ) ) ;
#353 = FILL_AREA_STYLE ('',( #9 ) ) ;
#354 = MECHANICAL_DESIGN_GEOMETRIC_PRESENTATION_REPRESENTATION (  '', ( #319 ), #151 ) ;
#355 = SURFACE_STYLE_FILL_AREA ( #353 ) ;
#356 = CARTESIAN_POINT ( 'NONE',  ( -3.061616997868383141E-16, 5.000000000000000000, 0.000000000000000000 ) ) ;
#357 = CIRCLE ( 'NONE', #167, 0.2500000000000000000 ) ;
#358 = CIRCLE ( 'NONE', #330, 0.2500000000000000000 ) ;
#359 =( NAMED_UNIT ( * ) SI_UNIT ( $, .STERADIAN. ) SOLID_ANGLE_UNIT ( ) );
#360 = CARTESIAN_POINT ( 'NONE',  ( 0.000000000000000000, 2.500000000000000000, 0.000000000000000000 ) ) ;
#361 = CARTESIAN_POINT ( 'NONE',  ( 3.061616997868381785E-17, 0.000000000000000000, 0.2499999999999998612 ) ) ;
#362 = VERTEX_POINT ( 'NONE', #70 ) ;
#363 = DIRECTION ( 'NONE',  ( -1.208176680378093092E-16, 1.000000000000000000, -0.000000000000000000 ) ) ;
#364 = ORIENTED_EDGE ( 'NONE', *, *, #370, .T. ) ;
#365 = PRESENTATION_LAYER_ASSIGNMENT (  '', '', ( #150 ) ) ;
#366 = AXIS2_PLACEMENT_3D ( 'NONE', #23, #316, #171 ) ;
#367 = LINE ( 'NONE', #277, #197 ) ;
#368 =( CONVERSION_BASED_UNIT ( 'INCH', #196 ) LENGTH_UNIT ( ) NAMED_UNIT ( #65 ) );
#369 = ORIENTED_EDGE ( 'NONE', *, *, #78, .T. ) ;
#370 = EDGE_CURVE ( 'NONE', #74, #341, #367, .T. ) ;
#371 = ORIENTED_EDGE ( 'NONE', *, *, #110, .F. ) ;
#372 = AXIS2_PLACEMENT_3D ( 'NONE', #144, #83, #200 ) ;
#373 = DIRECTION ( 'NONE',  ( -0.000000000000000000, -1.000000000000000000, -0.000000000000000000 ) ) ;
ENDSEC;
END-ISO-10303-21;
