ISO-10303-21;
HEADER;
FILE_DESCRIPTION (( 'STEP AP214' ),
    '1' );
FILE_NAME ('83182.STEP',
    '2023-06-23T07:47:52',
    ( '' ),
    ( '' ),
    'SwSTEP 2.0',
    'SolidWorks 2023',
    '' );
FILE_SCHEMA (( 'AUTOMOTIVE_DESIGN' ));
ENDSEC;

DATA;
#1 = CARTESIAN_POINT ( 'NONE',  ( 0.000000000000000000, 1.750000000000000000, 0.000000000000000000 ) ) ;
#2 = ORIENTED_EDGE ( 'NONE', *, *, #227, .T. ) ;
#3 = CLOSED_SHELL ( 'NONE', ( #288, #129, #32, #192 ) ) ;
#4 = COLOUR_RGB ( '',0.7921568627450980005, 0.8196078431372548767, 0.9333333333333333481 ) ;
#5 = DIRECTION ( 'NONE',  ( -1.000000000000000000, 0.000000000000000000, 0.000000000000000000 ) ) ;
#6 = ORIENTED_EDGE ( 'NONE', *, *, #255, .T. ) ;
#7 = ORIENTED_EDGE ( 'NONE', *, *, #167, .T. ) ;
#8 = DIRECTION ( 'NONE',  ( -0.000000000000000000, -1.000000000000000000, -0.000000000000000000 ) ) ;
#9 = PRESENTATION_STYLE_ASSIGNMENT (( #273 ) ) ;
#10 = VERTEX_POINT ( 'NONE', #177 ) ;
#11 = MECHANICAL_DESIGN_GEOMETRIC_PRESENTATION_REPRESENTATION (  '', ( #278 ), #264 ) ;
#12 = DIMENSIONAL_EXPONENTS ( 1.000000000000000000, 0.000000000000000000, 0.000000000000000000, 0.000000000000000000, 0.000000000000000000, 0.000000000000000000, 0.000000000000000000 ) ;
#13 = FILL_AREA_STYLE_COLOUR ( '', #257 ) ;
#14 = FILL_AREA_STYLE ('',( #299 ) ) ;
#15 = FILL_AREA_STYLE_COLOUR ( '', #173 ) ;
#16 = EDGE_CURVE ( 'NONE', #188, #114, #151, .T. ) ;
#17 =( GEOMETRIC_REPRESENTATION_CONTEXT ( 3 ) GLOBAL_UNCERTAINTY_ASSIGNED_CONTEXT ( ( #175 ) ) GLOBAL_UNIT_ASSIGNED_CONTEXT ( ( #172, #140, #51 ) ) REPRESENTATION_CONTEXT ( 'NONE', 'WORKASPACE' ) );
#18 = FILL_AREA_STYLE ('',( #72 ) ) ;
#19 = PLANE ( 'NONE',  #110 ) ;
#20 = CARTESIAN_POINT ( 'NONE',  ( -3.032960542342103792E-32, 1.750000000000000000, 0.000000000000000000 ) ) ;
#21 = FILL_AREA_STYLE ('',( #13 ) ) ;
#22 = VECTOR ( 'NONE', #153, 39.37007874015748143 ) ;
#23 = EDGE_CURVE ( 'NONE', #114, #74, #302, .T. ) ;
#24 = VERTEX_POINT ( 'NONE', #218 ) ;
#25 = LENGTH_MEASURE_WITH_UNIT ( LENGTH_MEASURE( 0.02539999999999999897 ), #169 );
#26 = CARTESIAN_POINT ( 'NONE',  ( -3.032960542342103792E-32, 1.750000000000000000, 0.000000000000000000 ) ) ;
#27 = ORIENTED_EDGE ( 'NONE', *, *, #245, .F. ) ;
#28 = DIRECTION ( 'NONE',  ( -1.088574932575425511E-16, -1.000000000000000000, 0.000000000000000000 ) ) ;
#29 = AXIS2_PLACEMENT_3D ( 'NONE', #159, #162, #105 ) ;
#30 = AXIS2_PLACEMENT_3D ( 'NONE', #178, #269, #202 ) ;
#31 = CARTESIAN_POINT ( 'NONE',  ( -0.1249999999999994865, 4.000000000000000000, 0.000000000000000000 ) ) ;
#32 = ADVANCED_FACE ( 'NONE', ( #118 ), #155, .T. ) ;
#33 =( NAMED_UNIT ( * ) PLANE_ANGLE_UNIT ( ) SI_UNIT ( $, .RADIAN. ) );
#34 = DIRECTION ( 'NONE',  ( -1.000000000000000000, 0.000000000000000000, 0.000000000000000000 ) ) ;
#35 = PRESENTATION_LAYER_ASSIGNMENT (  '', '', ( #68 ) ) ;
#36 = FILL_AREA_STYLE ('',( #15 ) ) ;
#37 = SURFACE_STYLE_FILL_AREA ( #18 ) ;
#38 = CARTESIAN_POINT ( 'NONE',  ( 2.449293598294706907E-16, 4.000000000000000000, 0.000000000000000000 ) ) ;
#39 = CYLINDRICAL_SURFACE ( 'NONE', #156, 0.1249999999999998612 ) ;
#40 = DIRECTION ( 'NONE',  ( -0.000000000000000000, -1.000000000000000000, -0.000000000000000000 ) ) ;
#41 = LENGTH_MEASURE_WITH_UNIT ( LENGTH_MEASURE( 0.02539999999999999897 ), #242 );
#42 = SURFACE_STYLE_USAGE ( .BOTH. , #139 ) ;
#43 = SURFACE_STYLE_FILL_AREA ( #277 ) ;
#44 = DIMENSIONAL_EXPONENTS ( 1.000000000000000000, 0.000000000000000000, 0.000000000000000000, 0.000000000000000000, 0.000000000000000000, 0.000000000000000000, 0.000000000000000000 ) ;
#45 = PRODUCT_CONTEXT ( 'NONE', #238, 'mechanical' ) ;
#46 = MECHANICAL_DESIGN_GEOMETRIC_PRESENTATION_REPRESENTATION (  '', ( #54 ), #295 ) ;
#47 = SURFACE_STYLE_USAGE ( .BOTH. , #211 ) ;
#48 = EDGE_LOOP ( 'NONE', ( #306, #7 ) ) ;
#49 =( CONVERSION_BASED_UNIT ( 'INCH', #290 ) LENGTH_UNIT ( ) NAMED_UNIT ( #133 ) );
#50 = MECHANICAL_DESIGN_GEOMETRIC_PRESENTATION_REPRESENTATION (  '', ( #292 ), #134 ) ;
#51 =( NAMED_UNIT ( * ) SI_UNIT ( $, .STERADIAN. ) SOLID_ANGLE_UNIT ( ) );
#52 =( NAMED_UNIT ( * ) SI_UNIT ( $, .STERADIAN. ) SOLID_ANGLE_UNIT ( ) );
#53 = VERTEX_POINT ( 'NONE', #143 ) ;
#54 = STYLED_ITEM ( 'NONE', ( #9 ), #129 ) ;
#55 = LINE ( 'NONE', #127, #22 ) ;
#56 = AXIS2_PLACEMENT_3D ( 'NONE', #171, #263, #239 ) ;
#57 = EDGE_CURVE ( 'NONE', #188, #10, #180, .T. ) ;
#58 = DIRECTION ( 'NONE',  ( 1.088574932575425388E-16, 1.000000000000000000, -0.000000000000000000 ) ) ;
#59 = DIRECTION ( 'NONE',  ( -0.000000000000000000, -1.000000000000000000, -0.000000000000000000 ) ) ;
#60 = ORIENTED_EDGE ( 'NONE', *, *, #212, .T. ) ;
#61 = ADVANCED_FACE ( 'NONE', ( #199 ), #19, .F. ) ;
#62 = VERTEX_POINT ( 'NONE', #131 ) ;
#63 = AXIS2_PLACEMENT_3D ( 'NONE', #251, #40, #232 ) ;
#64 = EDGE_LOOP ( 'NONE', ( #229, #241 ) ) ;
#65 = LENGTH_MEASURE_WITH_UNIT ( LENGTH_MEASURE( 0.02539999999999999897 ), #152 );
#66 = EDGE_LOOP ( 'NONE', ( #166, #6, #117, #124 ) ) ;
#67 = PRESENTATION_STYLE_ASSIGNMENT (( #287 ) ) ;
#68 = STYLED_ITEM ( 'NONE', ( #185 ), #32 ) ;
#69 = ORIENTED_EDGE ( 'NONE', *, *, #85, .T. ) ;
#70 = MECHANICAL_DESIGN_GEOMETRIC_PRESENTATION_REPRESENTATION (  '', ( #76 ), #209 ) ;
#71 = EDGE_CURVE ( 'NONE', #10, #74, #219, .T. ) ;
#72 = FILL_AREA_STYLE_COLOUR ( '', #4 ) ;
#73 = CARTESIAN_POINT ( 'NONE',  ( 1.530808498934191509E-17, 1.750000000000000000, 0.1250000000000000000 ) ) ;
#74 = VERTEX_POINT ( 'NONE', #94 ) ;
#75 = PRESENTATION_LAYER_ASSIGNMENT (  '', '', ( #278 ) ) ;
#76 = STYLED_ITEM ( 'NONE', ( #67 ), #272 ) ;
#77 = UNCERTAINTY_MEASURE_WITH_UNIT (LENGTH_MEASURE( 1.000000000000000082E-05 ), #142, 'distance_accuracy_value', 'NONE');
#78 =( NAMED_UNIT ( * ) SI_UNIT ( $, .STERADIAN. ) SOLID_ANGLE_UNIT ( ) );
#79 =( NAMED_UNIT ( * ) SI_UNIT ( $, .STERADIAN. ) SOLID_ANGLE_UNIT ( ) );
#80 = DIRECTION ( 'NONE',  ( -0.000000000000000000, -1.000000000000000000, -0.000000000000000000 ) ) ;
#81 = CYLINDRICAL_SURFACE ( 'NONE', #308, 0.1250000000000000000 ) ;
#82 = COLOUR_RGB ( '',1.000000000000000000, 0.000000000000000000, 0.000000000000000000 ) ;
#83 = SURFACE_SIDE_STYLE ('',( #101 ) ) ;
#84 = CARTESIAN_POINT ( 'NONE',  ( 7.406221148947449697E-34, 1.750000000000000000, 0.000000000000000000 ) ) ;
#85 = EDGE_CURVE ( 'NONE', #91, #53, #291, .T. ) ;
#86 = FILL_AREA_STYLE_COLOUR ( '', #214 ) ;
#87 = AXIS2_PLACEMENT_3D ( 'NONE', #20, #285, #222 ) ;
#88 = PLANE ( 'NONE',  #111 ) ;
#89 = LENGTH_MEASURE_WITH_UNIT ( LENGTH_MEASURE( 0.02539999999999999897 ), #181 );
#90 = ORIENTED_EDGE ( 'NONE', *, *, #23, .F. ) ;
#91 = VERTEX_POINT ( 'NONE', #73 ) ;
#92 = PRESENTATION_LAYER_ASSIGNMENT (  '', '', ( #54 ) ) ;
#93 = COLOUR_RGB ( '',1.000000000000000000, 0.000000000000000000, 0.000000000000000000 ) ;
#94 = CARTESIAN_POINT ( 'NONE',  ( 0.1249999999999999584, 4.000000000000000000, 1.530808498934190585E-17 ) ) ;
#95 = FACE_OUTER_BOUND ( 'NONE', #66, .T. ) ;
#96 = CIRCLE ( 'NONE', #63, 0.1250000000000000000 ) ;
#97 = ADVANCED_FACE ( 'NONE', ( #95 ), #39, .T. ) ;
#98 =( CONVERSION_BASED_UNIT ( 'INCH', #65 ) LENGTH_UNIT ( ) NAMED_UNIT ( #12 ) );
#99 = CARTESIAN_POINT ( 'NONE',  ( -0.1249999999999996253, 4.000000000000000000, 0.000000000000000000 ) ) ;
#100 = CARTESIAN_POINT ( 'NONE',  ( 2.449293598294706907E-16, 4.000000000000000000, 0.000000000000000000 ) ) ;
#101 = SURFACE_STYLE_FILL_AREA ( #14 ) ;
#102 = SURFACE_SIDE_STYLE ('',( #37 ) ) ;
#103 =( CONVERSION_BASED_UNIT ( 'INCH', #89 ) LENGTH_UNIT ( ) NAMED_UNIT ( #298 ) );
#104 = CARTESIAN_POINT ( 'NONE',  ( 0.000000000000000000, 0.000000000000000000, 0.000000000000000000 ) ) ;
#105 = DIRECTION ( 'NONE',  ( 0.000000000000000000, -0.000000000000000000, 1.000000000000000000 ) ) ;
#106 = SURFACE_STYLE_FILL_AREA ( #194 ) ;
#107 = UNCERTAINTY_MEASURE_WITH_UNIT (LENGTH_MEASURE( 1.000000000000000082E-05 ), #160, 'distance_accuracy_value', 'NONE');
#108 = APPLICATION_PROTOCOL_DEFINITION ( 'draft international standard', 'automotive_design', 1998, #281 ) ;
#109 = FACE_OUTER_BOUND ( 'NONE', #234, .T. ) ;
#110 = AXIS2_PLACEMENT_3D ( 'NONE', #84, #256, #200 ) ;
#111 = AXIS2_PLACEMENT_3D ( 'NONE', #163, #28, #225 ) ;
#112 = ADVANCED_FACE ( 'NONE', ( #294 ), #249, .T. ) ;
#113 = ORIENTED_EDGE ( 'NONE', *, *, #293, .F. ) ;
#114 = VERTEX_POINT ( 'NONE', #31 ) ;
#115 = MECHANICAL_DESIGN_GEOMETRIC_PRESENTATION_REPRESENTATION (  '', ( #68 ), #17 ) ;
#116 = CIRCLE ( 'NONE', #87, 0.1250000000000000000 ) ;
#117 = ORIENTED_EDGE ( 'NONE', *, *, #16, .T. ) ;
#118 = FACE_OUTER_BOUND ( 'NONE', #259, .T. ) ;
#119 = ORIENTED_EDGE ( 'NONE', *, *, #227, .F. ) ;
#120 = DIRECTION ( 'NONE',  ( 1.088574932575425388E-16, 1.000000000000000000, -0.000000000000000000 ) ) ;
#121 = DIRECTION ( 'NONE',  ( -0.000000000000000000, -1.000000000000000000, -0.000000000000000000 ) ) ;
#122 =( NAMED_UNIT ( * ) SI_UNIT ( $, .STERADIAN. ) SOLID_ANGLE_UNIT ( ) );
#123 = CARTESIAN_POINT ( 'NONE',  ( 2.449293598294706907E-16, 4.000000000000000000, 0.000000000000000000 ) ) ;
#124 = ORIENTED_EDGE ( 'NONE', *, *, #212, .F. ) ;
#125 = DIMENSIONAL_EXPONENTS ( 1.000000000000000000, 0.000000000000000000, 0.000000000000000000, 0.000000000000000000, 0.000000000000000000, 0.000000000000000000, 0.000000000000000000 ) ;
#126 = CLOSED_SHELL ( 'NONE', ( #112, #61, #97, #283 ) ) ;
#127 = CARTESIAN_POINT ( 'NONE',  ( 0.000000000000000000, 0.000000000000000000, -0.1250000000000000000 ) ) ;
#128 = VECTOR ( 'NONE', #59, 39.37007874015748143 ) ;
#129 = ADVANCED_FACE ( 'NONE', ( #204 ), #130, .T. ) ;
#130 = PLANE ( 'NONE',  #29 ) ;
#131 = CARTESIAN_POINT ( 'NONE',  ( 1.530808498934191509E-17, 0.000000000000000000, 0.1250000000000000000 ) ) ;
#132 = ORIENTED_EDGE ( 'NONE', *, *, #57, .T. ) ;
#133 = DIMENSIONAL_EXPONENTS ( 1.000000000000000000, 0.000000000000000000, 0.000000000000000000, 0.000000000000000000, 0.000000000000000000, 0.000000000000000000, 0.000000000000000000 ) ;
#134 =( GEOMETRIC_REPRESENTATION_CONTEXT ( 3 ) GLOBAL_UNCERTAINTY_ASSIGNED_CONTEXT ( ( #77 ) ) GLOBAL_UNIT_ASSIGNED_CONTEXT ( ( #142, #33, #122 ) ) REPRESENTATION_CONTEXT ( 'NONE', 'WORKASPACE' ) );
#135 = SURFACE_SIDE_STYLE ('',( #43 ) ) ;
#136 = DIRECTION ( 'NONE',  ( 0.000000000000000000, 0.000000000000000000, 1.000000000000000000 ) ) ;
#137 = MECHANICAL_DESIGN_GEOMETRIC_PRESENTATION_REPRESENTATION (  '', ( #279 ), #226 ) ;
#138 = FACE_OUTER_BOUND ( 'NONE', #48, .T. ) ;
#139 = SURFACE_SIDE_STYLE ('',( #158 ) ) ;
#140 =( NAMED_UNIT ( * ) PLANE_ANGLE_UNIT ( ) SI_UNIT ( $, .RADIAN. ) );
#141 = LENGTH_MEASURE_WITH_UNIT ( LENGTH_MEASURE( 0.02539999999999999897 ), #309 );
#142 =( CONVERSION_BASED_UNIT ( 'INCH', #25 ) LENGTH_UNIT ( ) NAMED_UNIT ( #179 ) );
#143 = CARTESIAN_POINT ( 'NONE',  ( 0.000000000000000000, 1.750000000000000000, -0.1250000000000000000 ) ) ;
#144 = VECTOR ( 'NONE', #262, 39.37007874015748143 ) ;
#145 = CIRCLE ( 'NONE', #215, 0.1249999999999997224 ) ;
#146 = EDGE_LOOP ( 'NONE', ( #267, #193, #113, #119 ) ) ;
#147 = EDGE_LOOP ( 'NONE', ( #237, #174 ) ) ;
#148 = PRESENTATION_LAYER_ASSIGNMENT (  '', '', ( #76 ) ) ;
#149 = EDGE_LOOP ( 'NONE', ( #132, #224, #90, #213 ) ) ;
#150 = DIRECTION ( 'NONE',  ( 1.088574932575425388E-16, 1.000000000000000000, -0.000000000000000000 ) ) ;
#151 = LINE ( 'NONE', #99, #252 ) ;
#152 =( LENGTH_UNIT ( ) NAMED_UNIT ( * ) SI_UNIT ( $, .METRE. ) );
#153 = DIRECTION ( 'NONE',  ( -0.000000000000000000, -1.000000000000000000, -0.000000000000000000 ) ) ;
#154 = DIRECTION ( 'NONE',  ( -1.000000000000000000, 0.000000000000000000, 0.000000000000000000 ) ) ;
#155 = CYLINDRICAL_SURFACE ( 'NONE', #230, 0.1250000000000000000 ) ;
#156 = AXIS2_PLACEMENT_3D ( 'NONE', #123, #58, #154 ) ;
#157 = UNCERTAINTY_MEASURE_WITH_UNIT (LENGTH_MEASURE( 1.000000000000000082E-05 ), #284, 'distance_accuracy_value', 'NONE');
#158 = SURFACE_STYLE_FILL_AREA ( #36 ) ;
#159 = CARTESIAN_POINT ( 'NONE',  ( 0.000000000000000000, 1.750000000000000000, 0.000000000000000000 ) ) ;
#160 =( CONVERSION_BASED_UNIT ( 'INCH', #41 ) LENGTH_UNIT ( ) NAMED_UNIT ( #183 ) );
#161 =( NAMED_UNIT ( * ) SI_UNIT ( $, .STERADIAN. ) SOLID_ANGLE_UNIT ( ) );
#162 = DIRECTION ( 'NONE',  ( 0.000000000000000000, 1.000000000000000000, 0.000000000000000000 ) ) ;
#163 = CARTESIAN_POINT ( 'NONE',  ( 0.1249999999999999584, 4.000000000000000000, 0.000000000000000000 ) ) ;
#164 = PRODUCT_DEFINITION_SHAPE ( 'NONE', 'NONE',  #297 ) ;
#165 = AXIS2_PLACEMENT_3D ( 'NONE', #253, #187, #210 ) ;
#166 = ORIENTED_EDGE ( 'NONE', *, *, #71, .F. ) ;
#167 = EDGE_CURVE ( 'NONE', #62, #24, #96, .T. ) ;
#168 = SURFACE_SIDE_STYLE ('',( #307 ) ) ;
#169 =( LENGTH_UNIT ( ) NAMED_UNIT ( * ) SI_UNIT ( $, .METRE. ) );
#170 =( NAMED_UNIT ( * ) PLANE_ANGLE_UNIT ( ) SI_UNIT ( $, .RADIAN. ) );
#171 = CARTESIAN_POINT ( 'NONE',  ( 2.449293598294706907E-16, 4.000000000000000000, 0.000000000000000000 ) ) ;
#172 =( CONVERSION_BASED_UNIT ( 'INCH', #207 ) LENGTH_UNIT ( ) NAMED_UNIT ( #44 ) );
#173 = COLOUR_RGB ( '',1.000000000000000000, 0.000000000000000000, 0.000000000000000000 ) ;
#174 = ORIENTED_EDGE ( 'NONE', *, *, #85, .F. ) ;
#175 = UNCERTAINTY_MEASURE_WITH_UNIT (LENGTH_MEASURE( 1.000000000000000082E-05 ), #172, 'distance_accuracy_value', 'NONE');
#176 = CIRCLE ( 'NONE', #165, 0.1250000000000000000 ) ;
#177 = CARTESIAN_POINT ( 'NONE',  ( 0.1249999999999999861, 1.750000000000000000, 1.530808498934190585E-17 ) ) ;
#178 = CARTESIAN_POINT ( 'NONE',  ( 0.000000000000000000, 0.000000000000000000, 0.000000000000000000 ) ) ;
#179 = DIMENSIONAL_EXPONENTS ( 1.000000000000000000, 0.000000000000000000, 0.000000000000000000, 0.000000000000000000, 0.000000000000000000, 0.000000000000000000, 0.000000000000000000 ) ;
#180 = CIRCLE ( 'NONE', #205, 0.1250000000000000000 ) ;
#181 =( LENGTH_UNIT ( ) NAMED_UNIT ( * ) SI_UNIT ( $, .METRE. ) );
#182 = DIRECTION ( 'NONE',  ( 0.000000000000000000, 0.000000000000000000, -1.000000000000000000 ) ) ;
#183 = DIMENSIONAL_EXPONENTS ( 1.000000000000000000, 0.000000000000000000, 0.000000000000000000, 0.000000000000000000, 0.000000000000000000, 0.000000000000000000, 0.000000000000000000 ) ;
#184 = AXIS2_PLACEMENT_3D ( 'NONE', #104, #136, #282 ) ;
#185 = PRESENTATION_STYLE_ASSIGNMENT (( #42 ) ) ;
#186 = PRESENTATION_STYLE_ASSIGNMENT (( #208 ) ) ;
#187 = DIRECTION ( 'NONE',  ( -0.000000000000000000, -1.000000000000000000, -0.000000000000000000 ) ) ;
#188 = VERTEX_POINT ( 'NONE', #301 ) ;
#189 = ORIENTED_EDGE ( 'NONE', *, *, #167, .F. ) ;
#190 = AXIS2_PLACEMENT_3D ( 'NONE', #1, #121, #198 ) ;
#191 = PRESENTATION_LAYER_ASSIGNMENT (  '', '', ( #279 ) ) ;
#192 = ADVANCED_FACE ( 'NONE', ( #138 ), #258, .T. ) ;
#193 = ORIENTED_EDGE ( 'NONE', *, *, #245, .T. ) ;
#194 = FILL_AREA_STYLE ('',( #220 ) ) ;
#195 =( GEOMETRIC_REPRESENTATION_CONTEXT ( 3 ) GLOBAL_UNCERTAINTY_ASSIGNED_CONTEXT ( ( #217 ) ) GLOBAL_UNIT_ASSIGNED_CONTEXT ( ( #98, #203, #78 ) ) REPRESENTATION_CONTEXT ( 'NONE', 'WORKASPACE' ) );
#196 = CARTESIAN_POINT ( 'NONE',  ( 0.1250000000000001110, 4.000000000000000000, 1.530808498934189660E-17 ) ) ;
#197 = FACE_OUTER_BOUND ( 'NONE', #146, .T. ) ;
#198 = DIRECTION ( 'NONE',  ( 0.000000000000000000, 0.000000000000000000, -1.000000000000000000 ) ) ;
#199 = FACE_OUTER_BOUND ( 'NONE', #64, .T. ) ;
#200 = DIRECTION ( 'NONE',  ( -1.000000000000000000, 1.088574932575425511E-16, 0.000000000000000000 ) ) ;
#201 = UNCERTAINTY_MEASURE_WITH_UNIT (LENGTH_MEASURE( 1.000000000000000082E-05 ), #103, 'distance_accuracy_value', 'NONE');
#202 = DIRECTION ( 'NONE',  ( 0.000000000000000000, 0.000000000000000000, -1.000000000000000000 ) ) ;
#203 =( NAMED_UNIT ( * ) PLANE_ANGLE_UNIT ( ) SI_UNIT ( $, .RADIAN. ) );
#204 = FACE_OUTER_BOUND ( 'NONE', #147, .T. ) ;
#205 = AXIS2_PLACEMENT_3D ( 'NONE', #26, #120, #5 ) ;
#206 = APPLICATION_PROTOCOL_DEFINITION ( 'draft international standard', 'automotive_design', 1998, #238 ) ;
#207 = LENGTH_MEASURE_WITH_UNIT ( LENGTH_MEASURE( 0.02539999999999999897 ), #286 );
#208 = SURFACE_STYLE_USAGE ( .BOTH. , #135 ) ;
#209 =( GEOMETRIC_REPRESENTATION_CONTEXT ( 3 ) GLOBAL_UNCERTAINTY_ASSIGNED_CONTEXT ( ( #157 ) ) GLOBAL_UNIT_ASSIGNED_CONTEXT ( ( #284, #170, #161 ) ) REPRESENTATION_CONTEXT ( 'NONE', 'WORKASPACE' ) );
#210 = DIRECTION ( 'NONE',  ( 0.000000000000000000, 0.000000000000000000, -1.000000000000000000 ) ) ;
#211 = SURFACE_SIDE_STYLE ('',( #106 ) ) ;
#212 = EDGE_CURVE ( 'NONE', #74, #114, #145, .T. ) ;
#213 = ORIENTED_EDGE ( 'NONE', *, *, #16, .F. ) ;
#214 = COLOUR_RGB ( '',1.000000000000000000, 0.000000000000000000, 0.000000000000000000 ) ;
#215 = AXIS2_PLACEMENT_3D ( 'NONE', #100, #296, #34 ) ;
#216 =( NAMED_UNIT ( * ) PLANE_ANGLE_UNIT ( ) SI_UNIT ( $, .RADIAN. ) );
#217 = UNCERTAINTY_MEASURE_WITH_UNIT (LENGTH_MEASURE( 1.000000000000000082E-05 ), #98, 'distance_accuracy_value', 'NONE');
#218 = CARTESIAN_POINT ( 'NONE',  ( 0.000000000000000000, 0.000000000000000000, -0.1250000000000000000 ) ) ;
#219 = LINE ( 'NONE', #196, #144 ) ;
#220 = FILL_AREA_STYLE_COLOUR ( '', #93 ) ;
#221 = PRODUCT_DEFINITION_CONTEXT ( 'detailed design', #281, 'design' ) ;
#222 = DIRECTION ( 'NONE',  ( -1.000000000000000000, 0.000000000000000000, 0.000000000000000000 ) ) ;
#223 = DIRECTION ( 'NONE',  ( -1.000000000000000000, 0.000000000000000000, 0.000000000000000000 ) ) ;
#224 = ORIENTED_EDGE ( 'NONE', *, *, #71, .T. ) ;
#225 = DIRECTION ( 'NONE',  ( 1.000000000000000000, -1.088574932575425511E-16, 0.000000000000000000 ) ) ;
#226 =( GEOMETRIC_REPRESENTATION_CONTEXT ( 3 ) GLOBAL_UNCERTAINTY_ASSIGNED_CONTEXT ( ( #107 ) ) GLOBAL_UNIT_ASSIGNED_CONTEXT ( ( #160, #270, #79 ) ) REPRESENTATION_CONTEXT ( 'NONE', 'WORKASPACE' ) );
#227 = EDGE_CURVE ( 'NONE', #53, #24, #55, .T. ) ;
#228 = PRESENTATION_STYLE_ASSIGNMENT (( #265 ) ) ;
#229 = ORIENTED_EDGE ( 'NONE', *, *, #57, .F. ) ;
#230 = AXIS2_PLACEMENT_3D ( 'NONE', #261, #240, #243 ) ;
#231 = CIRCLE ( 'NONE', #248, 0.1250000000000000000 ) ;
#232 = DIRECTION ( 'NONE',  ( 0.000000000000000000, 0.000000000000000000, -1.000000000000000000 ) ) ;
#233 = PRODUCT_RELATED_PRODUCT_CATEGORY ( 'part', '', ( #276 ) ) ;
#234 = EDGE_LOOP ( 'NONE', ( #244, #60 ) ) ;
#235 = AXIS2_PLACEMENT_3D ( 'NONE', #38, #150, #223 ) ;
#236 = PRODUCT_DEFINITION_FORMATION_WITH_SPECIFIED_SOURCE ( 'ANY', '', #276, .NOT_KNOWN. ) ;
#237 = ORIENTED_EDGE ( 'NONE', *, *, #271, .F. ) ;
#238 = APPLICATION_CONTEXT ( 'automotive_design' ) ;
#239 = DIRECTION ( 'NONE',  ( -1.000000000000000000, 0.000000000000000000, 0.000000000000000000 ) ) ;
#240 = DIRECTION ( 'NONE',  ( -0.000000000000000000, -1.000000000000000000, -0.000000000000000000 ) ) ;
#241 = ORIENTED_EDGE ( 'NONE', *, *, #255, .F. ) ;
#242 =( LENGTH_UNIT ( ) NAMED_UNIT ( * ) SI_UNIT ( $, .METRE. ) );
#243 = DIRECTION ( 'NONE',  ( 0.000000000000000000, 0.000000000000000000, -1.000000000000000000 ) ) ;
#244 = ORIENTED_EDGE ( 'NONE', *, *, #23, .T. ) ;
#245 = EDGE_CURVE ( 'NONE', #91, #62, #246, .T. ) ;
#246 = LINE ( 'NONE', #304, #128 ) ;
#247 = UNCERTAINTY_MEASURE_WITH_UNIT (LENGTH_MEASURE( 1.000000000000000082E-05 ), #49, 'distance_accuracy_value', 'NONE');
#248 = AXIS2_PLACEMENT_3D ( 'NONE', #274, #80, #280 ) ;
#249 = CYLINDRICAL_SURFACE ( 'NONE', #235, 0.1249999999999998612 ) ;
#250 = CARTESIAN_POINT ( 'NONE',  ( 0.000000000000000000, 0.000000000000000000, 0.000000000000000000 ) ) ;
#251 = CARTESIAN_POINT ( 'NONE',  ( 0.000000000000000000, 0.000000000000000000, 0.000000000000000000 ) ) ;
#252 = VECTOR ( 'NONE', #289, 39.37007874015748143 ) ;
#253 = CARTESIAN_POINT ( 'NONE',  ( 0.000000000000000000, 0.000000000000000000, 0.000000000000000000 ) ) ;
#254 =( NAMED_UNIT ( * ) SI_UNIT ( $, .STERADIAN. ) SOLID_ANGLE_UNIT ( ) );
#255 = EDGE_CURVE ( 'NONE', #10, #188, #116, .T. ) ;
#256 = DIRECTION ( 'NONE',  ( 1.088574932575425511E-16, 1.000000000000000000, -0.000000000000000000 ) ) ;
#257 = COLOUR_RGB ( '',0.7921568627450980005, 0.8196078431372548767, 0.9333333333333333481 ) ;
#258 = PLANE ( 'NONE',  #30 ) ;
#259 = EDGE_LOOP ( 'NONE', ( #27, #69, #2, #189 ) ) ;
#260 = PRESENTATION_STYLE_ASSIGNMENT (( #47 ) ) ;
#261 = CARTESIAN_POINT ( 'NONE',  ( 0.000000000000000000, 0.000000000000000000, 0.000000000000000000 ) ) ;
#262 = DIRECTION ( 'NONE',  ( 1.088574932575425511E-16, 1.000000000000000000, -0.000000000000000000 ) ) ;
#263 = DIRECTION ( 'NONE',  ( 1.088574932575425388E-16, 1.000000000000000000, -0.000000000000000000 ) ) ;
#264 =( GEOMETRIC_REPRESENTATION_CONTEXT ( 3 ) GLOBAL_UNCERTAINTY_ASSIGNED_CONTEXT ( ( #247 ) ) GLOBAL_UNIT_ASSIGNED_CONTEXT ( ( #49, #216, #52 ) ) REPRESENTATION_CONTEXT ( 'NONE', 'WORKASPACE' ) );
#265 = SURFACE_STYLE_USAGE ( .BOTH. , #102 ) ;
#266 = MANIFOLD_SOLID_BREP ( 'Revolve - Cutting Edge', #3 ) ;
#267 = ORIENTED_EDGE ( 'NONE', *, *, #271, .T. ) ;
#268 = ADVANCED_BREP_SHAPE_REPRESENTATION ( '83182', ( #266, #272, #184 ), #195 ) ;
#269 = DIRECTION ( 'NONE',  ( 0.000000000000000000, -1.000000000000000000, -0.000000000000000000 ) ) ;
#270 =( NAMED_UNIT ( * ) PLANE_ANGLE_UNIT ( ) SI_UNIT ( $, .RADIAN. ) );
#271 = EDGE_CURVE ( 'NONE', #53, #91, #231, .T. ) ;
#272 = MANIFOLD_SOLID_BREP ( 'Revolve - Tool Body (Straight Shanked)', #126 ) ;
#273 = SURFACE_STYLE_USAGE ( .BOTH. , #83 ) ;
#274 = CARTESIAN_POINT ( 'NONE',  ( 0.000000000000000000, 1.750000000000000000, 0.000000000000000000 ) ) ;
#275 =( NAMED_UNIT ( * ) PLANE_ANGLE_UNIT ( ) SI_UNIT ( $, .RADIAN. ) );
#276 = PRODUCT ( '83182', '83182', '', ( #45 ) ) ;
#277 = FILL_AREA_STYLE ('',( #86 ) ) ;
#278 = STYLED_ITEM ( 'NONE', ( #186 ), #192 ) ;
#279 = STYLED_ITEM ( 'NONE', ( #228 ), #266 ) ;
#280 = DIRECTION ( 'NONE',  ( 0.000000000000000000, 0.000000000000000000, -1.000000000000000000 ) ) ;
#281 = APPLICATION_CONTEXT ( 'automotive_design' ) ;
#282 = DIRECTION ( 'NONE',  ( 1.000000000000000000, 0.000000000000000000, 0.000000000000000000 ) ) ;
#283 = ADVANCED_FACE ( 'NONE', ( #109 ), #88, .F. ) ;
#284 =( CONVERSION_BASED_UNIT ( 'INCH', #141 ) LENGTH_UNIT ( ) NAMED_UNIT ( #125 ) );
#285 = DIRECTION ( 'NONE',  ( 1.088574932575425388E-16, 1.000000000000000000, -0.000000000000000000 ) ) ;
#286 =( LENGTH_UNIT ( ) NAMED_UNIT ( * ) SI_UNIT ( $, .METRE. ) );
#287 = SURFACE_STYLE_USAGE ( .BOTH. , #168 ) ;
#288 = ADVANCED_FACE ( 'NONE', ( #197 ), #81, .T. ) ;
#289 = DIRECTION ( 'NONE',  ( 1.088574932575425511E-16, 1.000000000000000000, -0.000000000000000000 ) ) ;
#290 = LENGTH_MEASURE_WITH_UNIT ( LENGTH_MEASURE( 0.02539999999999999897 ), #305 );
#291 = CIRCLE ( 'NONE', #190, 0.1250000000000000000 ) ;
#292 = STYLED_ITEM ( 'NONE', ( #260 ), #288 ) ;
#293 = EDGE_CURVE ( 'NONE', #24, #62, #176, .T. ) ;
#294 = FACE_OUTER_BOUND ( 'NONE', #149, .T. ) ;
#295 =( GEOMETRIC_REPRESENTATION_CONTEXT ( 3 ) GLOBAL_UNCERTAINTY_ASSIGNED_CONTEXT ( ( #201 ) ) GLOBAL_UNIT_ASSIGNED_CONTEXT ( ( #103, #275, #254 ) ) REPRESENTATION_CONTEXT ( 'NONE', 'WORKASPACE' ) );
#296 = DIRECTION ( 'NONE',  ( 1.088574932575425388E-16, 1.000000000000000000, -0.000000000000000000 ) ) ;
#297 = PRODUCT_DEFINITION ( 'UNKNOWN', '', #236, #221 ) ;
#298 = DIMENSIONAL_EXPONENTS ( 1.000000000000000000, 0.000000000000000000, 0.000000000000000000, 0.000000000000000000, 0.000000000000000000, 0.000000000000000000, 0.000000000000000000 ) ;
#299 = FILL_AREA_STYLE_COLOUR ( '', #82 ) ;
#300 = SHAPE_DEFINITION_REPRESENTATION ( #164, #268 ) ;
#301 = CARTESIAN_POINT ( 'NONE',  ( -0.1250000000000000000, 1.750000000000000000, 0.000000000000000000 ) ) ;
#302 = CIRCLE ( 'NONE', #56, 0.1249999999999997224 ) ;
#303 = PRESENTATION_LAYER_ASSIGNMENT (  '', '', ( #292 ) ) ;
#304 = CARTESIAN_POINT ( 'NONE',  ( 1.530808498934191509E-17, 0.000000000000000000, 0.1250000000000000000 ) ) ;
#305 =( LENGTH_UNIT ( ) NAMED_UNIT ( * ) SI_UNIT ( $, .METRE. ) );
#306 = ORIENTED_EDGE ( 'NONE', *, *, #293, .T. ) ;
#307 = SURFACE_STYLE_FILL_AREA ( #21 ) ;
#308 = AXIS2_PLACEMENT_3D ( 'NONE', #250, #8, #182 ) ;
#309 =( LENGTH_UNIT ( ) NAMED_UNIT ( * ) SI_UNIT ( $, .METRE. ) );
ENDSEC;
END-ISO-10303-21;
