ISO-10303-21;
HEADER;
FILE_DESCRIPTION (( 'STEP AP214' ),
    '1' );
FILE_NAME ('03092.STEP',
    '2023-06-22T14:55:05',
    ( '' ),
    ( '' ),
    'SwSTEP 2.0',
    'SolidWorks 2023',
    '' );
FILE_SCHEMA (( 'AUTOMOTIVE_DESIGN' ));
ENDSEC;

DATA;
#1 = DIRECTION ( 'NONE',  ( 3.628583108584750472E-17, 1.000000000000000000, -0.000000000000000000 ) ) ;
#2 = SURFACE_STYLE_USAGE ( .BOTH. , #126 ) ;
#3 =( NAMED_UNIT ( * ) PLANE_ANGLE_UNIT ( ) SI_UNIT ( $, .RADIAN. ) );
#4 =( NAMED_UNIT ( * ) SI_UNIT ( $, .STERADIAN. ) SOLID_ANGLE_UNIT ( ) );
#5 = CARTESIAN_POINT ( 'NONE',  ( 0.000000000000000000, 0.3125000000000000000, 0.000000000000000000 ) ) ;
#6 = FILL_AREA_STYLE ('',( #66 ) ) ;
#7 = DIRECTION ( 'NONE',  ( 0.000000000000000000, 0.000000000000000000, 1.000000000000000000 ) ) ;
#8 = VECTOR ( 'NONE', #221, 39.37007874015748143 ) ;
#9 =( NAMED_UNIT ( * ) SI_UNIT ( $, .STERADIAN. ) SOLID_ANGLE_UNIT ( ) );
#10 = FILL_AREA_STYLE ('',( #275 ) ) ;
#11 = DIRECTION ( 'NONE',  ( 1.000000000000000000, -3.628583108584750472E-17, 0.000000000000000000 ) ) ;
#12 = CLOSED_SHELL ( 'NONE', ( #144, #152, #120, #270 ) ) ;
#13 = ADVANCED_FACE ( 'NONE', ( #304 ), #203, .T. ) ;
#14 = CIRCLE ( 'NONE', #65, 0.09375000000000001388 ) ;
#15 = ORIENTED_EDGE ( 'NONE', *, *, #181, .F. ) ;
#16 = ORIENTED_EDGE ( 'NONE', *, *, #169, .T. ) ;
#17 = PRESENTATION_LAYER_ASSIGNMENT (  '', '', ( #88 ) ) ;
#18 =( NAMED_UNIT ( * ) SI_UNIT ( $, .STERADIAN. ) SOLID_ANGLE_UNIT ( ) );
#19 = DIRECTION ( 'NONE',  ( 3.628583108584750472E-17, 1.000000000000000000, -0.000000000000000000 ) ) ;
#20 = SURFACE_STYLE_FILL_AREA ( #6 ) ;
#21 = VERTEX_POINT ( 'NONE', #231 ) ;
#22 = ADVANCED_FACE ( 'NONE', ( #78 ), #157, .T. ) ;
#23 = CARTESIAN_POINT ( 'NONE',  ( 0.000000000000000000, 0.000000000000000000, 0.000000000000000000 ) ) ;
#24 = DIMENSIONAL_EXPONENTS ( 1.000000000000000000, 0.000000000000000000, 0.000000000000000000, 0.000000000000000000, 0.000000000000000000, 0.000000000000000000, 0.000000000000000000 ) ;
#25 = EDGE_LOOP ( 'NONE', ( #282, #237 ) ) ;
#26 = FACE_OUTER_BOUND ( 'NONE', #25, .T. ) ;
#27 = CARTESIAN_POINT ( 'NONE',  ( 0.000000000000000000, 0.3125000000000000000, 0.000000000000000000 ) ) ;
#28 = MANIFOLD_SOLID_BREP ( 'Revolve - Tool Body (Straight Shanked)', #12 ) ;
#29 = CARTESIAN_POINT ( 'NONE',  ( 0.000000000000000000, 0.000000000000000000, -0.09374999999999998612 ) ) ;
#30 = MANIFOLD_SOLID_BREP ( 'Revolve - Cutting Edge', #80 ) ;
#31 =( LENGTH_UNIT ( ) NAMED_UNIT ( * ) SI_UNIT ( $, .METRE. ) );
#32 = PRESENTATION_LAYER_ASSIGNMENT (  '', '', ( #140 ) ) ;
#33 =( GEOMETRIC_REPRESENTATION_CONTEXT ( 3 ) GLOBAL_UNCERTAINTY_ASSIGNED_CONTEXT ( ( #85 ) ) GLOBAL_UNIT_ASSIGNED_CONTEXT ( ( #71, #262, #18 ) ) REPRESENTATION_CONTEXT ( 'NONE', 'WORKASPACE' ) );
#34 =( NAMED_UNIT ( * ) SI_UNIT ( $, .STERADIAN. ) SOLID_ANGLE_UNIT ( ) );
#35 = CIRCLE ( 'NONE', #190, 0.09374999999999998612 ) ;
#36 = AXIS2_PLACEMENT_3D ( 'NONE', #101, #277, #131 ) ;
#37 = UNCERTAINTY_MEASURE_WITH_UNIT (LENGTH_MEASURE( 1.000000000000000082E-05 ), #132, 'distance_accuracy_value', 'NONE');
#38 = FACE_OUTER_BOUND ( 'NONE', #92, .T. ) ;
#39 = DIRECTION ( 'NONE',  ( -1.000000000000000000, 0.000000000000000000, 0.000000000000000000 ) ) ;
#40 = STYLED_ITEM ( 'NONE', ( #151 ), #22 ) ;
#41 = ORIENTED_EDGE ( 'NONE', *, *, #181, .T. ) ;
#42 = AXIS2_PLACEMENT_3D ( 'NONE', #296, #229, #11 ) ;
#43 = EDGE_CURVE ( 'NONE', #308, #300, #170, .T. ) ;
#44 = DIRECTION ( 'NONE',  ( 3.628583108584750472E-17, 1.000000000000000000, -0.000000000000000000 ) ) ;
#45 =( NAMED_UNIT ( * ) PLANE_ANGLE_UNIT ( ) SI_UNIT ( $, .RADIAN. ) );
#46 = ORIENTED_EDGE ( 'NONE', *, *, #238, .F. ) ;
#47 = CARTESIAN_POINT ( 'NONE',  ( 0.000000000000000000, 0.000000000000000000, 0.000000000000000000 ) ) ;
#48 = DIMENSIONAL_EXPONENTS ( 1.000000000000000000, 0.000000000000000000, 0.000000000000000000, 0.000000000000000000, 0.000000000000000000, 0.000000000000000000, 0.000000000000000000 ) ;
#49 = SURFACE_SIDE_STYLE ('',( #20 ) ) ;
#50 = SURFACE_STYLE_FILL_AREA ( #10 ) ;
#51 = AXIS2_PLACEMENT_3D ( 'NONE', #23, #176, #122 ) ;
#52 = CYLINDRICAL_SURFACE ( 'NONE', #58, 0.09374999999999995837 ) ;
#53 = APPLICATION_PROTOCOL_DEFINITION ( 'draft international standard', 'automotive_design', 1998, #284 ) ;
#54 = COLOUR_RGB ( '',1.000000000000000000, 0.000000000000000000, 0.000000000000000000 ) ;
#55 = CARTESIAN_POINT ( 'NONE',  ( 0.000000000000000000, 0.3125000000000000000, 0.000000000000000000 ) ) ;
#56 = DIMENSIONAL_EXPONENTS ( 1.000000000000000000, 0.000000000000000000, 0.000000000000000000, 0.000000000000000000, 0.000000000000000000, 0.000000000000000000, 0.000000000000000000 ) ;
#57 = SURFACE_STYLE_USAGE ( .BOTH. , #276 ) ;
#58 = AXIS2_PLACEMENT_3D ( 'NONE', #96, #145, #172 ) ;
#59 =( LENGTH_UNIT ( ) NAMED_UNIT ( * ) SI_UNIT ( $, .METRE. ) );
#60 = EDGE_CURVE ( 'NONE', #21, #259, #14, .T. ) ;
#61 = FILL_AREA_STYLE_COLOUR ( '', #210 ) ;
#62 = ORIENTED_EDGE ( 'NONE', *, *, #214, .F. ) ;
#63 = LINE ( 'NONE', #29, #217 ) ;
#64 = UNCERTAINTY_MEASURE_WITH_UNIT (LENGTH_MEASURE( 1.000000000000000082E-05 ), #273, 'distance_accuracy_value', 'NONE');
#65 = AXIS2_PLACEMENT_3D ( 'NONE', #47, #127, #143 ) ;
#66 = FILL_AREA_STYLE_COLOUR ( '', #258 ) ;
#67 = LENGTH_MEASURE_WITH_UNIT ( LENGTH_MEASURE( 0.02539999999999999897 ), #59 );
#68 = CARTESIAN_POINT ( 'NONE',  ( 6.171850957456204517E-35, 0.3125000000000000000, 0.000000000000000000 ) ) ;
#69 = DIRECTION ( 'NONE',  ( 0.000000000000000000, 0.000000000000000000, -1.000000000000000000 ) ) ;
#70 = CARTESIAN_POINT ( 'NONE',  ( 0.000000000000000000, 0.000000000000000000, 0.000000000000000000 ) ) ;
#71 =( CONVERSION_BASED_UNIT ( 'INCH', #121 ) LENGTH_UNIT ( ) NAMED_UNIT ( #247 ) );
#72 = EDGE_CURVE ( 'NONE', #308, #86, #241, .T. ) ;
#73 =( GEOMETRIC_REPRESENTATION_CONTEXT ( 3 ) GLOBAL_UNCERTAINTY_ASSIGNED_CONTEXT ( ( #236 ) ) GLOBAL_UNIT_ASSIGNED_CONTEXT ( ( #293, #213, #4 ) ) REPRESENTATION_CONTEXT ( 'NONE', 'WORKASPACE' ) );
#74 = DIRECTION ( 'NONE',  ( 3.628583108584750472E-17, 1.000000000000000000, -0.000000000000000000 ) ) ;
#75 =( CONVERSION_BASED_UNIT ( 'INCH', #105 ) LENGTH_UNIT ( ) NAMED_UNIT ( #24 ) );
#76 = UNCERTAINTY_MEASURE_WITH_UNIT (LENGTH_MEASURE( 1.000000000000000082E-05 ), #75, 'distance_accuracy_value', 'NONE');
#77 = DIRECTION ( 'NONE',  ( 3.628583108584750472E-17, 1.000000000000000000, -0.000000000000000000 ) ) ;
#78 = FACE_OUTER_BOUND ( 'NONE', #119, .T. ) ;
#79 = CARTESIAN_POINT ( 'NONE',  ( -0.09374999999999984734, 2.000000000000000000, 0.000000000000000000 ) ) ;
#80 = CLOSED_SHELL ( 'NONE', ( #22, #207, #13, #199 ) ) ;
#81 = PRESENTATION_STYLE_ASSIGNMENT (( #297 ) ) ;
#82 = STYLED_ITEM ( 'NONE', ( #173 ), #30 ) ;
#83 = ORIENTED_EDGE ( 'NONE', *, *, #72, .F. ) ;
#84 = ORIENTED_EDGE ( 'NONE', *, *, #214, .T. ) ;
#85 = UNCERTAINTY_MEASURE_WITH_UNIT (LENGTH_MEASURE( 1.000000000000000082E-05 ), #71, 'distance_accuracy_value', 'NONE');
#86 = VERTEX_POINT ( 'NONE', #193 ) ;
#87 = PLANE ( 'NONE',  #42 ) ;
#88 = STYLED_ITEM ( 'NONE', ( #81 ), #207 ) ;
#89 = DIRECTION ( 'NONE',  ( -0.000000000000000000, -1.000000000000000000, -0.000000000000000000 ) ) ;
#90 = PRESENTATION_LAYER_ASSIGNMENT (  '', '', ( #201 ) ) ;
#91 = SURFACE_STYLE_FILL_AREA ( #192 ) ;
#92 = EDGE_LOOP ( 'NONE', ( #264, #84 ) ) ;
#93 = LENGTH_MEASURE_WITH_UNIT ( LENGTH_MEASURE( 0.02539999999999999897 ), #187 );
#94 = DIMENSIONAL_EXPONENTS ( 1.000000000000000000, 0.000000000000000000, 0.000000000000000000, 0.000000000000000000, 0.000000000000000000, 0.000000000000000000, 0.000000000000000000 ) ;
#95 =( NAMED_UNIT ( * ) SI_UNIT ( $, .STERADIAN. ) SOLID_ANGLE_UNIT ( ) );
#96 = CARTESIAN_POINT ( 'NONE',  ( 6.123233995736766036E-17, 2.000000000000000000, 0.000000000000000000 ) ) ;
#97 = PRESENTATION_LAYER_ASSIGNMENT (  '', '', ( #82 ) ) ;
#98 = PRESENTATION_STYLE_ASSIGNMENT (( #2 ) ) ;
#99 = DIRECTION ( 'NONE',  ( 0.000000000000000000, 1.000000000000000000, 0.000000000000000000 ) ) ;
#100 = CARTESIAN_POINT ( 'NONE',  ( 0.000000000000000000, 0.000000000000000000, 0.000000000000000000 ) ) ;
#101 = CARTESIAN_POINT ( 'NONE',  ( 0.000000000000000000, 0.000000000000000000, 0.000000000000000000 ) ) ;
#102 = CIRCLE ( 'NONE', #263, 0.09374999999999991673 ) ;
#103 = DIRECTION ( 'NONE',  ( -0.000000000000000000, -1.000000000000000000, -0.000000000000000000 ) ) ;
#104 = LINE ( 'NONE', #200, #118 ) ;
#105 = LENGTH_MEASURE_WITH_UNIT ( LENGTH_MEASURE( 0.02539999999999999897 ), #108 );
#106 = COLOUR_RGB ( '',1.000000000000000000, 0.000000000000000000, 0.000000000000000000 ) ;
#107 = EDGE_CURVE ( 'NONE', #86, #160, #269, .T. ) ;
#108 =( LENGTH_UNIT ( ) NAMED_UNIT ( * ) SI_UNIT ( $, .METRE. ) );
#109 = MECHANICAL_DESIGN_GEOMETRIC_PRESENTATION_REPRESENTATION (  '', ( #82 ), #73 ) ;
#110 = APPLICATION_CONTEXT ( 'automotive_design' ) ;
#111 = AXIS2_PLACEMENT_3D ( 'NONE', #70, #7, #227 ) ;
#112 = EDGE_CURVE ( 'NONE', #300, #160, #102, .T. ) ;
#113 =( NAMED_UNIT ( * ) PLANE_ANGLE_UNIT ( ) SI_UNIT ( $, .RADIAN. ) );
#114 = FACE_OUTER_BOUND ( 'NONE', #306, .T. ) ;
#115 = ORIENTED_EDGE ( 'NONE', *, *, #238, .T. ) ;
#116 = ORIENTED_EDGE ( 'NONE', *, *, #60, .F. ) ;
#117 = VERTEX_POINT ( 'NONE', #182 ) ;
#118 = VECTOR ( 'NONE', #218, 39.37007874015748143 ) ;
#119 = EDGE_LOOP ( 'NONE', ( #115, #123, #116, #137 ) ) ;
#120 = ADVANCED_FACE ( 'NONE', ( #114 ), #301, .T. ) ;
#121 = LENGTH_MEASURE_WITH_UNIT ( LENGTH_MEASURE( 0.02539999999999999897 ), #198 );
#122 = DIRECTION ( 'NONE',  ( 0.000000000000000000, 0.000000000000000000, -1.000000000000000000 ) ) ;
#123 = ORIENTED_EDGE ( 'NONE', *, *, #204, .T. ) ;
#124 = MECHANICAL_DESIGN_GEOMETRIC_PRESENTATION_REPRESENTATION (  '', ( #159 ), #136 ) ;
#125 = DIRECTION ( 'NONE',  ( -1.000000000000000000, 0.000000000000000000, 0.000000000000000000 ) ) ;
#126 = SURFACE_SIDE_STYLE ('',( #50 ) ) ;
#127 = DIRECTION ( 'NONE',  ( -0.000000000000000000, -1.000000000000000000, -0.000000000000000000 ) ) ;
#128 =( LENGTH_UNIT ( ) NAMED_UNIT ( * ) SI_UNIT ( $, .METRE. ) );
#129 = DIRECTION ( 'NONE',  ( -0.000000000000000000, -1.000000000000000000, -0.000000000000000000 ) ) ;
#130 = PLANE ( 'NONE',  #226 ) ;
#131 = DIRECTION ( 'NONE',  ( 0.000000000000000000, 0.000000000000000000, -1.000000000000000000 ) ) ;
#132 =( CONVERSION_BASED_UNIT ( 'INCH', #260 ) LENGTH_UNIT ( ) NAMED_UNIT ( #56 ) );
#133 =( CONVERSION_BASED_UNIT ( 'INCH', #248 ) LENGTH_UNIT ( ) NAMED_UNIT ( #228 ) );
#134 = PRESENTATION_LAYER_ASSIGNMENT (  '', '', ( #159 ) ) ;
#135 = AXIS2_PLACEMENT_3D ( 'NONE', #257, #89, #285 ) ;
#136 =( GEOMETRIC_REPRESENTATION_CONTEXT ( 3 ) GLOBAL_UNCERTAINTY_ASSIGNED_CONTEXT ( ( #64 ) ) GLOBAL_UNIT_ASSIGNED_CONTEXT ( ( #273, #45, #9 ) ) REPRESENTATION_CONTEXT ( 'NONE', 'WORKASPACE' ) );
#137 = ORIENTED_EDGE ( 'NONE', *, *, #139, .F. ) ;
#138 = EDGE_LOOP ( 'NONE', ( #240, #188, #239, #165 ) ) ;
#139 = EDGE_CURVE ( 'NONE', #117, #21, #63, .T. ) ;
#140 = STYLED_ITEM ( 'NONE', ( #98 ), #13 ) ;
#141 = DIRECTION ( 'NONE',  ( -1.000000000000000000, 0.000000000000000000, 0.000000000000000000 ) ) ;
#142 = ORIENTED_EDGE ( 'NONE', *, *, #169, .F. ) ;
#143 = DIRECTION ( 'NONE',  ( 0.000000000000000000, 0.000000000000000000, -1.000000000000000000 ) ) ;
#144 = ADVANCED_FACE ( 'NONE', ( #168 ), #52, .T. ) ;
#145 = DIRECTION ( 'NONE',  ( 3.628583108584750472E-17, 1.000000000000000000, -0.000000000000000000 ) ) ;
#146 = CARTESIAN_POINT ( 'NONE',  ( 0.09375000000000002776, 2.000000000000000000, 1.148106374200643092E-17 ) ) ;
#147 = SHAPE_DEFINITION_REPRESENTATION ( #233, #267 ) ;
#148 = MECHANICAL_DESIGN_GEOMETRIC_PRESENTATION_REPRESENTATION (  '', ( #201 ), #33 ) ;
#149 = DIRECTION ( 'NONE',  ( -1.000000000000000000, 0.000000000000000000, 0.000000000000000000 ) ) ;
#150 = DIRECTION ( 'NONE',  ( 0.000000000000000000, 0.000000000000000000, -1.000000000000000000 ) ) ;
#151 = PRESENTATION_STYLE_ASSIGNMENT (( #57 ) ) ;
#152 = ADVANCED_FACE ( 'NONE', ( #242 ), #130, .F. ) ;
#153 = AXIS2_PLACEMENT_3D ( 'NONE', #100, #220, #69 ) ;
#154 = FILL_AREA_STYLE ('',( #278 ) ) ;
#155 = CARTESIAN_POINT ( 'NONE',  ( -0.09374999999999998612, 0.3125000000000000000, 0.000000000000000000 ) ) ;
#156 =( GEOMETRIC_REPRESENTATION_CONTEXT ( 3 ) GLOBAL_UNCERTAINTY_ASSIGNED_CONTEXT ( ( #76 ) ) GLOBAL_UNIT_ASSIGNED_CONTEXT ( ( #75, #224, #250 ) ) REPRESENTATION_CONTEXT ( 'NONE', 'WORKASPACE' ) );
#157 = CYLINDRICAL_SURFACE ( 'NONE', #135, 0.09374999999999998612 ) ;
#158 = PRODUCT_RELATED_PRODUCT_CATEGORY ( 'part', '', ( #280 ) ) ;
#159 = STYLED_ITEM ( 'NONE', ( #288 ), #199 ) ;
#160 = VERTEX_POINT ( 'NONE', #194 ) ;
#161 = EDGE_CURVE ( 'NONE', #259, #21, #256, .T. ) ;
#162 = EDGE_LOOP ( 'NONE', ( #212, #41, #185, #186 ) ) ;
#163 = FILL_AREA_STYLE ('',( #61 ) ) ;
#164 = UNCERTAINTY_MEASURE_WITH_UNIT (LENGTH_MEASURE( 1.000000000000000082E-05 ), #133, 'distance_accuracy_value', 'NONE');
#165 = ORIENTED_EDGE ( 'NONE', *, *, #43, .F. ) ;
#166 =( GEOMETRIC_REPRESENTATION_CONTEXT ( 3 ) GLOBAL_UNCERTAINTY_ASSIGNED_CONTEXT ( ( #164 ) ) GLOBAL_UNIT_ASSIGNED_CONTEXT ( ( #133, #3, #34 ) ) REPRESENTATION_CONTEXT ( 'NONE', 'WORKASPACE' ) );
#167 = SURFACE_SIDE_STYLE ('',( #91 ) ) ;
#168 = FACE_OUTER_BOUND ( 'NONE', #138, .T. ) ;
#169 = EDGE_CURVE ( 'NONE', #86, #308, #35, .T. ) ;
#170 = LINE ( 'NONE', #265, #272 ) ;
#171 =( NAMED_UNIT ( * ) PLANE_ANGLE_UNIT ( ) SI_UNIT ( $, .RADIAN. ) );
#172 = DIRECTION ( 'NONE',  ( -1.000000000000000000, 0.000000000000000000, 0.000000000000000000 ) ) ;
#173 = PRESENTATION_STYLE_ASSIGNMENT (( #251 ) ) ;
#174 = DIRECTION ( 'NONE',  ( -0.000000000000000000, -1.000000000000000000, -0.000000000000000000 ) ) ;
#175 = SURFACE_STYLE_FILL_AREA ( #154 ) ;
#176 = DIRECTION ( 'NONE',  ( 0.000000000000000000, -1.000000000000000000, -0.000000000000000000 ) ) ;
#177 = AXIS2_PLACEMENT_3D ( 'NONE', #55, #174, #150 ) ;
#178 = DIRECTION ( 'NONE',  ( -1.000000000000000000, 0.000000000000000000, 0.000000000000000000 ) ) ;
#179 =( NAMED_UNIT ( * ) SI_UNIT ( $, .STERADIAN. ) SOLID_ANGLE_UNIT ( ) );
#180 = CIRCLE ( 'NONE', #235, 0.09374999999999991673 ) ;
#181 = EDGE_CURVE ( 'NONE', #261, #117, #246, .T. ) ;
#182 = CARTESIAN_POINT ( 'NONE',  ( 0.000000000000000000, 0.3125000000000000000, -0.09374999999999998612 ) ) ;
#183 = CARTESIAN_POINT ( 'NONE',  ( 6.123233995736766036E-17, 2.000000000000000000, 0.000000000000000000 ) ) ;
#184 = PRODUCT_DEFINITION_FORMATION_WITH_SPECIFIED_SOURCE ( 'ANY', '', #280, .NOT_KNOWN. ) ;
#185 = ORIENTED_EDGE ( 'NONE', *, *, #139, .T. ) ;
#186 = ORIENTED_EDGE ( 'NONE', *, *, #161, .F. ) ;
#187 =( LENGTH_UNIT ( ) NAMED_UNIT ( * ) SI_UNIT ( $, .METRE. ) );
#188 = ORIENTED_EDGE ( 'NONE', *, *, #107, .T. ) ;
#189 = FACE_OUTER_BOUND ( 'NONE', #191, .T. ) ;
#190 = AXIS2_PLACEMENT_3D ( 'NONE', #223, #77, #141 ) ;
#191 = EDGE_LOOP ( 'NONE', ( #46, #15 ) ) ;
#192 = FILL_AREA_STYLE ('',( #225 ) ) ;
#193 = CARTESIAN_POINT ( 'NONE',  ( 0.09374999999999998612, 0.3125000000000000000, 1.148106374200643247E-17 ) ) ;
#194 = CARTESIAN_POINT ( 'NONE',  ( 0.09374999999999998612, 2.000000000000000000, 1.148106374200643247E-17 ) ) ;
#195 = APPLICATION_PROTOCOL_DEFINITION ( 'draft international standard', 'automotive_design', 1998, #110 ) ;
#196 = DIRECTION ( 'NONE',  ( 0.000000000000000000, -0.000000000000000000, 1.000000000000000000 ) ) ;
#197 = CIRCLE ( 'NONE', #307, 0.09374999999999998612 ) ;
#198 =( LENGTH_UNIT ( ) NAMED_UNIT ( * ) SI_UNIT ( $, .METRE. ) );
#199 = ADVANCED_FACE ( 'NONE', ( #26 ), #244, .T. ) ;
#200 = CARTESIAN_POINT ( 'NONE',  ( 1.148106374200643401E-17, 0.000000000000000000, 0.09374999999999998612 ) ) ;
#201 = STYLED_ITEM ( 'NONE', ( #289 ), #28 ) ;
#202 = DIMENSIONAL_EXPONENTS ( 1.000000000000000000, 0.000000000000000000, 0.000000000000000000, 0.000000000000000000, 0.000000000000000000, 0.000000000000000000, 0.000000000000000000 ) ;
#203 = CYLINDRICAL_SURFACE ( 'NONE', #36, 0.09374999999999998612 ) ;
#204 = EDGE_CURVE ( 'NONE', #261, #259, #104, .T. ) ;
#205 = AXIS2_PLACEMENT_3D ( 'NONE', #183, #281, #39 ) ;
#206 = UNCERTAINTY_MEASURE_WITH_UNIT (LENGTH_MEASURE( 1.000000000000000082E-05 ), #271, 'distance_accuracy_value', 'NONE');
#207 = ADVANCED_FACE ( 'NONE', ( #189 ), #222, .T. ) ;
#208 = MECHANICAL_DESIGN_GEOMETRIC_PRESENTATION_REPRESENTATION (  '', ( #88 ), #219 ) ;
#209 = ORIENTED_EDGE ( 'NONE', *, *, #43, .T. ) ;
#210 = COLOUR_RGB ( '',0.7921568627450980005, 0.8196078431372548767, 0.9333333333333333481 ) ;
#211 = COLOUR_RGB ( '',0.7921568627450980005, 0.8196078431372548767, 0.9333333333333333481 ) ;
#212 = ORIENTED_EDGE ( 'NONE', *, *, #204, .F. ) ;
#213 =( NAMED_UNIT ( * ) PLANE_ANGLE_UNIT ( ) SI_UNIT ( $, .RADIAN. ) );
#214 = EDGE_CURVE ( 'NONE', #160, #300, #180, .T. ) ;
#215 = DIRECTION ( 'NONE',  ( -1.000000000000000000, 3.628583108584750472E-17, 0.000000000000000000 ) ) ;
#216 = ORIENTED_EDGE ( 'NONE', *, *, #107, .F. ) ;
#217 = VECTOR ( 'NONE', #129, 39.37007874015748143 ) ;
#218 = DIRECTION ( 'NONE',  ( -0.000000000000000000, -1.000000000000000000, -0.000000000000000000 ) ) ;
#219 =( GEOMETRIC_REPRESENTATION_CONTEXT ( 3 ) GLOBAL_UNCERTAINTY_ASSIGNED_CONTEXT ( ( #206 ) ) GLOBAL_UNIT_ASSIGNED_CONTEXT ( ( #271, #171, #95 ) ) REPRESENTATION_CONTEXT ( 'NONE', 'WORKASPACE' ) );
#220 = DIRECTION ( 'NONE',  ( -0.000000000000000000, -1.000000000000000000, -0.000000000000000000 ) ) ;
#221 = DIRECTION ( 'NONE',  ( 3.628583108584750472E-17, 1.000000000000000000, -0.000000000000000000 ) ) ;
#222 = PLANE ( 'NONE',  #298 ) ;
#223 = CARTESIAN_POINT ( 'NONE',  ( 0.000000000000000000, 0.3125000000000000000, 0.000000000000000000 ) ) ;
#224 =( NAMED_UNIT ( * ) PLANE_ANGLE_UNIT ( ) SI_UNIT ( $, .RADIAN. ) );
#225 = FILL_AREA_STYLE_COLOUR ( '', #211 ) ;
#226 = AXIS2_PLACEMENT_3D ( 'NONE', #68, #1, #215 ) ;
#227 = DIRECTION ( 'NONE',  ( 1.000000000000000000, 0.000000000000000000, 0.000000000000000000 ) ) ;
#228 = DIMENSIONAL_EXPONENTS ( 1.000000000000000000, 0.000000000000000000, 0.000000000000000000, 0.000000000000000000, 0.000000000000000000, 0.000000000000000000, 0.000000000000000000 ) ;
#229 = DIRECTION ( 'NONE',  ( -3.628583108584750472E-17, -1.000000000000000000, 0.000000000000000000 ) ) ;
#230 = MECHANICAL_DESIGN_GEOMETRIC_PRESENTATION_REPRESENTATION (  '', ( #40 ), #287 ) ;
#231 = CARTESIAN_POINT ( 'NONE',  ( 0.000000000000000000, 0.000000000000000000, -0.09375000000000001388 ) ) ;
#232 = PRESENTATION_LAYER_ASSIGNMENT (  '', '', ( #40 ) ) ;
#233 = PRODUCT_DEFINITION_SHAPE ( 'NONE', 'NONE',  #286 ) ;
#234 = CARTESIAN_POINT ( 'NONE',  ( 1.148106374200643555E-17, 0.000000000000000000, 0.09375000000000001388 ) ) ;
#235 = AXIS2_PLACEMENT_3D ( 'NONE', #290, #74, #149 ) ;
#236 = UNCERTAINTY_MEASURE_WITH_UNIT (LENGTH_MEASURE( 1.000000000000000082E-05 ), #293, 'distance_accuracy_value', 'NONE');
#237 = ORIENTED_EDGE ( 'NONE', *, *, #161, .T. ) ;
#238 = EDGE_CURVE ( 'NONE', #117, #261, #197, .T. ) ;
#239 = ORIENTED_EDGE ( 'NONE', *, *, #112, .F. ) ;
#240 = ORIENTED_EDGE ( 'NONE', *, *, #72, .T. ) ;
#241 = CIRCLE ( 'NONE', #291, 0.09374999999999998612 ) ;
#242 = FACE_OUTER_BOUND ( 'NONE', #266, .T. ) ;
#243 = CARTESIAN_POINT ( 'NONE',  ( 1.148106374200643401E-17, 0.3125000000000000000, 0.09374999999999998612 ) ) ;
#244 = PLANE ( 'NONE',  #51 ) ;
#245 = DIRECTION ( 'NONE',  ( 3.628583108584750472E-17, 1.000000000000000000, -0.000000000000000000 ) ) ;
#246 = CIRCLE ( 'NONE', #177, 0.09374999999999998612 ) ;
#247 = DIMENSIONAL_EXPONENTS ( 1.000000000000000000, 0.000000000000000000, 0.000000000000000000, 0.000000000000000000, 0.000000000000000000, 0.000000000000000000, 0.000000000000000000 ) ;
#248 = LENGTH_MEASURE_WITH_UNIT ( LENGTH_MEASURE( 0.02539999999999999897 ), #31 );
#249 = SURFACE_STYLE_USAGE ( .BOTH. , #283 ) ;
#250 =( NAMED_UNIT ( * ) SI_UNIT ( $, .STERADIAN. ) SOLID_ANGLE_UNIT ( ) );
#251 = SURFACE_STYLE_USAGE ( .BOTH. , #167 ) ;
#252 = CARTESIAN_POINT ( 'NONE',  ( 0.000000000000000000, 0.3125000000000000000, 0.000000000000000000 ) ) ;
#253 = SURFACE_STYLE_USAGE ( .BOTH. , #49 ) ;
#254 = MECHANICAL_DESIGN_GEOMETRIC_PRESENTATION_REPRESENTATION (  '', ( #140 ), #156 ) ;
#255 = SURFACE_SIDE_STYLE ('',( #268 ) ) ;
#256 = CIRCLE ( 'NONE', #153, 0.09375000000000001388 ) ;
#257 = CARTESIAN_POINT ( 'NONE',  ( 0.000000000000000000, 0.000000000000000000, 0.000000000000000000 ) ) ;
#258 = COLOUR_RGB ( '',1.000000000000000000, 0.000000000000000000, 0.000000000000000000 ) ;
#259 = VERTEX_POINT ( 'NONE', #234 ) ;
#260 = LENGTH_MEASURE_WITH_UNIT ( LENGTH_MEASURE( 0.02539999999999999897 ), #128 );
#261 = VERTEX_POINT ( 'NONE', #243 ) ;
#262 =( NAMED_UNIT ( * ) PLANE_ANGLE_UNIT ( ) SI_UNIT ( $, .RADIAN. ) );
#263 = AXIS2_PLACEMENT_3D ( 'NONE', #295, #19, #178 ) ;
#264 = ORIENTED_EDGE ( 'NONE', *, *, #112, .T. ) ;
#265 = CARTESIAN_POINT ( 'NONE',  ( -0.09374999999999988898, 2.000000000000000000, 0.000000000000000000 ) ) ;
#266 = EDGE_LOOP ( 'NONE', ( #83, #142 ) ) ;
#267 = ADVANCED_BREP_SHAPE_REPRESENTATION ( '03092', ( #30, #28, #111 ), #166 ) ;
#268 = SURFACE_STYLE_FILL_AREA ( #309 ) ;
#269 = LINE ( 'NONE', #146, #8 ) ;
#270 = ADVANCED_FACE ( 'NONE', ( #38 ), #87, .F. ) ;
#271 =( CONVERSION_BASED_UNIT ( 'INCH', #67 ) LENGTH_UNIT ( ) NAMED_UNIT ( #202 ) );
#272 = VECTOR ( 'NONE', #44, 39.37007874015748143 ) ;
#273 =( CONVERSION_BASED_UNIT ( 'INCH', #305 ) LENGTH_UNIT ( ) NAMED_UNIT ( #94 ) );
#274 = PRODUCT_CONTEXT ( 'NONE', #110, 'mechanical' ) ;
#275 = FILL_AREA_STYLE_COLOUR ( '', #54 ) ;
#276 = SURFACE_SIDE_STYLE ('',( #175 ) ) ;
#277 = DIRECTION ( 'NONE',  ( -0.000000000000000000, -1.000000000000000000, -0.000000000000000000 ) ) ;
#278 = FILL_AREA_STYLE_COLOUR ( '', #106 ) ;
#279 = DIRECTION ( 'NONE',  ( 0.000000000000000000, 0.000000000000000000, -1.000000000000000000 ) ) ;
#280 = PRODUCT ( '03092', '03092', '', ( #274 ) ) ;
#281 = DIRECTION ( 'NONE',  ( 3.628583108584750472E-17, 1.000000000000000000, -0.000000000000000000 ) ) ;
#282 = ORIENTED_EDGE ( 'NONE', *, *, #60, .T. ) ;
#283 = SURFACE_SIDE_STYLE ('',( #299 ) ) ;
#284 = APPLICATION_CONTEXT ( 'automotive_design' ) ;
#285 = DIRECTION ( 'NONE',  ( 0.000000000000000000, 0.000000000000000000, -1.000000000000000000 ) ) ;
#286 = PRODUCT_DEFINITION ( 'UNKNOWN', '', #184, #303 ) ;
#287 =( GEOMETRIC_REPRESENTATION_CONTEXT ( 3 ) GLOBAL_UNCERTAINTY_ASSIGNED_CONTEXT ( ( #37 ) ) GLOBAL_UNIT_ASSIGNED_CONTEXT ( ( #132, #113, #179 ) ) REPRESENTATION_CONTEXT ( 'NONE', 'WORKASPACE' ) );
#288 = PRESENTATION_STYLE_ASSIGNMENT (( #253 ) ) ;
#289 = PRESENTATION_STYLE_ASSIGNMENT (( #249 ) ) ;
#290 = CARTESIAN_POINT ( 'NONE',  ( 6.123233995736766036E-17, 2.000000000000000000, 0.000000000000000000 ) ) ;
#291 = AXIS2_PLACEMENT_3D ( 'NONE', #27, #245, #125 ) ;
#292 =( LENGTH_UNIT ( ) NAMED_UNIT ( * ) SI_UNIT ( $, .METRE. ) );
#293 =( CONVERSION_BASED_UNIT ( 'INCH', #93 ) LENGTH_UNIT ( ) NAMED_UNIT ( #48 ) );
#294 = FILL_AREA_STYLE_COLOUR ( '', #302 ) ;
#295 = CARTESIAN_POINT ( 'NONE',  ( 6.123233995736766036E-17, 2.000000000000000000, 0.000000000000000000 ) ) ;
#296 = CARTESIAN_POINT ( 'NONE',  ( 0.09374999999999998612, 2.000000000000000000, 0.000000000000000000 ) ) ;
#297 = SURFACE_STYLE_USAGE ( .BOTH. , #255 ) ;
#298 = AXIS2_PLACEMENT_3D ( 'NONE', #5, #99, #196 ) ;
#299 = SURFACE_STYLE_FILL_AREA ( #163 ) ;
#300 = VERTEX_POINT ( 'NONE', #79 ) ;
#301 = CYLINDRICAL_SURFACE ( 'NONE', #205, 0.09374999999999995837 ) ;
#302 = COLOUR_RGB ( '',1.000000000000000000, 0.000000000000000000, 0.000000000000000000 ) ;
#303 = PRODUCT_DEFINITION_CONTEXT ( 'detailed design', #284, 'design' ) ;
#304 = FACE_OUTER_BOUND ( 'NONE', #162, .T. ) ;
#305 = LENGTH_MEASURE_WITH_UNIT ( LENGTH_MEASURE( 0.02539999999999999897 ), #292 );
#306 = EDGE_LOOP ( 'NONE', ( #216, #16, #209, #62 ) ) ;
#307 = AXIS2_PLACEMENT_3D ( 'NONE', #252, #103, #279 ) ;
#308 = VERTEX_POINT ( 'NONE', #155 ) ;
#309 = FILL_AREA_STYLE ('',( #294 ) ) ;
ENDSEC;
END-ISO-10303-21;
