ISO-10303-21;
HEADER;
FILE_DESCRIPTION (( 'STEP AP214' ),
    '1' );
FILE_NAME ('Micro_EMS-125-4.STEP',
    '2021-09-01T17:42:07',
    ( '' ),
    ( '' ),
    'SwSTEP 2.0',
    'SolidWorks 2020',
    '' );
FILE_SCHEMA (( 'AUTOMOTIVE_DESIGN' ));
ENDSEC;

DATA;
#1 = DIRECTION ( 'NONE',  ( -1.224646799147353700E-16, -0.0000000000000000000, -1.000000000000000000 ) ) ;
#2 = DIRECTION ( 'NONE',  ( -1.000000000000000000, 0.0000000000000000000, 0.0000000000000000000 ) ) ;
#3 = CARTESIAN_POINT ( 'NONE',  ( 0.0000000000000000000, 0.0000000000000000000, 1.500000000000000222 ) ) ;
#4 = EDGE_CURVE ( 'NONE', #101, #96, #20, .T. ) ;
#5 = DIRECTION ( 'NONE',  ( -1.224646799147353700E-16, -0.0000000000000000000, -1.000000000000000000 ) ) ;
#6 = DIRECTION ( 'NONE',  ( -1.000000000000000000, 0.0000000000000000000, 1.224646799147353947E-16 ) ) ;
#7 = AXIS2_PLACEMENT_3D ( 'NONE', #139, #18, #19 ) ;
#8 = ORIENTED_EDGE ( 'NONE', *, *, #135, .T. ) ;
#9 = SURFACE_SIDE_STYLE ('',( #289 ) ) ;
#10 = VECTOR ( 'NONE', #106, 39.37007874015748854 ) ;
#11 = EDGE_LOOP ( 'NONE', ( #123, #72 ) ) ;
#12 = EDGE_CURVE ( 'NONE', #54, #29, #81, .T. ) ;
#13 = ORIENTED_EDGE ( 'NONE', *, *, #114, .T. ) ;
#14 = CARTESIAN_POINT ( 'NONE',  ( -0.04750000000000064587, 0.0000000000000000000, 1.500000000000000222 ) ) ;
#15 =( NAMED_UNIT ( * ) SI_UNIT ( $, .STERADIAN. ) SOLID_ANGLE_UNIT ( ) );
#16 = EDGE_CURVE ( 'NONE', #285, #54, #33, .T. ) ;
#17 = CARTESIAN_POINT ( 'NONE',  ( -0.06243749999999995137, 7.646388452176288915E-18, 0.5000000000000000000 ) ) ;
#18 = DIRECTION ( 'NONE',  ( -1.224646799147353700E-16, -0.0000000000000000000, -1.000000000000000000 ) ) ;
#19 = DIRECTION ( 'NONE',  ( -1.000000000000000000, 0.0000000000000000000, 1.224646799147353700E-16 ) ) ;
#20 = CIRCLE ( 'NONE', #199, 0.06243749999999999994 ) ;
#21 = CYLINDRICAL_SURFACE ( 'NONE', #247, 0.06250000000000002776 ) ;
#22 = CIRCLE ( 'NONE', #193, 0.04750000000000064587 ) ;
#23 = CYLINDRICAL_SURFACE ( 'NONE', #236, 0.06243750000000001382 ) ;
#24 = EDGE_CURVE ( 'NONE', #35, #240, #154, .T. ) ;
#25 = CARTESIAN_POINT ( 'NONE',  ( 6.127574818941429733E-17, 0.0000000000000000000, 0.5003544551137261154 ) ) ;
#26 = CARTESIAN_POINT ( 'NONE',  ( 0.04750000000000064587, 6.735557395310483192E-18, 1.500000000000000222 ) ) ;
#27 = ORIENTED_EDGE ( 'NONE', *, *, #114, .F. ) ;
#28 = AXIS2_PLACEMENT_3D ( 'NONE', #44, #205, #233 ) ;
#29 = VERTEX_POINT ( 'NONE', #39 ) ;
#30 = DIRECTION ( 'NONE',  ( 0.0000000000000000000, 0.0000000000000000000, 1.000000000000000000 ) ) ;
#31 = EDGE_CURVE ( 'NONE', #292, #35, #37, .T. ) ;
#32 = EDGE_LOOP ( 'NONE', ( #221, #165, #263, #128 ) ) ;
#33 = CIRCLE ( 'NONE', #290, 0.04750000000000064587 ) ;
#34 = AXIS2_PLACEMENT_3D ( 'NONE', #157, #256, #115 ) ;
#35 = VERTEX_POINT ( 'NONE', #62 ) ;
#36 = CARTESIAN_POINT ( 'NONE',  ( 0.06243750000000006933, 0.0000000000000000000, 0.5000000000000000000 ) ) ;
#37 = LINE ( 'NONE', #36, #99 ) ;
#38 = ADVANCED_FACE ( 'NONE', ( #155 ), #83, .T. ) ;
#39 = CARTESIAN_POINT ( 'NONE',  ( -0.06250000000000002776, 0.0000000000000000000, 1.485000000000000764 ) ) ;
#40 = PRODUCT_DEFINITION_FORMATION_WITH_SPECIFIED_SOURCE ( 'ANY', '', #168, .NOT_KNOWN. ) ;
#41 = ADVANCED_FACE ( 'NONE', ( #43 ), #255, .T. ) ;
#42 = DIRECTION ( 'NONE',  ( 0.0000000000000000000, 0.0000000000000000000, -1.000000000000000000 ) ) ;
#43 = FACE_OUTER_BOUND ( 'NONE', #244, .T. ) ;
#44 = CARTESIAN_POINT ( 'NONE',  ( 6.123233995736768501E-17, 0.0000000000000000000, 0.5000000000000000000 ) ) ;
#45 = MANIFOLD_SOLID_BREP ( 'Cut-Revolve1', #286 ) ;
#46 = CARTESIAN_POINT ( 'NONE',  ( -0.06243750000000001382, 0.0000000000000000000, 7.646388452176291997E-18 ) ) ;
#47 = DIRECTION ( 'NONE',  ( -1.224646799147353700E-16, -0.0000000000000000000, -1.000000000000000000 ) ) ;
#48 = LINE ( 'NONE', #275, #66 ) ;
#49 = AXIS2_PLACEMENT_3D ( 'NONE', #25, #231, #203 ) ;
#50 = DIRECTION ( 'NONE',  ( 0.7071067811865462405, 8.659560562354916834E-17, -0.7071067811865486830 ) ) ;
#51 = VERTEX_POINT ( 'NONE', #252 ) ;
#52 = CIRCLE ( 'NONE', #281, 0.06250000000000002776 ) ;
#53 =( CONVERSION_BASED_UNIT ( 'INCH', #73 ) LENGTH_UNIT ( ) NAMED_UNIT ( #283 ) );
#54 = VERTEX_POINT ( 'NONE', #192 ) ;
#55 = ORIENTED_EDGE ( 'NONE', *, *, #111, .F. ) ;
#56 = ORIENTED_EDGE ( 'NONE', *, *, #31, .T. ) ;
#57 = AXIS2_PLACEMENT_3D ( 'NONE', #258, #47, #6 ) ;
#58 = ORIENTED_EDGE ( 'NONE', *, *, #12, .T. ) ;
#59 = PRODUCT_DEFINITION_CONTEXT ( 'detailed design', #241, 'design' ) ;
#60 = DIRECTION ( 'NONE',  ( -1.224646799147353700E-16, -0.0000000000000000000, -1.000000000000000000 ) ) ;
#61 = EDGE_CURVE ( 'NONE', #29, #51, #52, .T. ) ;
#62 = CARTESIAN_POINT ( 'NONE',  ( 0.06250000000000008327, 7.654042494670966789E-18, 0.5003544551137261154 ) ) ;
#63 = DIRECTION ( 'NONE',  ( -1.224646799147353700E-16, -0.0000000000000000000, -1.000000000000000000 ) ) ;
#64 = FILL_AREA_STYLE ('',( #133 ) ) ;
#65 = FACE_OUTER_BOUND ( 'NONE', #214, .T. ) ;
#66 = VECTOR ( 'NONE', #182, 39.37007874015748143 ) ;
#67 = DIRECTION ( 'NONE',  ( 1.000000000000000000, 0.0000000000000000000, 0.0000000000000000000 ) ) ;
#68 = FACE_OUTER_BOUND ( 'NONE', #103, .T. ) ;
#69 = CARTESIAN_POINT ( 'NONE',  ( 0.06250000000000002776, 7.654042494670959086E-18, 1.500000000000000222 ) ) ;
#70 = EDGE_CURVE ( 'NONE', #169, #240, #249, .T. ) ;
#71 =( LENGTH_UNIT ( ) NAMED_UNIT ( * ) SI_UNIT ( $, .METRE. ) );
#72 = ORIENTED_EDGE ( 'NONE', *, *, #16, .T. ) ;
#73 = LENGTH_MEASURE_WITH_UNIT ( LENGTH_MEASURE( 0.02539999999999999897 ), #131 );
#74 = SURFACE_STYLE_USAGE ( .BOTH. , #9 ) ;
#75 = ORIENTED_EDGE ( 'NONE', *, *, #70, .F. ) ;
#76 = ORIENTED_EDGE ( 'NONE', *, *, #216, .F. ) ;
#77 = EDGE_LOOP ( 'NONE', ( #211, #176, #120, #190 ) ) ;
#78 =( GEOMETRIC_REPRESENTATION_CONTEXT ( 3 ) GLOBAL_UNCERTAINTY_ASSIGNED_CONTEXT ( ( #152 ) ) GLOBAL_UNIT_ASSIGNED_CONTEXT ( ( #299, #110, #248 ) ) REPRESENTATION_CONTEXT ( 'NONE', 'WORKASPACE' ) );
#79 = CARTESIAN_POINT ( 'NONE',  ( 0.0000000000000000000, 0.0000000000000000000, 1.500000000000000222 ) ) ;
#80 = FILL_AREA_STYLE ('',( #164 ) ) ;
#81 = LINE ( 'NONE', #14, #228 ) ;
#82 = ADVANCED_BREP_SHAPE_REPRESENTATION ( 'Micro_EMS-125-4', ( #45, #132 ), #246 ) ;
#83 = PLANE ( 'NONE',  #126 ) ;
#84 = PRESENTATION_STYLE_ASSIGNMENT (( #87 ) ) ;
#85 = VECTOR ( 'NONE', #93, 39.37007874015748143 ) ;
#86 = PRODUCT_RELATED_PRODUCT_CATEGORY ( 'part', '', ( #168 ) ) ;
#87 = SURFACE_STYLE_USAGE ( .BOTH. , #226 ) ;
#88 = DIRECTION ( 'NONE',  ( 0.0000000000000000000, 0.0000000000000000000, -1.000000000000000000 ) ) ;
#89 = DIRECTION ( 'NONE',  ( 0.0000000000000000000, 0.0000000000000000000, 1.000000000000000000 ) ) ;
#90 = MECHANICAL_DESIGN_GEOMETRIC_PRESENTATION_REPRESENTATION (  '', ( #239 ), #121 ) ;
#91 = LINE ( 'NONE', #277, #218 ) ;
#92 = CARTESIAN_POINT ( 'NONE',  ( -0.06243749999999995137, 7.650215473423624771E-18, 0.5000000000000000000 ) ) ;
#93 = DIRECTION ( 'NONE',  ( -0.0000000000000000000, -0.0000000000000000000, -1.000000000000000000 ) ) ;
#94 = COLOUR_RGB ( '',0.7921568627450980005, 0.8196078431372548767, 0.9333333333333333481 ) ;
#95 =( CONVERSION_BASED_UNIT ( 'INCH', #194 ) LENGTH_UNIT ( ) NAMED_UNIT ( #220 ) );
#96 = VERTEX_POINT ( 'NONE', #198 ) ;
#97 = ORIENTED_EDGE ( 'NONE', *, *, #61, .T. ) ;
#98 = CARTESIAN_POINT ( 'NONE',  ( 0.06243750000000006933, 0.0000000000000000000, 0.5000000000000000000 ) ) ;
#99 = VECTOR ( 'NONE', #130, 39.37007874015748143 ) ;
#100 = CONICAL_SURFACE ( 'NONE', #229, 0.06243750000000001382, 0.1745329251994337805 ) ;
#101 = VERTEX_POINT ( 'NONE', #298 ) ;
#102 = ADVANCED_FACE ( 'NONE', ( #273 ), #127, .T. ) ;
#103 = EDGE_LOOP ( 'NONE', ( #184, #293 ) ) ;
#104 = DIRECTION ( 'NONE',  ( 1.000000000000000000, 0.0000000000000000000, 0.0000000000000000000 ) ) ;
#105 = FACE_OUTER_BOUND ( 'NONE', #77, .T. ) ;
#106 = DIRECTION ( 'NONE',  ( -0.1736481776669310528, 2.126576849575781776E-17, 0.9848077530122080203 ) ) ;
#107 = UNCERTAINTY_MEASURE_WITH_UNIT (LENGTH_MEASURE( 1.000000000000000082E-05 ), #53, 'distance_accuracy_value', 'NONE');
#108 =( NAMED_UNIT ( * ) PLANE_ANGLE_UNIT ( ) SI_UNIT ( $, .RADIAN. ) );
#109 =( LENGTH_UNIT ( ) NAMED_UNIT ( * ) SI_UNIT ( $, .METRE. ) );
#110 =( NAMED_UNIT ( * ) PLANE_ANGLE_UNIT ( ) SI_UNIT ( $, .RADIAN. ) );
#111 = EDGE_CURVE ( 'NONE', #240, #35, #175, .T. ) ;
#112 = EDGE_LOOP ( 'NONE', ( #75, #147, #56, #125 ) ) ;
#113 = PLANE ( 'NONE',  #267 ) ;
#114 = EDGE_CURVE ( 'NONE', #285, #51, #91, .T. ) ;
#115 = DIRECTION ( 'NONE',  ( -1.000000000000000000, 0.0000000000000000000, 0.0000000000000000000 ) ) ;
#116 = DIRECTION ( 'NONE',  ( -1.224646799147353700E-16, -0.0000000000000000000, -1.000000000000000000 ) ) ;
#117 = DIRECTION ( 'NONE',  ( -1.000000000000000000, 0.0000000000000000000, 0.0000000000000000000 ) ) ;
#118 = CARTESIAN_POINT ( 'NONE',  ( -0.06250000000000002776, 0.0000000000000000000, 1.500000000000000222 ) ) ;
#119 = SHAPE_DEFINITION_REPRESENTATION ( #212, #82 ) ;
#120 = ORIENTED_EDGE ( 'NONE', *, *, #111, .T. ) ;
#121 =( GEOMETRIC_REPRESENTATION_CONTEXT ( 3 ) GLOBAL_UNCERTAINTY_ASSIGNED_CONTEXT ( ( #107 ) ) GLOBAL_UNIT_ASSIGNED_CONTEXT ( ( #53, #225, #238 ) ) REPRESENTATION_CONTEXT ( 'NONE', 'WORKASPACE' ) );
#122 = CARTESIAN_POINT ( 'NONE',  ( 0.0000000000000000000, 0.0000000000000000000, 1.485000000000000764 ) ) ;
#123 = ORIENTED_EDGE ( 'NONE', *, *, #208, .T. ) ;
#124 = EDGE_CURVE ( 'NONE', #169, #101, #181, .T. ) ;
#125 = ORIENTED_EDGE ( 'NONE', *, *, #24, .T. ) ;
#126 = AXIS2_PLACEMENT_3D ( 'NONE', #151, #136, #202 ) ;
#127 = CONICAL_SURFACE ( 'NONE', #166, 0.04750000000000064587, 0.7853981633974466137 ) ;
#128 = ORIENTED_EDGE ( 'NONE', *, *, #24, .F. ) ;
#129 = PRODUCT_DEFINITION ( 'UNKNOWN', '', #40, #59 ) ;
#130 = DIRECTION ( 'NONE',  ( 0.1736481776669312749, 0.0000000000000000000, 0.9848077530122077983 ) ) ;
#131 =( LENGTH_UNIT ( ) NAMED_UNIT ( * ) SI_UNIT ( $, .METRE. ) );
#132 = AXIS2_PLACEMENT_3D ( 'NONE', #284, #30, #213 ) ;
#133 = FILL_AREA_STYLE_COLOUR ( '', #234 ) ;
#134 = UNCERTAINTY_MEASURE_WITH_UNIT (LENGTH_MEASURE( 1.000000000000000082E-05 ), #95, 'distance_accuracy_value', 'NONE');
#135 = EDGE_CURVE ( 'NONE', #51, #35, #179, .T. ) ;
#136 = DIRECTION ( 'NONE',  ( 0.0000000000000000000, 0.0000000000000000000, 1.000000000000000000 ) ) ;
#137 = FACE_OUTER_BOUND ( 'NONE', #145, .T. ) ;
#138 = PRESENTATION_LAYER_ASSIGNMENT (  '', '', ( #239 ) ) ;
#139 = CARTESIAN_POINT ( 'NONE',  ( 0.0000000000000000000, 0.0000000000000000000, 0.0000000000000000000 ) ) ;
#140 = CARTESIAN_POINT ( 'NONE',  ( 0.0000000000000000000, 0.0000000000000000000, 0.0000000000000000000 ) ) ;
#141 = DIRECTION ( 'NONE',  ( 1.000000000000000000, 0.0000000000000000000, -0.0000000000000000000 ) ) ;
#142 = DIRECTION ( 'NONE',  ( 0.0000000000000000000, 0.0000000000000000000, 1.000000000000000000 ) ) ;
#143 = ADVANCED_FACE ( 'NONE', ( #160 ), #23, .T. ) ;
#144 = PRODUCT_CONTEXT ( 'NONE', #257, 'mechanical' ) ;
#145 = EDGE_LOOP ( 'NONE', ( #185, #242, #219, #215 ) ) ;
#146 = EDGE_LOOP ( 'NONE', ( #163, #13, #266, #188 ) ) ;
#147 = ORIENTED_EDGE ( 'NONE', *, *, #272, .F. ) ;
#148 = EDGE_LOOP ( 'NONE', ( #253, #287, #291, #76 ) ) ;
#149 = CIRCLE ( 'NONE', #57, 0.06243749999999999994 ) ;
#150 = ORIENTED_EDGE ( 'NONE', *, *, #278, .F. ) ;
#151 = CARTESIAN_POINT ( 'NONE',  ( 0.0000000000000000000, 0.0000000000000000000, 1.500000000000000222 ) ) ;
#152 = UNCERTAINTY_MEASURE_WITH_UNIT (LENGTH_MEASURE( 1.000000000000000082E-05 ), #299, 'distance_accuracy_value', 'NONE');
#153 = CARTESIAN_POINT ( 'NONE',  ( 0.0000000000000000000, 0.0000000000000000000, 1.500000000000000222 ) ) ;
#154 = CIRCLE ( 'NONE', #187, 0.06250000000000002776 ) ;
#155 = FACE_OUTER_BOUND ( 'NONE', #11, .T. ) ;
#156 = CARTESIAN_POINT ( 'NONE',  ( 0.0000000000000000000, 0.0000000000000000000, 1.500000000000000222 ) ) ;
#157 = CARTESIAN_POINT ( 'NONE',  ( 6.123233995736768501E-17, 0.0000000000000000000, 0.5000000000000000000 ) ) ;
#158 = LINE ( 'NONE', #118, #183 ) ;
#159 = DIRECTION ( 'NONE',  ( -0.0000000000000000000, -0.0000000000000000000, -1.000000000000000000 ) ) ;
#160 = FACE_OUTER_BOUND ( 'NONE', #148, .T. ) ;
#161 = CIRCLE ( 'NONE', #34, 0.06243750000000001382 ) ;
#162 = DIRECTION ( 'NONE',  ( 0.0000000000000000000, 0.0000000000000000000, -1.000000000000000000 ) ) ;
#163 = ORIENTED_EDGE ( 'NONE', *, *, #16, .F. ) ;
#164 = FILL_AREA_STYLE_COLOUR ( '', #94 ) ;
#165 = ORIENTED_EDGE ( 'NONE', *, *, #278, .T. ) ;
#166 = AXIS2_PLACEMENT_3D ( 'NONE', #276, #88, #279 ) ;
#167 = PRESENTATION_STYLE_ASSIGNMENT (( #74 ) ) ;
#168 = PRODUCT ( 'Micro_EMS-125-4', 'Micro_EMS-125-4', '', ( #144 ) ) ;
#169 = VERTEX_POINT ( 'NONE', #92 ) ;
#170 = CARTESIAN_POINT ( 'NONE',  ( 6.127574818941429733E-17, 0.0000000000000000000, 0.5003544551137261154 ) ) ;
#171 = DIRECTION ( 'NONE',  ( 1.000000000000000000, 0.0000000000000000000, 0.0000000000000000000 ) ) ;
#172 = DIRECTION ( 'NONE',  ( -0.7071067811865462405, 0.0000000000000000000, -0.7071067811865486830 ) ) ;
#173 = ADVANCED_FACE ( 'NONE', ( #68 ), #113, .F. ) ;
#174 = DIRECTION ( 'NONE',  ( 1.000000000000000000, 0.0000000000000000000, 0.0000000000000000000 ) ) ;
#175 = CIRCLE ( 'NONE', #49, 0.06250000000000002776 ) ;
#176 = ORIENTED_EDGE ( 'NONE', *, *, #70, .T. ) ;
#177 = ORIENTED_EDGE ( 'NONE', *, *, #208, .F. ) ;
#178 = FACE_OUTER_BOUND ( 'NONE', #112, .T. ) ;
#179 = LINE ( 'NONE', #69, #85 ) ;
#180 = DIRECTION ( 'NONE',  ( -1.000000000000000000, 0.0000000000000000000, 1.224646799147353700E-16 ) ) ;
#181 = LINE ( 'NONE', #46, #224 ) ;
#182 = DIRECTION ( 'NONE',  ( -1.224646799147353700E-16, -0.0000000000000000000, -1.000000000000000000 ) ) ;
#183 = VECTOR ( 'NONE', #259, 39.37007874015748143 ) ;
#184 = ORIENTED_EDGE ( 'NONE', *, *, #4, .T. ) ;
#185 = ORIENTED_EDGE ( 'NONE', *, *, #260, .T. ) ;
#186 = APPLICATION_PROTOCOL_DEFINITION ( 'draft international standard', 'automotive_design', 1998, #241 ) ;
#187 = AXIS2_PLACEMENT_3D ( 'NONE', #170, #63, #104 ) ;
#188 = ORIENTED_EDGE ( 'NONE', *, *, #12, .F. ) ;
#189 = ADVANCED_FACE ( 'NONE', ( #178 ), #207, .T. ) ;
#190 = ORIENTED_EDGE ( 'NONE', *, *, #31, .F. ) ;
#191 = ADVANCED_FACE ( 'NONE', ( #206 ), #21, .T. ) ;
#192 = CARTESIAN_POINT ( 'NONE',  ( -0.04750000000000064587, 0.0000000000000000000, 1.500000000000000222 ) ) ;
#193 = AXIS2_PLACEMENT_3D ( 'NONE', #3, #89, #67 ) ;
#194 = LENGTH_MEASURE_WITH_UNIT ( LENGTH_MEASURE( 0.02539999999999999897 ), #71 );
#195 = CARTESIAN_POINT ( 'NONE',  ( 9.364125142994982608E-34, 0.0000000000000000000, 7.646388452176290456E-18 ) ) ;
#196 = DIRECTION ( 'NONE',  ( 1.000000000000000000, 0.0000000000000000000, 0.0000000000000000000 ) ) ;
#197 = LENGTH_MEASURE_WITH_UNIT ( LENGTH_MEASURE( 0.02539999999999999897 ), #109 );
#198 = CARTESIAN_POINT ( 'NONE',  ( 0.06243749999999999994, 7.646388452176287375E-18, -9.478001694819074349E-34 ) ) ;
#199 = AXIS2_PLACEMENT_3D ( 'NONE', #195, #60, #297 ) ;
#200 = AXIS2_PLACEMENT_3D ( 'NONE', #153, #250, #274 ) ;
#201 = CIRCLE ( 'NONE', #262, 0.06243750000000001382 ) ;
#202 = DIRECTION ( 'NONE',  ( 1.000000000000000000, 0.0000000000000000000, -0.0000000000000000000 ) ) ;
#203 = DIRECTION ( 'NONE',  ( 1.000000000000000000, 0.0000000000000000000, 0.0000000000000000000 ) ) ;
#204 = EDGE_CURVE ( 'NONE', #29, #240, #158, .T. ) ;
#205 = DIRECTION ( 'NONE',  ( 1.224646799147353700E-16, 0.0000000000000000000, 1.000000000000000000 ) ) ;
#206 = FACE_OUTER_BOUND ( 'NONE', #32, .T. ) ;
#207 = CONICAL_SURFACE ( 'NONE', #28, 0.06243750000000001382, 0.1745329251994337805 ) ;
#208 = EDGE_CURVE ( 'NONE', #54, #285, #22, .T. ) ;
#209 = CARTESIAN_POINT ( 'NONE',  ( 6.123233995736768501E-17, 0.0000000000000000000, 0.5000000000000000000 ) ) ;
#210 = CARTESIAN_POINT ( 'NONE',  ( -0.06249999999999996531, 0.0000000000000000000, 0.5003544551137261154 ) ) ;
#211 = ORIENTED_EDGE ( 'NONE', *, *, #260, .F. ) ;
#212 = PRODUCT_DEFINITION_SHAPE ( 'NONE', 'NONE',  #129 ) ;
#213 = DIRECTION ( 'NONE',  ( 1.000000000000000000, 0.0000000000000000000, 0.0000000000000000000 ) ) ;
#214 = EDGE_LOOP ( 'NONE', ( #97, #8, #55, #245 ) ) ;
#215 = ORIENTED_EDGE ( 'NONE', *, *, #124, .F. ) ;
#216 = EDGE_CURVE ( 'NONE', #96, #101, #149, .T. ) ;
#217 = MECHANICAL_DESIGN_GEOMETRIC_PRESENTATION_REPRESENTATION (  '', ( #280 ), #78 ) ;
#218 = VECTOR ( 'NONE', #50, 39.37007874015748854 ) ;
#219 = ORIENTED_EDGE ( 'NONE', *, *, #4, .F. ) ;
#220 = DIMENSIONAL_EXPONENTS ( 1.000000000000000000, 0.0000000000000000000, 0.0000000000000000000, 0.0000000000000000000, 0.0000000000000000000, 0.0000000000000000000, 0.0000000000000000000 ) ;
#221 = ORIENTED_EDGE ( 'NONE', *, *, #135, .F. ) ;
#222 = APPLICATION_PROTOCOL_DEFINITION ( 'draft international standard', 'automotive_design', 1998, #257 ) ;
#223 = SURFACE_STYLE_FILL_AREA ( #64 ) ;
#224 = VECTOR ( 'NONE', #116, 39.37007874015748143 ) ;
#225 =( NAMED_UNIT ( * ) PLANE_ANGLE_UNIT ( ) SI_UNIT ( $, .RADIAN. ) );
#226 = SURFACE_SIDE_STYLE ('',( #223 ) ) ;
#227 = DIRECTION ( 'NONE',  ( 1.000000000000000000, 0.0000000000000000000, 0.0000000000000000000 ) ) ;
#228 = VECTOR ( 'NONE', #172, 39.37007874015748854 ) ;
#229 = AXIS2_PLACEMENT_3D ( 'NONE', #268, #296, #196 ) ;
#230 = CYLINDRICAL_SURFACE ( 'NONE', #7, 0.06243750000000001382 ) ;
#231 = DIRECTION ( 'NONE',  ( -1.224646799147353700E-16, -0.0000000000000000000, -1.000000000000000000 ) ) ;
#232 = EDGE_CURVE ( 'NONE', #292, #96, #48, .T. ) ;
#233 = DIRECTION ( 'NONE',  ( 1.000000000000000000, 0.0000000000000000000, 0.0000000000000000000 ) ) ;
#234 = COLOUR_RGB ( '',0.7921568627450980005, 0.8196078431372548767, 0.9333333333333333481 ) ;
#235 = DIRECTION ( 'NONE',  ( -0.0000000000000000000, -0.0000000000000000000, -1.000000000000000000 ) ) ;
#236 = AXIS2_PLACEMENT_3D ( 'NONE', #140, #1, #180 ) ;
#237 = CARTESIAN_POINT ( 'NONE',  ( 0.0000000000000000000, 0.0000000000000000000, 1.500000000000000222 ) ) ;
#238 =( NAMED_UNIT ( * ) SI_UNIT ( $, .STERADIAN. ) SOLID_ANGLE_UNIT ( ) );
#239 = STYLED_ITEM ( 'NONE', ( #167 ), #82 ) ;
#240 = VERTEX_POINT ( 'NONE', #210 ) ;
#241 = APPLICATION_CONTEXT ( 'automotive_design' ) ;
#242 = ORIENTED_EDGE ( 'NONE', *, *, #232, .T. ) ;
#243 = ADVANCED_FACE ( 'NONE', ( #65 ), #282, .T. ) ;
#244 = EDGE_LOOP ( 'NONE', ( #27, #177, #58, #150 ) ) ;
#245 = ORIENTED_EDGE ( 'NONE', *, *, #204, .F. ) ;
#246 =( GEOMETRIC_REPRESENTATION_CONTEXT ( 3 ) GLOBAL_UNCERTAINTY_ASSIGNED_CONTEXT ( ( #134 ) ) GLOBAL_UNIT_ASSIGNED_CONTEXT ( ( #95, #108, #15 ) ) REPRESENTATION_CONTEXT ( 'NONE', 'WORKASPACE' ) );
#247 = AXIS2_PLACEMENT_3D ( 'NONE', #237, #159, #2 ) ;
#248 =( NAMED_UNIT ( * ) SI_UNIT ( $, .STERADIAN. ) SOLID_ANGLE_UNIT ( ) );
#249 = LINE ( 'NONE', #17, #10 ) ;
#250 = DIRECTION ( 'NONE',  ( 0.0000000000000000000, 0.0000000000000000000, -1.000000000000000000 ) ) ;
#251 = AXIS2_PLACEMENT_3D ( 'NONE', #156, #235, #117 ) ;
#252 = CARTESIAN_POINT ( 'NONE',  ( 0.06250000000000002776, 7.654042494670959086E-18, 1.485000000000000764 ) ) ;
#253 = ORIENTED_EDGE ( 'NONE', *, *, #232, .F. ) ;
#254 = DIRECTION ( 'NONE',  ( -1.000000000000000000, 0.0000000000000000000, 0.0000000000000000000 ) ) ;
#255 = CONICAL_SURFACE ( 'NONE', #200, 0.04750000000000064587, 0.7853981633974466137 ) ;
#256 = DIRECTION ( 'NONE',  ( -1.224646799147353700E-16, -0.0000000000000000000, -1.000000000000000000 ) ) ;
#257 = APPLICATION_CONTEXT ( 'automotive_design' ) ;
#258 = CARTESIAN_POINT ( 'NONE',  ( 9.364125142994982608E-34, 0.0000000000000000000, 7.646388452176290456E-18 ) ) ;
#259 = DIRECTION ( 'NONE',  ( -0.0000000000000000000, -0.0000000000000000000, -1.000000000000000000 ) ) ;
#260 = EDGE_CURVE ( 'NONE', #169, #292, #201, .T. ) ;
#261 = CARTESIAN_POINT ( 'NONE',  ( 0.0000000000000000000, 0.0000000000000000000, 0.0000000000000000000 ) ) ;
#262 = AXIS2_PLACEMENT_3D ( 'NONE', #209, #5, #254 ) ;
#263 = ORIENTED_EDGE ( 'NONE', *, *, #204, .T. ) ;
#264 = ADVANCED_FACE ( 'NONE', ( #137 ), #230, .T. ) ;
#265 = CIRCLE ( 'NONE', #271, 0.06250000000000002776 ) ;
#266 = ORIENTED_EDGE ( 'NONE', *, *, #61, .F. ) ;
#267 = AXIS2_PLACEMENT_3D ( 'NONE', #261, #142, #141 ) ;
#268 = CARTESIAN_POINT ( 'NONE',  ( 6.123233995736768501E-17, 0.0000000000000000000, 0.5000000000000000000 ) ) ;
#269 = DIRECTION ( 'NONE',  ( 0.0000000000000000000, 0.0000000000000000000, 1.000000000000000000 ) ) ;
#270 = PRESENTATION_LAYER_ASSIGNMENT (  '', '', ( #280 ) ) ;
#271 = AXIS2_PLACEMENT_3D ( 'NONE', #122, #162, #171 ) ;
#272 = EDGE_CURVE ( 'NONE', #292, #169, #161, .T. ) ;
#273 = FACE_OUTER_BOUND ( 'NONE', #146, .T. ) ;
#274 = DIRECTION ( 'NONE',  ( -1.000000000000000000, 0.0000000000000000000, 0.0000000000000000000 ) ) ;
#275 = CARTESIAN_POINT ( 'NONE',  ( 0.06243750000000001382, 7.646388452176288915E-18, -7.646388452176291997E-18 ) ) ;
#276 = CARTESIAN_POINT ( 'NONE',  ( 0.0000000000000000000, 0.0000000000000000000, 1.500000000000000222 ) ) ;
#277 = CARTESIAN_POINT ( 'NONE',  ( 0.04750000000000064587, 5.817072295950006528E-18, 1.500000000000000222 ) ) ;
#278 = EDGE_CURVE ( 'NONE', #51, #29, #265, .T. ) ;
#279 = DIRECTION ( 'NONE',  ( -1.000000000000000000, 0.0000000000000000000, 0.0000000000000000000 ) ) ;
#280 = STYLED_ITEM ( 'NONE', ( #84 ), #45 ) ;
#281 = AXIS2_PLACEMENT_3D ( 'NONE', #295, #42, #227 ) ;
#282 = CYLINDRICAL_SURFACE ( 'NONE', #251, 0.06250000000000002776 ) ;
#283 = DIMENSIONAL_EXPONENTS ( 1.000000000000000000, 0.0000000000000000000, 0.0000000000000000000, 0.0000000000000000000, 0.0000000000000000000, 0.0000000000000000000, 0.0000000000000000000 ) ;
#284 = CARTESIAN_POINT ( 'NONE',  ( 0.0000000000000000000, 0.0000000000000000000, 0.0000000000000000000 ) ) ;
#285 = VERTEX_POINT ( 'NONE', #26 ) ;
#286 = CLOSED_SHELL ( 'NONE', ( #264, #288, #102, #243, #191, #38, #41, #189, #143, #173 ) ) ;
#287 = ORIENTED_EDGE ( 'NONE', *, *, #272, .T. ) ;
#288 = ADVANCED_FACE ( 'NONE', ( #105 ), #100, .T. ) ;
#289 = SURFACE_STYLE_FILL_AREA ( #80 ) ;
#290 = AXIS2_PLACEMENT_3D ( 'NONE', #79, #269, #174 ) ;
#291 = ORIENTED_EDGE ( 'NONE', *, *, #124, .T. ) ;
#292 = VERTEX_POINT ( 'NONE', #98 ) ;
#293 = ORIENTED_EDGE ( 'NONE', *, *, #216, .T. ) ;
#294 = DIMENSIONAL_EXPONENTS ( 1.000000000000000000, 0.0000000000000000000, 0.0000000000000000000, 0.0000000000000000000, 0.0000000000000000000, 0.0000000000000000000, 0.0000000000000000000 ) ;
#295 = CARTESIAN_POINT ( 'NONE',  ( 0.0000000000000000000, 0.0000000000000000000, 1.485000000000000764 ) ) ;
#296 = DIRECTION ( 'NONE',  ( 1.224646799147353700E-16, 0.0000000000000000000, 1.000000000000000000 ) ) ;
#297 = DIRECTION ( 'NONE',  ( -1.000000000000000000, 0.0000000000000000000, 1.224646799147353947E-16 ) ) ;
#298 = CARTESIAN_POINT ( 'NONE',  ( -0.06243749999999999994, 0.0000000000000000000, 1.529277690435258091E-17 ) ) ;
#299 =( CONVERSION_BASED_UNIT ( 'INCH', #197 ) LENGTH_UNIT ( ) NAMED_UNIT ( #294 ) );
ENDSEC;
END-ISO-10303-21;
