ISO-10303-21;
HEADER;
FILE_DESCRIPTION (( 'STEP AP214' ),
    '1' );
FILE_NAME ('Micro_DM-625-2120X.STEP',
    '2021-09-02T16:08:57',
    ( '' ),
    ( '' ),
    'SwSTEP 2.0',
    'SolidWorks 2020',
    '' );
FILE_SCHEMA (( 'AUTOMOTIVE_DESIGN' ));
ENDSEC;

DATA;
#1 = CIRCLE ( 'NONE', #79, 0.2975000000000003197 ) ;
#2 = PRESENTATION_STYLE_ASSIGNMENT (( #52 ) ) ;
#3 = AXIS2_PLACEMENT_3D ( 'NONE', #265, #32, #314 ) ;
#4 = ADVANCED_FACE ( 'NONE', ( #36 ), #173, .F. ) ;
#5 = CARTESIAN_POINT ( 'NONE',  ( 0.0000000000000000000, 0.0000000000000000000, 1.707404996040164512E-17 ) ) ;
#6 = CYLINDRICAL_SURFACE ( 'NONE', #151, 0.3125000000000000000 ) ;
#7 = AXIS2_PLACEMENT_3D ( 'NONE', #269, #39, #17 ) ;
#8 = UNCERTAINTY_MEASURE_WITH_UNIT (LENGTH_MEASURE( 1.000000000000000082E-05 ), #281, 'distance_accuracy_value', 'NONE');
#9 =( LENGTH_UNIT ( ) NAMED_UNIT ( * ) SI_UNIT ( $, .METRE. ) );
#10 = CARTESIAN_POINT ( 'NONE',  ( 0.0000000000000000000, 0.0000000000000000000, 3.484999999999999432 ) ) ;
#11 = DIRECTION ( 'NONE',  ( -1.000000000000000000, 0.0000000000000000000, 0.0000000000000000000 ) ) ;
#12 = PLANE ( 'NONE',  #309 ) ;
#13 = ORIENTED_EDGE ( 'NONE', *, *, #115, .F. ) ;
#14 = AXIS2_PLACEMENT_3D ( 'NONE', #215, #136, #11 ) ;
#15 = ORIENTED_EDGE ( 'NONE', *, *, #86, .F. ) ;
#16 = EDGE_LOOP ( 'NONE', ( #18, #249, #169, #268 ) ) ;
#17 = DIRECTION ( 'NONE',  ( -1.000000000000000000, 0.0000000000000000000, 0.0000000000000000000 ) ) ;
#18 = ORIENTED_EDGE ( 'NONE', *, *, #259, .F. ) ;
#19 = EDGE_CURVE ( 'NONE', #321, #294, #276, .T. ) ;
#20 = AXIS2_PLACEMENT_3D ( 'NONE', #142, #245, #119 ) ;
#21 =( CONVERSION_BASED_UNIT ( 'INCH', #252 ) LENGTH_UNIT ( ) NAMED_UNIT ( #178 ) );
#22 = CIRCLE ( 'NONE', #185, 0.3124500000000002276 ) ;
#23 = CARTESIAN_POINT ( 'NONE',  ( -0.007499999999999999722, 1.959128716935978978E-17, 1.707404996040164512E-17 ) ) ;
#24 = ORIENTED_EDGE ( 'NONE', *, *, #82, .F. ) ;
#25 = VECTOR ( 'NONE', #49, 39.37007874015748143 ) ;
#26 = CONICAL_SURFACE ( 'NONE', #123, 0.007499999999999999722, 1.047197551196600518 ) ;
#27 = CARTESIAN_POINT ( 'NONE',  ( 0.0000000000000000000, 0.0000000000000000000, 3.500000000000000000 ) ) ;
#28 = CARTESIAN_POINT ( 'NONE',  ( 0.3124500000000002276, 0.0000000000000000000, 1.250000000000000000 ) ) ;
#29 = CARTESIAN_POINT ( 'NONE',  ( 0.0000000000000000000, 0.0000000000000000000, 0.0000000000000000000 ) ) ;
#30 = STYLED_ITEM ( 'NONE', ( #2 ), #90 ) ;
#31 = ADVANCED_FACE ( 'NONE', ( #197 ), #227, .T. ) ;
#32 = DIRECTION ( 'NONE',  ( 0.0000000000000000000, 0.0000000000000000000, 1.000000000000000000 ) ) ;
#33 = DIRECTION ( 'NONE',  ( 1.000000000000000000, 0.0000000000000000000, 0.0000000000000000000 ) ) ;
#34 = DIRECTION ( 'NONE',  ( 1.000000000000000000, 0.0000000000000000000, -0.0000000000000000000 ) ) ;
#35 = EDGE_CURVE ( 'NONE', #274, #301, #84, .T. ) ;
#36 = FACE_OUTER_BOUND ( 'NONE', #64, .T. ) ;
#37 = AXIS2_PLACEMENT_3D ( 'NONE', #126, #146, #34 ) ;
#38 = ORIENTED_EDGE ( 'NONE', *, *, #207, .F. ) ;
#39 = DIRECTION ( 'NONE',  ( -0.0000000000000000000, -0.0000000000000000000, -1.000000000000000000 ) ) ;
#40 = DIRECTION ( 'NONE',  ( 0.7071067811865346942, 8.659560562354773853E-17, -0.7071067811865603403 ) ) ;
#41 = ORIENTED_EDGE ( 'NONE', *, *, #156, .T. ) ;
#42 = DIRECTION ( 'NONE',  ( 0.0000000000000000000, 0.0000000000000000000, -1.000000000000000000 ) ) ;
#43 = ORIENTED_EDGE ( 'NONE', *, *, #77, .F. ) ;
#44 = ORIENTED_EDGE ( 'NONE', *, *, #35, .F. ) ;
#45 = AXIS2_PLACEMENT_3D ( 'NONE', #29, #138, #241 ) ;
#46 = EDGE_CURVE ( 'NONE', #71, #293, #68, .T. ) ;
#47 = DIRECTION ( 'NONE',  ( 1.000000000000000000, 0.0000000000000000000, 0.0000000000000000000 ) ) ;
#48 = EDGE_CURVE ( 'NONE', #251, #294, #167, .T. ) ;
#49 = DIRECTION ( 'NONE',  ( -0.0000000000000000000, -0.0000000000000000000, -1.000000000000000000 ) ) ;
#50 = AXIS2_PLACEMENT_3D ( 'NONE', #319, #297, #162 ) ;
#51 = CARTESIAN_POINT ( 'NONE',  ( 0.0000000000000000000, 0.0000000000000000000, 0.0000000000000000000 ) ) ;
#52 = SURFACE_STYLE_USAGE ( .BOTH. , #236 ) ;
#53 = DIRECTION ( 'NONE',  ( -1.000000000000000000, 0.0000000000000000000, 0.0000000000000000000 ) ) ;
#54 = UNCERTAINTY_MEASURE_WITH_UNIT (LENGTH_MEASURE( 1.000000000000000082E-05 ), #21, 'distance_accuracy_value', 'NONE');
#55 = FACE_OUTER_BOUND ( 'NONE', #147, .T. ) ;
#56 = CARTESIAN_POINT ( 'NONE',  ( 0.0000000000000000000, 0.0000000000000000000, 1.250000000000000000 ) ) ;
#57 = PRESENTATION_LAYER_ASSIGNMENT (  '', '', ( #266 ) ) ;
#58 = CIRCLE ( 'NONE', #59, 0.3125000000000000000 ) ;
#59 = AXIS2_PLACEMENT_3D ( 'NONE', #170, #101, #326 ) ;
#60 = VECTOR ( 'NONE', #40, 39.37007874015748143 ) ;
#61 = CIRCLE ( 'NONE', #254, 0.3125000000000000000 ) ;
#62 = FACE_OUTER_BOUND ( 'NONE', #198, .T. ) ;
#63 = VERTEX_POINT ( 'NONE', #144 ) ;
#64 = EDGE_LOOP ( 'NONE', ( #41, #102 ) ) ;
#65 = ORIENTED_EDGE ( 'NONE', *, *, #312, .F. ) ;
#66 = EDGE_LOOP ( 'NONE', ( #93, #94, #323, #95 ) ) ;
#67 = DIRECTION ( 'NONE',  ( -1.000000000000000000, 0.0000000000000000000, 0.0000000000000000000 ) ) ;
#68 = LINE ( 'NONE', #168, #315 ) ;
#69 = CARTESIAN_POINT ( 'NONE',  ( -0.3125000000000000000, 0.0000000000000000000, 3.484999999999999432 ) ) ;
#70 = DIRECTION ( 'NONE',  ( -0.0000000000000000000, -0.0000000000000000000, -1.000000000000000000 ) ) ;
#71 = VERTEX_POINT ( 'NONE', #23 ) ;
#72 = APPLICATION_PROTOCOL_DEFINITION ( 'draft international standard', 'automotive_design', 1998, #308 ) ;
#73 = ORIENTED_EDGE ( 'NONE', *, *, #186, .F. ) ;
#74 = ORIENTED_EDGE ( 'NONE', *, *, #127, .T. ) ;
#75 = CARTESIAN_POINT ( 'NONE',  ( -0.3124500000000002276, 0.0000000000000000000, 1.250000000000000000 ) ) ;
#76 = MECHANICAL_DESIGN_GEOMETRIC_PRESENTATION_REPRESENTATION (  '', ( #266 ), #303 ) ;
#77 = EDGE_CURVE ( 'NONE', #301, #63, #230, .T. ) ;
#78 = PRODUCT ( 'Micro_DM-625-2120X', 'Micro_DM-625-2120X', '', ( #154 ) ) ;
#79 = AXIS2_PLACEMENT_3D ( 'NONE', #229, #302, #47 ) ;
#80 =( LENGTH_UNIT ( ) NAMED_UNIT ( * ) SI_UNIT ( $, .METRE. ) );
#81 = AXIS2_PLACEMENT_3D ( 'NONE', #5, #238, #33 ) ;
#82 = EDGE_CURVE ( 'NONE', #274, #293, #250, .T. ) ;
#83 = DIRECTION ( 'NONE',  ( -0.0000000000000000000, -0.0000000000000000000, -1.000000000000000000 ) ) ;
#84 = CIRCLE ( 'NONE', #50, 0.3124500000000002276 ) ;
#85 = DIRECTION ( 'NONE',  ( -1.000000000000000000, 0.0000000000000000000, 0.0000000000000000000 ) ) ;
#86 = EDGE_CURVE ( 'NONE', #120, #63, #107, .T. ) ;
#87 = PRODUCT_DEFINITION_SHAPE ( 'NONE', 'NONE',  #320 ) ;
#88 = CARTESIAN_POINT ( 'NONE',  ( 0.3125000000000000000, 3.827021247335478926E-17, 1.250000000000000000 ) ) ;
#89 = DIRECTION ( 'NONE',  ( 0.0000000000000000000, 0.0000000000000000000, 1.000000000000000000 ) ) ;
#90 = ADVANCED_BREP_SHAPE_REPRESENTATION ( 'Micro_DM-625-2120X', ( #214, #183 ), #216 ) ;
#91 = AXIS2_PLACEMENT_3D ( 'NONE', #116, #212, #85 ) ;
#92 = LINE ( 'NONE', #187, #149 ) ;
#93 = ORIENTED_EDGE ( 'NONE', *, *, #46, .F. ) ;
#94 = ORIENTED_EDGE ( 'NONE', *, *, #156, .F. ) ;
#95 = ORIENTED_EDGE ( 'NONE', *, *, #312, .T. ) ;
#96 = CARTESIAN_POINT ( 'NONE',  ( 0.0000000000000000000, 0.0000000000000000000, 0.0000000000000000000 ) ) ;
#97 = ORIENTED_EDGE ( 'NONE', *, *, #115, .T. ) ;
#98 = DIRECTION ( 'NONE',  ( -1.000000000000000000, 0.0000000000000000000, 0.0000000000000000000 ) ) ;
#99 = ORIENTED_EDGE ( 'NONE', *, *, #172, .F. ) ;
#100 = EDGE_LOOP ( 'NONE', ( #192, #99, #325, #38 ) ) ;
#101 = DIRECTION ( 'NONE',  ( -0.0000000000000000000, -0.0000000000000000000, -1.000000000000000000 ) ) ;
#102 = ORIENTED_EDGE ( 'NONE', *, *, #239, .T. ) ;
#103 = ORIENTED_EDGE ( 'NONE', *, *, #207, .T. ) ;
#104 = DIRECTION ( 'NONE',  ( -1.000000000000000000, 0.0000000000000000000, 0.0000000000000000000 ) ) ;
#105 = FILL_AREA_STYLE ('',( #256 ) ) ;
#106 = ADVANCED_FACE ( 'NONE', ( #133, #263 ), #12, .T. ) ;
#107 = LINE ( 'NONE', #283, #270 ) ;
#108 = LENGTH_MEASURE_WITH_UNIT ( LENGTH_MEASURE( 0.02539999999999999897 ), #80 );
#109 = ADVANCED_FACE ( 'NONE', ( #290 ), #242, .T. ) ;
#110 = CONICAL_SURFACE ( 'NONE', #81, 0.007499999999999999722, 1.047197551196600518 ) ;
#111 = FACE_OUTER_BOUND ( 'NONE', #194, .T. ) ;
#112 = ADVANCED_FACE ( 'NONE', ( #111 ), #307, .T. ) ;
#113 = DIRECTION ( 'NONE',  ( -1.000000000000000000, 0.0000000000000000000, 0.0000000000000000000 ) ) ;
#114 = LINE ( 'NONE', #155, #200 ) ;
#115 = EDGE_CURVE ( 'NONE', #294, #188, #92, .T. ) ;
#116 = CARTESIAN_POINT ( 'NONE',  ( 0.0000000000000000000, 0.0000000000000000000, 0.1760629645893753426 ) ) ;
#117 = EDGE_LOOP ( 'NONE', ( #43, #223, #296, #65 ) ) ;
#118 = ORIENTED_EDGE ( 'NONE', *, *, #231, .T. ) ;
#119 = DIRECTION ( 'NONE',  ( 1.000000000000000000, 0.0000000000000000000, 0.0000000000000000000 ) ) ;
#120 = VERTEX_POINT ( 'NONE', #286 ) ;
#121 = CARTESIAN_POINT ( 'NONE',  ( 0.3125000000000000000, 3.827021247335478926E-17, 3.484999999999999432 ) ) ;
#122 = ORIENTED_EDGE ( 'NONE', *, *, #127, .F. ) ;
#123 = AXIS2_PLACEMENT_3D ( 'NONE', #240, #89, #161 ) ;
#124 = VERTEX_POINT ( 'NONE', #267 ) ;
#125 =( NAMED_UNIT ( * ) SI_UNIT ( $, .STERADIAN. ) SOLID_ANGLE_UNIT ( ) );
#126 = CARTESIAN_POINT ( 'NONE',  ( 0.0000000000000000000, 0.0000000000000000000, 0.0000000000000000000 ) ) ;
#127 = EDGE_CURVE ( 'NONE', #321, #124, #114, .T. ) ;
#128 = DIRECTION ( 'NONE',  ( 0.8660254037844400399, 0.0000000000000000000, 0.4999999999999976685 ) ) ;
#129 = SURFACE_STYLE_FILL_AREA ( #233 ) ;
#130 = ADVANCED_FACE ( 'NONE', ( #62 ), #110, .T. ) ;
#131 = CIRCLE ( 'NONE', #279, 0.007499999999999999722 ) ;
#132 = ADVANCED_FACE ( 'NONE', ( #140 ), #26, .T. ) ;
#133 = FACE_BOUND ( 'NONE', #164, .T. ) ;
#134 = EDGE_CURVE ( 'NONE', #317, #321, #159, .T. ) ;
#135 = PRESENTATION_STYLE_ASSIGNMENT (( #304 ) ) ;
#136 = DIRECTION ( 'NONE',  ( -0.0000000000000000000, -0.0000000000000000000, -1.000000000000000000 ) ) ;
#137 = PRESENTATION_LAYER_ASSIGNMENT (  '', '', ( #30 ) ) ;
#138 = DIRECTION ( 'NONE',  ( -0.0000000000000000000, -0.0000000000000000000, -1.000000000000000000 ) ) ;
#139 = DIRECTION ( 'NONE',  ( -0.0000000000000000000, -0.0000000000000000000, -1.000000000000000000 ) ) ;
#140 = FACE_OUTER_BOUND ( 'NONE', #66, .T. ) ;
#141 = EDGE_CURVE ( 'NONE', #293, #63, #176, .T. ) ;
#142 = CARTESIAN_POINT ( 'NONE',  ( 0.0000000000000000000, 0.0000000000000000000, 3.484999999999999432 ) ) ;
#143 = ORIENTED_EDGE ( 'NONE', *, *, #77, .T. ) ;
#144 = CARTESIAN_POINT ( 'NONE',  ( 0.3124500000000001720, 0.0000000000000000000, 0.1760629645893753426 ) ) ;
#145 = EDGE_LOOP ( 'NONE', ( #218, #195 ) ) ;
#146 = DIRECTION ( 'NONE',  ( 0.0000000000000000000, 0.0000000000000000000, 1.000000000000000000 ) ) ;
#147 = EDGE_LOOP ( 'NONE', ( #255, #143, #220, #24 ) ) ;
#148 = CARTESIAN_POINT ( 'NONE',  ( -0.2975000000000003197, 0.0000000000000000000, 3.500000000000000000 ) ) ;
#149 = VECTOR ( 'NONE', #313, 39.37007874015748143 ) ;
#150 = CARTESIAN_POINT ( 'NONE',  ( 0.2975000000000003197, 3.643324227463378817E-17, 3.500000000000000000 ) ) ;
#151 = AXIS2_PLACEMENT_3D ( 'NONE', #27, #211, #53 ) ;
#152 = FACE_OUTER_BOUND ( 'NONE', #16, .T. ) ;
#153 = AXIS2_PLACEMENT_3D ( 'NONE', #191, #272, #273 ) ;
#154 = PRODUCT_CONTEXT ( 'NONE', #308, 'mechanical' ) ;
#155 = CARTESIAN_POINT ( 'NONE',  ( -0.3125000000000000000, 0.0000000000000000000, 3.500000000000000000 ) ) ;
#156 = EDGE_CURVE ( 'NONE', #120, #71, #306, .T. ) ;
#157 = CARTESIAN_POINT ( 'NONE',  ( 0.0000000000000000000, 0.0000000000000000000, 3.500000000000000000 ) ) ;
#158 = DIRECTION ( 'NONE',  ( -0.0000000000000000000, -0.0000000000000000000, -1.000000000000000000 ) ) ;
#159 = LINE ( 'NONE', #180, #160 ) ;
#160 = VECTOR ( 'NONE', #244, 39.37007874015748143 ) ;
#161 = DIRECTION ( 'NONE',  ( 1.000000000000000000, 0.0000000000000000000, 0.0000000000000000000 ) ) ;
#162 = DIRECTION ( 'NONE',  ( -1.000000000000000000, 0.0000000000000000000, 0.0000000000000000000 ) ) ;
#163 = ADVANCED_FACE ( 'NONE', ( #311 ), #6, .T. ) ;
#164 = EDGE_LOOP ( 'NONE', ( #44, #73 ) ) ;
#165 = EDGE_LOOP ( 'NONE', ( #221, #118 ) ) ;
#166 = CARTESIAN_POINT ( 'NONE',  ( 0.3124500000000002276, 3.826408923935907901E-17, 1.250000000000000000 ) ) ;
#167 = LINE ( 'NONE', #150, #60 ) ;
#168 = CARTESIAN_POINT ( 'NONE',  ( -0.007499999999999999722, 9.184850993605147975E-19, 1.707404996040164512E-17 ) ) ;
#169 = ORIENTED_EDGE ( 'NONE', *, *, #19, .F. ) ;
#170 = CARTESIAN_POINT ( 'NONE',  ( 0.0000000000000000000, 0.0000000000000000000, 1.250000000000000000 ) ) ;
#171 = FILL_AREA_STYLE_COLOUR ( '', #316 ) ;
#172 = EDGE_CURVE ( 'NONE', #317, #251, #291, .T. ) ;
#173 = PLANE ( 'NONE',  #37 ) ;
#174 = ORIENTED_EDGE ( 'NONE', *, *, #46, .T. ) ;
#175 = AXIS2_PLACEMENT_3D ( 'NONE', #157, #184, #209 ) ;
#176 = CIRCLE ( 'NONE', #91, 0.3124500000000001165 ) ;
#177 =( NAMED_UNIT ( * ) SI_UNIT ( $, .STERADIAN. ) SOLID_ANGLE_UNIT ( ) );
#178 = DIMENSIONAL_EXPONENTS ( 1.000000000000000000, 0.0000000000000000000, 0.0000000000000000000, 0.0000000000000000000, 0.0000000000000000000, 0.0000000000000000000, 0.0000000000000000000 ) ;
#179 = AXIS2_PLACEMENT_3D ( 'NONE', #96, #190, #67 ) ;
#180 = CARTESIAN_POINT ( 'NONE',  ( -0.2975000000000003197, 0.0000000000000000000, 3.500000000000000000 ) ) ;
#181 = DIRECTION ( 'NONE',  ( -0.0000000000000000000, -0.0000000000000000000, -1.000000000000000000 ) ) ;
#182 = DIRECTION ( 'NONE',  ( 0.0000000000000000000, 0.0000000000000000000, -1.000000000000000000 ) ) ;
#183 = AXIS2_PLACEMENT_3D ( 'NONE', #51, #234, #284 ) ;
#184 = DIRECTION ( 'NONE',  ( 0.0000000000000000000, 0.0000000000000000000, -1.000000000000000000 ) ) ;
#185 = AXIS2_PLACEMENT_3D ( 'NONE', #310, #158, #287 ) ;
#186 = EDGE_CURVE ( 'NONE', #301, #274, #22, .T. ) ;
#187 = CARTESIAN_POINT ( 'NONE',  ( 0.3125000000000000000, 3.827021247335478926E-17, 3.500000000000000000 ) ) ;
#188 = VERTEX_POINT ( 'NONE', #88 ) ;
#189 = ORIENTED_EDGE ( 'NONE', *, *, #231, .F. ) ;
#190 = DIRECTION ( 'NONE',  ( -0.0000000000000000000, -0.0000000000000000000, -1.000000000000000000 ) ) ;
#191 = CARTESIAN_POINT ( 'NONE',  ( 0.0000000000000000000, 0.0000000000000000000, 3.500000000000000000 ) ) ;
#192 = ORIENTED_EDGE ( 'NONE', *, *, #48, .F. ) ;
#193 = LENGTH_MEASURE_WITH_UNIT ( LENGTH_MEASURE( 0.02539999999999999897 ), #9 );
#194 = EDGE_LOOP ( 'NONE', ( #327, #97, #228, #122 ) ) ;
#195 = ORIENTED_EDGE ( 'NONE', *, *, #259, .T. ) ;
#196 = PRODUCT_RELATED_PRODUCT_CATEGORY ( 'part', '', ( #78 ) ) ;
#197 = FACE_OUTER_BOUND ( 'NONE', #145, .T. ) ;
#198 = EDGE_LOOP ( 'NONE', ( #300, #174, #199, #15 ) ) ;
#199 = ORIENTED_EDGE ( 'NONE', *, *, #141, .T. ) ;
#200 = VECTOR ( 'NONE', #181, 39.37007874015748143 ) ;
#201 = ADVANCED_FACE ( 'NONE', ( #55 ), #264, .T. ) ;
#202 = DIMENSIONAL_EXPONENTS ( 1.000000000000000000, 0.0000000000000000000, 0.0000000000000000000, 0.0000000000000000000, 0.0000000000000000000, 0.0000000000000000000, 0.0000000000000000000 ) ;
#203 = SURFACE_SIDE_STYLE ('',( #129 ) ) ;
#204 =( NAMED_UNIT ( * ) SI_UNIT ( $, .STERADIAN. ) SOLID_ANGLE_UNIT ( ) );
#205 = CIRCLE ( 'NONE', #7, 0.3124500000000001165 ) ;
#206 = SHAPE_DEFINITION_REPRESENTATION ( #87, #90 ) ;
#207 = EDGE_CURVE ( 'NONE', #294, #321, #61, .T. ) ;
#208 = PRODUCT_DEFINITION_CONTEXT ( 'detailed design', #329, 'design' ) ;
#209 = DIRECTION ( 'NONE',  ( -1.000000000000000000, 0.0000000000000000000, 0.0000000000000000000 ) ) ;
#210 = AXIS2_PLACEMENT_3D ( 'NONE', #222, #42, #104 ) ;
#211 = DIRECTION ( 'NONE',  ( -0.0000000000000000000, -0.0000000000000000000, -1.000000000000000000 ) ) ;
#212 = DIRECTION ( 'NONE',  ( -0.0000000000000000000, -0.0000000000000000000, -1.000000000000000000 ) ) ;
#213 = EDGE_CURVE ( 'NONE', #124, #188, #237, .T. ) ;
#214 = MANIFOLD_SOLID_BREP ( 'Cut-Revolve4', #280 ) ;
#215 = CARTESIAN_POINT ( 'NONE',  ( 0.0000000000000000000, 0.0000000000000000000, 3.500000000000000000 ) ) ;
#216 =( GEOMETRIC_REPRESENTATION_CONTEXT ( 3 ) GLOBAL_UNCERTAINTY_ASSIGNED_CONTEXT ( ( #54 ) ) GLOBAL_UNIT_ASSIGNED_CONTEXT ( ( #21, #247, #125 ) ) REPRESENTATION_CONTEXT ( 'NONE', 'WORKASPACE' ) );
#217 = DIRECTION ( 'NONE',  ( -1.000000000000000000, 0.0000000000000000000, 0.0000000000000000000 ) ) ;
#218 = ORIENTED_EDGE ( 'NONE', *, *, #172, .T. ) ;
#219 = AXIS2_PLACEMENT_3D ( 'NONE', #292, #83, #217 ) ;
#220 = ORIENTED_EDGE ( 'NONE', *, *, #141, .F. ) ;
#221 = ORIENTED_EDGE ( 'NONE', *, *, #213, .T. ) ;
#222 = CARTESIAN_POINT ( 'NONE',  ( 0.0000000000000000000, 0.0000000000000000000, 3.500000000000000000 ) ) ;
#223 = ORIENTED_EDGE ( 'NONE', *, *, #186, .T. ) ;
#224 =( CONVERSION_BASED_UNIT ( 'INCH', #193 ) LENGTH_UNIT ( ) NAMED_UNIT ( #202 ) );
#225 = PRODUCT_DEFINITION_FORMATION_WITH_SPECIFIED_SOURCE ( 'ANY', '', #78, .NOT_KNOWN. ) ;
#226 = FACE_OUTER_BOUND ( 'NONE', #117, .T. ) ;
#227 = PLANE ( 'NONE',  #153 ) ;
#228 = ORIENTED_EDGE ( 'NONE', *, *, #213, .F. ) ;
#229 = CARTESIAN_POINT ( 'NONE',  ( 0.0000000000000000000, 0.0000000000000000000, 3.500000000000000000 ) ) ;
#230 = LINE ( 'NONE', #248, #253 ) ;
#231 = EDGE_CURVE ( 'NONE', #188, #124, #58, .T. ) ;
#232 =( GEOMETRIC_REPRESENTATION_CONTEXT ( 3 ) GLOBAL_UNCERTAINTY_ASSIGNED_CONTEXT ( ( #8 ) ) GLOBAL_UNIT_ASSIGNED_CONTEXT ( ( #281, #262, #204 ) ) REPRESENTATION_CONTEXT ( 'NONE', 'WORKASPACE' ) );
#233 = FILL_AREA_STYLE ('',( #171 ) ) ;
#234 = DIRECTION ( 'NONE',  ( 0.0000000000000000000, 0.0000000000000000000, 1.000000000000000000 ) ) ;
#235 = DIMENSIONAL_EXPONENTS ( 1.000000000000000000, 0.0000000000000000000, 0.0000000000000000000, 0.0000000000000000000, 0.0000000000000000000, 0.0000000000000000000, 0.0000000000000000000 ) ;
#236 = SURFACE_SIDE_STYLE ('',( #305 ) ) ;
#237 = CIRCLE ( 'NONE', #277, 0.3125000000000000000 ) ;
#238 = DIRECTION ( 'NONE',  ( 0.0000000000000000000, 0.0000000000000000000, 1.000000000000000000 ) ) ;
#239 = EDGE_CURVE ( 'NONE', #71, #120, #131, .T. ) ;
#240 = CARTESIAN_POINT ( 'NONE',  ( 0.0000000000000000000, 0.0000000000000000000, 1.707404996040164512E-17 ) ) ;
#241 = DIRECTION ( 'NONE',  ( -1.000000000000000000, 0.0000000000000000000, 0.0000000000000000000 ) ) ;
#242 = CONICAL_SURFACE ( 'NONE', #175, 0.2975000000000003197, 0.7853981633974300713 ) ;
#243 = DIRECTION ( 'NONE',  ( -1.000000000000000000, 0.0000000000000000000, 0.0000000000000000000 ) ) ;
#244 = DIRECTION ( 'NONE',  ( -0.7071067811865346942, 0.0000000000000000000, -0.7071067811865603403 ) ) ;
#245 = DIRECTION ( 'NONE',  ( 0.0000000000000000000, 0.0000000000000000000, -1.000000000000000000 ) ) ;
#246 = EDGE_LOOP ( 'NONE', ( #13, #103, #74, #189 ) ) ;
#247 =( NAMED_UNIT ( * ) PLANE_ANGLE_UNIT ( ) SI_UNIT ( $, .RADIAN. ) );
#248 = CARTESIAN_POINT ( 'NONE',  ( 0.3124500000000001720, 3.826408923935906669E-17, 0.0000000000000000000 ) ) ;
#249 = ORIENTED_EDGE ( 'NONE', *, *, #48, .T. ) ;
#250 = LINE ( 'NONE', #324, #25 ) ;
#251 = VERTEX_POINT ( 'NONE', #298 ) ;
#252 = LENGTH_MEASURE_WITH_UNIT ( LENGTH_MEASURE( 0.02539999999999999897 ), #271 );
#253 = VECTOR ( 'NONE', #70, 39.37007874015748143 ) ;
#254 = AXIS2_PLACEMENT_3D ( 'NONE', #10, #182, #288 ) ;
#255 = ORIENTED_EDGE ( 'NONE', *, *, #35, .T. ) ;
#256 = FILL_AREA_STYLE_COLOUR ( '', #258 ) ;
#257 = DIRECTION ( 'NONE',  ( -0.0000000000000000000, -0.0000000000000000000, -1.000000000000000000 ) ) ;
#258 = COLOUR_RGB ( '',0.7921568627450980005, 0.8196078431372548767, 0.9333333333333333481 ) ;
#259 = EDGE_CURVE ( 'NONE', #251, #317, #1, .T. ) ;
#260 = APPLICATION_PROTOCOL_DEFINITION ( 'draft international standard', 'automotive_design', 1998, #329 ) ;
#261 = DIRECTION ( 'NONE',  ( -0.0000000000000000000, 0.0000000000000000000, -1.000000000000000000 ) ) ;
#262 =( NAMED_UNIT ( * ) PLANE_ANGLE_UNIT ( ) SI_UNIT ( $, .RADIAN. ) );
#263 = FACE_OUTER_BOUND ( 'NONE', #165, .T. ) ;
#264 = CYLINDRICAL_SURFACE ( 'NONE', #45, 0.3124500000000001720 ) ;
#265 = CARTESIAN_POINT ( 'NONE',  ( 0.0000000000000000000, 0.0000000000000000000, 3.500000000000000000 ) ) ;
#266 = STYLED_ITEM ( 'NONE', ( #135 ), #214 ) ;
#267 = CARTESIAN_POINT ( 'NONE',  ( -0.3125000000000000000, 0.0000000000000000000, 1.250000000000000000 ) ) ;
#268 = ORIENTED_EDGE ( 'NONE', *, *, #134, .F. ) ;
#269 = CARTESIAN_POINT ( 'NONE',  ( 0.0000000000000000000, 0.0000000000000000000, 0.1760629645893753426 ) ) ;
#270 = VECTOR ( 'NONE', #128, 39.37007874015748143 ) ;
#271 =( LENGTH_UNIT ( ) NAMED_UNIT ( * ) SI_UNIT ( $, .METRE. ) );
#272 = DIRECTION ( 'NONE',  ( 0.0000000000000000000, 0.0000000000000000000, 1.000000000000000000 ) ) ;
#273 = DIRECTION ( 'NONE',  ( 1.000000000000000000, 0.0000000000000000000, -0.0000000000000000000 ) ) ;
#274 = VERTEX_POINT ( 'NONE', #75 ) ;
#275 = CARTESIAN_POINT ( 'NONE',  ( -0.3124500000000001720, 3.826408923935907901E-17, 0.1760629645893753426 ) ) ;
#276 = CIRCLE ( 'NONE', #20, 0.3125000000000000000 ) ;
#277 = AXIS2_PLACEMENT_3D ( 'NONE', #56, #139, #243 ) ;
#278 =( NAMED_UNIT ( * ) PLANE_ANGLE_UNIT ( ) SI_UNIT ( $, .RADIAN. ) );
#279 = AXIS2_PLACEMENT_3D ( 'NONE', #322, #257, #98 ) ;
#280 = CLOSED_SHELL ( 'NONE', ( #201, #130, #289, #112, #163, #31, #109, #106, #132, #295, #4 ) ) ;
#281 =( CONVERSION_BASED_UNIT ( 'INCH', #108 ) LENGTH_UNIT ( ) NAMED_UNIT ( #235 ) );
#282 = UNCERTAINTY_MEASURE_WITH_UNIT (LENGTH_MEASURE( 1.000000000000000082E-05 ), #224, 'distance_accuracy_value', 'NONE');
#283 = CARTESIAN_POINT ( 'NONE',  ( 0.007499999999999999722, 0.0000000000000000000, 1.707404996040164512E-17 ) ) ;
#284 = DIRECTION ( 'NONE',  ( 1.000000000000000000, 0.0000000000000000000, 0.0000000000000000000 ) ) ;
#285 = CONICAL_SURFACE ( 'NONE', #210, 0.2975000000000003197, 0.7853981633974300713 ) ;
#286 = CARTESIAN_POINT ( 'NONE',  ( 0.007499999999999999722, 0.0000000000000000000, 1.707404996040164512E-17 ) ) ;
#287 = DIRECTION ( 'NONE',  ( -1.000000000000000000, 0.0000000000000000000, 0.0000000000000000000 ) ) ;
#288 = DIRECTION ( 'NONE',  ( 1.000000000000000000, 0.0000000000000000000, 0.0000000000000000000 ) ) ;
#289 = ADVANCED_FACE ( 'NONE', ( #152 ), #285, .T. ) ;
#290 = FACE_OUTER_BOUND ( 'NONE', #100, .T. ) ;
#291 = CIRCLE ( 'NONE', #3, 0.2975000000000003197 ) ;
#292 = CARTESIAN_POINT ( 'NONE',  ( 0.0000000000000000000, 0.0000000000000000000, 1.707404996040164512E-17 ) ) ;
#293 = VERTEX_POINT ( 'NONE', #275 ) ;
#294 = VERTEX_POINT ( 'NONE', #121 ) ;
#295 = ADVANCED_FACE ( 'NONE', ( #226 ), #318, .T. ) ;
#296 = ORIENTED_EDGE ( 'NONE', *, *, #82, .T. ) ;
#297 = DIRECTION ( 'NONE',  ( -0.0000000000000000000, -0.0000000000000000000, -1.000000000000000000 ) ) ;
#298 = CARTESIAN_POINT ( 'NONE',  ( 0.2975000000000003197, 3.735172737399428256E-17, 3.500000000000000000 ) ) ;
#299 = DIRECTION ( 'NONE',  ( -0.8660254037844400399, 1.060575238724908640E-16, 0.4999999999999976685 ) ) ;
#300 = ORIENTED_EDGE ( 'NONE', *, *, #239, .F. ) ;
#301 = VERTEX_POINT ( 'NONE', #166 ) ;
#302 = DIRECTION ( 'NONE',  ( 0.0000000000000000000, 0.0000000000000000000, 1.000000000000000000 ) ) ;
#303 =( GEOMETRIC_REPRESENTATION_CONTEXT ( 3 ) GLOBAL_UNCERTAINTY_ASSIGNED_CONTEXT ( ( #282 ) ) GLOBAL_UNIT_ASSIGNED_CONTEXT ( ( #224, #278, #177 ) ) REPRESENTATION_CONTEXT ( 'NONE', 'WORKASPACE' ) );
#304 = SURFACE_STYLE_USAGE ( .BOTH. , #203 ) ;
#305 = SURFACE_STYLE_FILL_AREA ( #105 ) ;
#306 = CIRCLE ( 'NONE', #219, 0.007499999999999999722 ) ;
#307 = CYLINDRICAL_SURFACE ( 'NONE', #14, 0.3125000000000000000 ) ;
#308 = APPLICATION_CONTEXT ( 'automotive_design' ) ;
#309 = AXIS2_PLACEMENT_3D ( 'NONE', #28, #261, #113 ) ;
#310 = CARTESIAN_POINT ( 'NONE',  ( 0.0000000000000000000, 0.0000000000000000000, 1.250000000000000000 ) ) ;
#311 = FACE_OUTER_BOUND ( 'NONE', #246, .T. ) ;
#312 = EDGE_CURVE ( 'NONE', #63, #293, #205, .T. ) ;
#313 = DIRECTION ( 'NONE',  ( -0.0000000000000000000, -0.0000000000000000000, -1.000000000000000000 ) ) ;
#314 = DIRECTION ( 'NONE',  ( 1.000000000000000000, 0.0000000000000000000, 0.0000000000000000000 ) ) ;
#315 = VECTOR ( 'NONE', #299, 39.37007874015748143 ) ;
#316 = COLOUR_RGB ( '',0.7921568627450980005, 0.8196078431372548767, 0.9333333333333333481 ) ;
#317 = VERTEX_POINT ( 'NONE', #148 ) ;
#318 = CYLINDRICAL_SURFACE ( 'NONE', #179, 0.3124500000000001720 ) ;
#319 = CARTESIAN_POINT ( 'NONE',  ( 0.0000000000000000000, 0.0000000000000000000, 1.250000000000000000 ) ) ;
#320 = PRODUCT_DEFINITION ( 'UNKNOWN', '', #225, #208 ) ;
#321 = VERTEX_POINT ( 'NONE', #69 ) ;
#322 = CARTESIAN_POINT ( 'NONE',  ( 0.0000000000000000000, 0.0000000000000000000, 1.707404996040164512E-17 ) ) ;
#323 = ORIENTED_EDGE ( 'NONE', *, *, #86, .T. ) ;
#324 = CARTESIAN_POINT ( 'NONE',  ( -0.3124500000000001720, 0.0000000000000000000, 0.0000000000000000000 ) ) ;
#325 = ORIENTED_EDGE ( 'NONE', *, *, #134, .T. ) ;
#326 = DIRECTION ( 'NONE',  ( -1.000000000000000000, 0.0000000000000000000, 0.0000000000000000000 ) ) ;
#327 = ORIENTED_EDGE ( 'NONE', *, *, #19, .T. ) ;
#328 = MECHANICAL_DESIGN_GEOMETRIC_PRESENTATION_REPRESENTATION (  '', ( #30 ), #232 ) ;
#329 = APPLICATION_CONTEXT ( 'automotive_design' ) ;
ENDSEC;
END-ISO-10303-21;
