ISO-10303-21;
HEADER;
FILE_DESCRIPTION (( 'STEP AP214' ),
    '1' );
FILE_NAME ('81323.STEP',
    '2023-06-30T22:24:20',
    ( '' ),
    ( '' ),
    'SwSTEP 2.0',
    'SolidWorks 2023',
    '' );
FILE_SCHEMA (( 'AUTOMOTIVE_DESIGN' ));
ENDSEC;

DATA;
#1 = VERTEX_POINT ( 'NONE', #279 ) ;
#2 = CIRCLE ( 'NONE', #88, 0.1875000000000000555 ) ;
#3 = VERTEX_POINT ( 'NONE', #299 ) ;
#4 = PRESENTATION_STYLE_ASSIGNMENT (( #268 ) ) ;
#5 = ORIENTED_EDGE ( 'NONE', *, *, #328, .T. ) ;
#6 =( LENGTH_UNIT ( ) NAMED_UNIT ( * ) SI_UNIT ( $, .METRE. ) );
#7 =( NAMED_UNIT ( * ) SI_UNIT ( $, .STERADIAN. ) SOLID_ANGLE_UNIT ( ) );
#8 = AXIS2_PLACEMENT_3D ( 'NONE', #356, #95, #185 ) ;
#9 = CIRCLE ( 'NONE', #149, 0.1874999999999999167 ) ;
#10 = ORIENTED_EDGE ( 'NONE', *, *, #103, .T. ) ;
#11 = ORIENTED_EDGE ( 'NONE', *, *, #367, .F. ) ;
#12 = EDGE_CURVE ( 'NONE', #265, #237, #164, .T. ) ;
#13 = DIRECTION ( 'NONE',  ( -0.000000000000000000, -1.000000000000000000, -0.000000000000000000 ) ) ;
#14 = ORIENTED_EDGE ( 'NONE', *, *, #169, .F. ) ;
#15 = PRODUCT_DEFINITION_CONTEXT ( 'detailed design', #70, 'design' ) ;
#16 = DIRECTION ( 'NONE',  ( 0.000000000000000000, 0.000000000000000000, 1.000000000000000000 ) ) ;
#17 = LINE ( 'NONE', #247, #236 ) ;
#18 =( LENGTH_UNIT ( ) NAMED_UNIT ( * ) SI_UNIT ( $, .METRE. ) );
#19 = UNCERTAINTY_MEASURE_WITH_UNIT (LENGTH_MEASURE( 1.000000000000000082E-05 ), #337, 'distance_accuracy_value', 'NONE');
#20 = COLOUR_RGB ( '',1.000000000000000000, 0.000000000000000000, 0.000000000000000000 ) ;
#21 = DIRECTION ( 'NONE',  ( -1.000000000000000000, 0.000000000000000000, 0.000000000000000000 ) ) ;
#22 =( GEOMETRIC_REPRESENTATION_CONTEXT ( 3 ) GLOBAL_UNCERTAINTY_ASSIGNED_CONTEXT ( ( #156 ) ) GLOBAL_UNIT_ASSIGNED_CONTEXT ( ( #101, #130, #359 ) ) REPRESENTATION_CONTEXT ( 'NONE', 'WORKASPACE' ) );
#23 = LENGTH_MEASURE_WITH_UNIT ( LENGTH_MEASURE( 0.02539999999999999897 ), #339 );
#24 = DIRECTION ( 'NONE',  ( -1.000000000000000000, 0.000000000000000000, 0.000000000000000000 ) ) ;
#25 = SHAPE_DEFINITION_REPRESENTATION ( #195, #180 ) ;
#26 = CIRCLE ( 'NONE', #61, 0.1875000000000000555 ) ;
#27 = DIMENSIONAL_EXPONENTS ( 1.000000000000000000, 0.000000000000000000, 0.000000000000000000, 0.000000000000000000, 0.000000000000000000, 0.000000000000000000, 0.000000000000000000 ) ;
#28 = ORIENTED_EDGE ( 'NONE', *, *, #12, .T. ) ;
#29 = MECHANICAL_DESIGN_GEOMETRIC_PRESENTATION_REPRESENTATION (  '', ( #52 ), #203 ) ;
#30 = CARTESIAN_POINT ( 'NONE',  ( 0.000000000000000000, 1.500000000000000222, 0.000000000000000000 ) ) ;
#31 = CIRCLE ( 'NONE', #252, 0.1874999999999999167 ) ;
#32 = FILL_AREA_STYLE ('',( #320 ) ) ;
#33 = FACE_OUTER_BOUND ( 'NONE', #120, .T. ) ;
#34 = CARTESIAN_POINT ( 'NONE',  ( -0.1874999999999998335, 3.500000000000000000, 0.000000000000000000 ) ) ;
#35 = AXIS2_PLACEMENT_3D ( 'NONE', #273, #73, #304 ) ;
#36 = SURFACE_STYLE_FILL_AREA ( #182 ) ;
#37 = PRESENTATION_LAYER_ASSIGNMENT (  '', '', ( #232 ) ) ;
#38 = FILL_AREA_STYLE ('',( #353 ) ) ;
#39 = ORIENTED_EDGE ( 'NONE', *, *, #208, .T. ) ;
#40 = ADVANCED_FACE ( 'NONE', ( #153 ), #329, .T. ) ;
#41 = CARTESIAN_POINT ( 'NONE',  ( -6.123233995736759873E-17, 3.500000000000000000, 0.000000000000000000 ) ) ;
#42 = FILL_AREA_STYLE_COLOUR ( '', #371 ) ;
#43 = UNCERTAINTY_MEASURE_WITH_UNIT (LENGTH_MEASURE( 1.000000000000000082E-05 ), #184, 'distance_accuracy_value', 'NONE');
#44 = CARTESIAN_POINT ( 'NONE',  ( -0.1874999999999999722, 3.500000000000000000, 0.000000000000000000 ) ) ;
#45 = SURFACE_STYLE_FILL_AREA ( #191 ) ;
#46 = UNCERTAINTY_MEASURE_WITH_UNIT (LENGTH_MEASURE( 1.000000000000000082E-05 ), #308, 'distance_accuracy_value', 'NONE');
#47 = COLOUR_RGB ( '',0.7921568627450980005, 0.8196078431372548767, 0.9333333333333333481 ) ;
#48 = FACE_OUTER_BOUND ( 'NONE', #107, .T. ) ;
#49 = DIRECTION ( 'NONE',  ( -0.000000000000000000, -1.000000000000000000, -0.000000000000000000 ) ) ;
#50 = APPLICATION_PROTOCOL_DEFINITION ( 'draft international standard', 'automotive_design', 1998, #152 ) ;
#51 = DIRECTION ( 'NONE',  ( 1.000000000000000000, 0.000000000000000000, 0.000000000000000000 ) ) ;
#52 = STYLED_ITEM ( 'NONE', ( #255 ), #40 ) ;
#53 = VERTEX_POINT ( 'NONE', #223 ) ;
#54 = ORIENTED_EDGE ( 'NONE', *, *, #142, .F. ) ;
#55 = DIRECTION ( 'NONE',  ( -0.000000000000000000, -1.000000000000000000, -0.000000000000000000 ) ) ;
#56 = COLOUR_RGB ( '',1.000000000000000000, 0.000000000000000000, 0.000000000000000000 ) ;
#57 = PRODUCT_DEFINITION_FORMATION_WITH_SPECIFIED_SOURCE ( 'ANY', '', #343, .NOT_KNOWN. ) ;
#58 = FILL_AREA_STYLE_COLOUR ( '', #251 ) ;
#59 = DIRECTION ( 'NONE',  ( 0.000000000000000000, -0.000000000000000000, 1.000000000000000000 ) ) ;
#60 = LENGTH_MEASURE_WITH_UNIT ( LENGTH_MEASURE( 0.02539999999999999897 ), #119 );
#61 = AXIS2_PLACEMENT_3D ( 'NONE', #312, #49, #284 ) ;
#62 =( NAMED_UNIT ( * ) PLANE_ANGLE_UNIT ( ) SI_UNIT ( $, .RADIAN. ) );
#63 = ORIENTED_EDGE ( 'NONE', *, *, #328, .F. ) ;
#64 = SURFACE_STYLE_USAGE ( .BOTH. , #127 ) ;
#65 = UNCERTAINTY_MEASURE_WITH_UNIT (LENGTH_MEASURE( 1.000000000000000082E-05 ), #269, 'distance_accuracy_value', 'NONE');
#66 = CARTESIAN_POINT ( 'NONE',  ( -2.296212748401288034E-17, 0.1875000000000000555, 0.000000000000000000 ) ) ;
#67 = CARTESIAN_POINT ( 'NONE',  ( 1.844336024200838922E-16, 1.500000000000000222, 0.000000000000000000 ) ) ;
#68 = DIRECTION ( 'NONE',  ( 0.000000000000000000, 0.000000000000000000, -1.000000000000000000 ) ) ;
#69 = AXIS2_PLACEMENT_3D ( 'NONE', #170, #309, #105 ) ;
#70 = APPLICATION_CONTEXT ( 'automotive_design' ) ;
#71 = FILL_AREA_STYLE ('',( #278 ) ) ;
#72 = SURFACE_SIDE_STYLE ('',( #205 ) ) ;
#73 = DIRECTION ( 'NONE',  ( -1.228329711887257701E-16, 1.000000000000000000, -0.000000000000000000 ) ) ;
#74 =( NAMED_UNIT ( * ) SI_UNIT ( $, .STERADIAN. ) SOLID_ANGLE_UNIT ( ) );
#75 = EDGE_CURVE ( 'NONE', #250, #1, #297, .T. ) ;
#76 = STYLED_ITEM ( 'NONE', ( #165 ), #124 ) ;
#77 = AXIS2_PLACEMENT_3D ( 'NONE', #67, #125, #366 ) ;
#78 = CARTESIAN_POINT ( 'NONE',  ( -6.123233995736759873E-17, 3.500000000000000000, 0.000000000000000000 ) ) ;
#79 = DIMENSIONAL_EXPONENTS ( 1.000000000000000000, 0.000000000000000000, 0.000000000000000000, 0.000000000000000000, 0.000000000000000000, 0.000000000000000000, 0.000000000000000000 ) ;
#80 = DIRECTION ( 'NONE',  ( 0.000000000000000000, 0.000000000000000000, 1.000000000000000000 ) ) ;
#81 = ORIENTED_EDGE ( 'NONE', *, *, #75, .F. ) ;
#82 = STYLED_ITEM ( 'NONE', ( #300 ), #261 ) ;
#83 = SURFACE_STYLE_FILL_AREA ( #289 ) ;
#84 = ORIENTED_EDGE ( 'NONE', *, *, #288, .T. ) ;
#85 =( LENGTH_UNIT ( ) NAMED_UNIT ( * ) SI_UNIT ( $, .METRE. ) );
#86 = VERTEX_POINT ( 'NONE', #44 ) ;
#87 = LENGTH_MEASURE_WITH_UNIT ( LENGTH_MEASURE( 0.02539999999999999897 ), #6 );
#88 = AXIS2_PLACEMENT_3D ( 'NONE', #231, #368, #228 ) ;
#89 = ORIENTED_EDGE ( 'NONE', *, *, #288, .F. ) ;
#90 = SURFACE_SIDE_STYLE ('',( #147 ) ) ;
#91 = DIRECTION ( 'NONE',  ( -0.000000000000000000, -1.000000000000000000, -0.000000000000000000 ) ) ;
#92 = DIRECTION ( 'NONE',  ( -1.000000000000000000, 0.000000000000000000, 0.000000000000000000 ) ) ;
#93 = VERTEX_POINT ( 'NONE', #160 ) ;
#94 = STYLED_ITEM ( 'NONE', ( #338 ), #128 ) ;
#95 = DIRECTION ( 'NONE',  ( -0.000000000000000000, -1.000000000000000000, -0.000000000000000000 ) ) ;
#96 = CYLINDRICAL_SURFACE ( 'NONE', #167, 0.1874999999999999445 ) ;
#97 = DIRECTION ( 'NONE',  ( 1.000000000000000000, 0.000000000000000000, 0.000000000000000000 ) ) ;
#98 = DIRECTION ( 'NONE',  ( -1.000000000000000000, 0.000000000000000000, 0.000000000000000000 ) ) ;
#99 = COLOUR_RGB ( '',1.000000000000000000, 0.000000000000000000, 0.000000000000000000 ) ;
#100 = FILL_AREA_STYLE ('',( #109 ) ) ;
#101 =( CONVERSION_BASED_UNIT ( 'INCH', #365 ) LENGTH_UNIT ( ) NAMED_UNIT ( #235 ) );
#102 = SURFACE_STYLE_USAGE ( .BOTH. , #192 ) ;
#103 = EDGE_CURVE ( 'NONE', #237, #3, #17, .T. ) ;
#104 = CARTESIAN_POINT ( 'NONE',  ( 0.000000000000000000, 0.000000000000000000, 0.000000000000000000 ) ) ;
#105 = DIRECTION ( 'NONE',  ( 1.000000000000000000, 0.000000000000000000, -1.224646799147353207E-16 ) ) ;
#106 =( NAMED_UNIT ( * ) SI_UNIT ( $, .STERADIAN. ) SOLID_ANGLE_UNIT ( ) );
#107 = EDGE_LOOP ( 'NONE', ( #272, #39, #270, #81, #137 ) ) ;
#108 = LINE ( 'NONE', #138, #157 ) ;
#109 = FILL_AREA_STYLE_COLOUR ( '', #178 ) ;
#110 = AXIS2_PLACEMENT_3D ( 'NONE', #78, #200, #24 ) ;
#111 = DIRECTION ( 'NONE',  ( 1.000000000000000000, 0.000000000000000000, 0.000000000000000000 ) ) ;
#112 = ORIENTED_EDGE ( 'NONE', *, *, #169, .T. ) ;
#113 = DIMENSIONAL_EXPONENTS ( 1.000000000000000000, 0.000000000000000000, 0.000000000000000000, 0.000000000000000000, 0.000000000000000000, 0.000000000000000000, 0.000000000000000000 ) ;
#114 = VERTEX_POINT ( 'NONE', #214 ) ;
#115 = CARTESIAN_POINT ( 'NONE',  ( -6.123233995736759873E-17, 3.500000000000000000, 0.000000000000000000 ) ) ;
#116 = PRESENTATION_LAYER_ASSIGNMENT (  '', '', ( #245 ) ) ;
#117 = ORIENTED_EDGE ( 'NONE', *, *, #241, .F. ) ;
#118 = DIRECTION ( 'NONE',  ( 0.000000000000000000, 0.000000000000000000, 1.000000000000000000 ) ) ;
#119 =( LENGTH_UNIT ( ) NAMED_UNIT ( * ) SI_UNIT ( $, .METRE. ) );
#120 = EDGE_LOOP ( 'NONE', ( #11, #344, #206, #14 ) ) ;
#121 = SURFACE_SIDE_STYLE ('',( #45 ) ) ;
#122 = CIRCLE ( 'NONE', #35, 0.1874999999999996669 ) ;
#123 = CARTESIAN_POINT ( 'NONE',  ( 0.000000000000000000, 0.1875000000000000555, 0.000000000000000000 ) ) ;
#124 = MANIFOLD_SOLID_BREP ( 'Revolve - Tool Body (Straight Shanked)', #311 ) ;
#125 = DIRECTION ( 'NONE',  ( -1.228329711887257701E-16, 1.000000000000000000, 0.000000000000000000 ) ) ;
#126 = ORIENTED_EDGE ( 'NONE', *, *, #262, .F. ) ;
#127 = SURFACE_SIDE_STYLE ('',( #330 ) ) ;
#128 = ADVANCED_FACE ( 'NONE', ( #48 ), #324, .T. ) ;
#129 = CARTESIAN_POINT ( 'NONE',  ( 0.000000000000000000, 0.000000000000000000, 0.000000000000000000 ) ) ;
#130 =( NAMED_UNIT ( * ) PLANE_ANGLE_UNIT ( ) SI_UNIT ( $, .RADIAN. ) );
#131 =( NAMED_UNIT ( * ) PLANE_ANGLE_UNIT ( ) SI_UNIT ( $, .RADIAN. ) );
#132 = CYLINDRICAL_SURFACE ( 'NONE', #110, 0.1874999999999997780 ) ;
#133 = EDGE_CURVE ( 'NONE', #321, #3, #2, .T. ) ;
#134 = PRESENTATION_LAYER_ASSIGNMENT (  '', '', ( #211 ) ) ;
#135 = DIRECTION ( 'NONE',  ( -0.000000000000000000, -1.000000000000000000, -0.000000000000000000 ) ) ;
#136 = ADVANCED_FACE ( 'NONE', ( #139 ), #342, .T. ) ;
#137 = ORIENTED_EDGE ( 'NONE', *, *, #334, .F. ) ;
#138 = CARTESIAN_POINT ( 'NONE',  ( 0.1874999999999996947, 3.500000000000000000, 2.296212748401284644E-17 ) ) ;
#139 = FACE_OUTER_BOUND ( 'NONE', #295, .T. ) ;
#140 = ORIENTED_EDGE ( 'NONE', *, *, #220, .F. ) ;
#141 = VECTOR ( 'NONE', #13, 39.37007874015748143 ) ;
#142 = EDGE_CURVE ( 'NONE', #265, #1, #179, .T. ) ;
#143 =( GEOMETRIC_REPRESENTATION_CONTEXT ( 3 ) GLOBAL_UNCERTAINTY_ASSIGNED_CONTEXT ( ( #19 ) ) GLOBAL_UNIT_ASSIGNED_CONTEXT ( ( #337, #254, #222 ) ) REPRESENTATION_CONTEXT ( 'NONE', 'WORKASPACE' ) );
#144 = DIRECTION ( 'NONE',  ( -1.000000000000000000, 0.000000000000000000, 0.000000000000000000 ) ) ;
#145 = ORIENTED_EDGE ( 'NONE', *, *, #220, .T. ) ;
#146 = DIRECTION ( 'NONE',  ( -1.228329711887257701E-16, 1.000000000000000000, -0.000000000000000000 ) ) ;
#147 = SURFACE_STYLE_FILL_AREA ( #32 ) ;
#148 = ORIENTED_EDGE ( 'NONE', *, *, #241, .T. ) ;
#149 = AXIS2_PLACEMENT_3D ( 'NONE', #296, #347, #144 ) ;
#150 = ORIENTED_EDGE ( 'NONE', *, *, #367, .T. ) ;
#151 = DIRECTION ( 'NONE',  ( -1.228329711887257701E-16, 1.000000000000000000, -0.000000000000000000 ) ) ;
#152 = APPLICATION_CONTEXT ( 'automotive_design' ) ;
#153 = FACE_OUTER_BOUND ( 'NONE', #315, .T. ) ;
#154 = CARTESIAN_POINT ( 'NONE',  ( 0.1874999999999998335, 3.500000000000000000, 0.000000000000000000 ) ) ;
#155 = AXIS2_PLACEMENT_3D ( 'NONE', #350, #118, #111 ) ;
#156 = UNCERTAINTY_MEASURE_WITH_UNIT (LENGTH_MEASURE( 1.000000000000000082E-05 ), #101, 'distance_accuracy_value', 'NONE');
#157 = VECTOR ( 'NONE', #263, 39.37007874015748143 ) ;
#158 =( NAMED_UNIT ( * ) SI_UNIT ( $, .STERADIAN. ) SOLID_ANGLE_UNIT ( ) );
#159 = FACE_OUTER_BOUND ( 'NONE', #242, .T. ) ;
#160 = CARTESIAN_POINT ( 'NONE',  ( 0.1874999999999998335, 1.500000000000000222, 2.296212748401285877E-17 ) ) ;
#161 = SURFACE_STYLE_USAGE ( .BOTH. , #121 ) ;
#162 = UNCERTAINTY_MEASURE_WITH_UNIT (LENGTH_MEASURE( 1.000000000000000082E-05 ), #281, 'distance_accuracy_value', 'NONE');
#163 =( NAMED_UNIT ( * ) PLANE_ANGLE_UNIT ( ) SI_UNIT ( $, .RADIAN. ) );
#164 = CIRCLE ( 'NONE', #8, 0.1874999999999998335 ) ;
#165 = PRESENTATION_STYLE_ASSIGNMENT (( #194 ) ) ;
#166 = CIRCLE ( 'NONE', #198, 0.1874999999999998335 ) ;
#167 = AXIS2_PLACEMENT_3D ( 'NONE', #104, #135, #369 ) ;
#168 = PRODUCT_CONTEXT ( 'NONE', #152, 'mechanical' ) ;
#169 = EDGE_CURVE ( 'NONE', #114, #86, #9, .T. ) ;
#170 = CARTESIAN_POINT ( 'NONE',  ( -2.296212748401288034E-17, 0.1875000000000000555, 0.000000000000000000 ) ) ;
#171 = APPLICATION_PROTOCOL_DEFINITION ( 'draft international standard', 'automotive_design', 1998, #70 ) ;
#172 = MECHANICAL_DESIGN_GEOMETRIC_PRESENTATION_REPRESENTATION (  '', ( #94 ), #271 ) ;
#173 =( CONVERSION_BASED_UNIT ( 'INCH', #201 ) LENGTH_UNIT ( ) NAMED_UNIT ( #316 ) );
#174 = CARTESIAN_POINT ( 'NONE',  ( 0.1875000000000000555, 0.1875000000000000555, 0.000000000000000000 ) ) ;
#175 = SURFACE_STYLE_USAGE ( .BOTH. , #72 ) ;
#176 = ORIENTED_EDGE ( 'NONE', *, *, #262, .T. ) ;
#177 = EDGE_CURVE ( 'NONE', #317, #86, #355, .T. ) ;
#178 = COLOUR_RGB ( '',1.000000000000000000, 0.000000000000000000, 0.000000000000000000 ) ;
#179 = LINE ( 'NONE', #249, #141 ) ;
#180 = ADVANCED_BREP_SHAPE_REPRESENTATION ( '81323', ( #261, #124, #212 ), #219 ) ;
#181 = DIRECTION ( 'NONE',  ( 0.000000000000000000, 0.000000000000000000, -1.000000000000000000 ) ) ;
#182 = FILL_AREA_STYLE ('',( #58 ) ) ;
#183 = MECHANICAL_DESIGN_GEOMETRIC_PRESENTATION_REPRESENTATION (  '', ( #82 ), #143 ) ;
#184 =( CONVERSION_BASED_UNIT ( 'INCH', #60 ) LENGTH_UNIT ( ) NAMED_UNIT ( #79 ) );
#185 = DIRECTION ( 'NONE',  ( 0.000000000000000000, 0.000000000000000000, -1.000000000000000000 ) ) ;
#186 = DIRECTION ( 'NONE',  ( 0.000000000000000000, 0.000000000000000000, -1.000000000000000000 ) ) ;
#187 = PRODUCT_RELATED_PRODUCT_CATEGORY ( 'part', '', ( #343 ) ) ;
#188 = CARTESIAN_POINT ( 'NONE',  ( -2.296212748401288034E-17, 0.1875000000000000555, 0.000000000000000000 ) ) ;
#189 = MECHANICAL_DESIGN_GEOMETRIC_PRESENTATION_REPRESENTATION (  '', ( #76 ), #225 ) ;
#190 = EDGE_LOOP ( 'NONE', ( #28, #10, #293, #140, #54 ) ) ;
#191 = FILL_AREA_STYLE ('',( #42 ) ) ;
#192 = SURFACE_SIDE_STYLE ('',( #83 ) ) ;
#193 = PLANE ( 'NONE',  #77 ) ;
#194 = SURFACE_STYLE_USAGE ( .BOTH. , #336 ) ;
#195 = PRODUCT_DEFINITION_SHAPE ( 'NONE', 'NONE',  #348 ) ;
#196 = FACE_OUTER_BOUND ( 'NONE', #239, .T. ) ;
#197 = PRESENTATION_LAYER_ASSIGNMENT (  '', '', ( #52 ) ) ;
#198 = AXIS2_PLACEMENT_3D ( 'NONE', #240, #352, #354 ) ;
#199 = ADVANCED_FACE ( 'NONE', ( #294 ), #243, .T. ) ;
#200 = DIRECTION ( 'NONE',  ( -1.228329711887257701E-16, 1.000000000000000000, -0.000000000000000000 ) ) ;
#201 = LENGTH_MEASURE_WITH_UNIT ( LENGTH_MEASURE( 0.02539999999999999897 ), #313 );
#202 = ADVANCED_FACE ( 'NONE', ( #33 ), #209, .T. ) ;
#203 =( GEOMETRIC_REPRESENTATION_CONTEXT ( 3 ) GLOBAL_UNCERTAINTY_ASSIGNED_CONTEXT ( ( #43 ) ) GLOBAL_UNIT_ASSIGNED_CONTEXT ( ( #184, #360, #158 ) ) REPRESENTATION_CONTEXT ( 'NONE', 'WORKASPACE' ) );
#204 = CIRCLE ( 'NONE', #357, 0.1874999999999996669 ) ;
#205 = SURFACE_STYLE_FILL_AREA ( #100 ) ;
#206 = ORIENTED_EDGE ( 'NONE', *, *, #177, .T. ) ;
#207 =( CONVERSION_BASED_UNIT ( 'INCH', #23 ) LENGTH_UNIT ( ) NAMED_UNIT ( #291 ) );
#208 = EDGE_CURVE ( 'NONE', #237, #265, #166, .T. ) ;
#209 = CYLINDRICAL_SURFACE ( 'NONE', #218, 0.1874999999999997780 ) ;
#210 = ORIENTED_EDGE ( 'NONE', *, *, #12, .F. ) ;
#211 = STYLED_ITEM ( 'NONE', ( #4 ), #199 ) ;
#212 = AXIS2_PLACEMENT_3D ( 'NONE', #234, #80, #51 ) ;
#213 =( NAMED_UNIT ( * ) PLANE_ANGLE_UNIT ( ) SI_UNIT ( $, .RADIAN. ) );
#214 = CARTESIAN_POINT ( 'NONE',  ( 0.1874999999999998335, 3.500000000000000000, 2.296212748401285877E-17 ) ) ;
#215 = CARTESIAN_POINT ( 'NONE',  ( 2.296212748401285877E-17, 1.500000000000000222, 0.1874999999999998335 ) ) ;
#216 = ORIENTED_EDGE ( 'NONE', *, *, #177, .F. ) ;
#217 = CARTESIAN_POINT ( 'NONE',  ( 1.844336024200838922E-16, 1.500000000000000222, 0.000000000000000000 ) ) ;
#218 = AXIS2_PLACEMENT_3D ( 'NONE', #115, #292, #246 ) ;
#219 =( GEOMETRIC_REPRESENTATION_CONTEXT ( 3 ) GLOBAL_UNCERTAINTY_ASSIGNED_CONTEXT ( ( #258 ) ) GLOBAL_UNIT_ASSIGNED_CONTEXT ( ( #173, #285, #106 ) ) REPRESENTATION_CONTEXT ( 'NONE', 'WORKASPACE' ) );
#220 = EDGE_CURVE ( 'NONE', #1, #321, #286, .T. ) ;
#221 = SURFACE_STYLE_USAGE ( .BOTH. , #331 ) ;
#222 =( NAMED_UNIT ( * ) SI_UNIT ( $, .STERADIAN. ) SOLID_ANGLE_UNIT ( ) );
#223 = CARTESIAN_POINT ( 'NONE',  ( -1.148106374200644017E-17, 0.000000000000000000, 0.000000000000000000 ) ) ;
#224 = FACE_OUTER_BOUND ( 'NONE', #361, .T. ) ;
#225 =( GEOMETRIC_REPRESENTATION_CONTEXT ( 3 ) GLOBAL_UNCERTAINTY_ASSIGNED_CONTEXT ( ( #46 ) ) GLOBAL_UNIT_ASSIGNED_CONTEXT ( ( #308, #163, #282 ) ) REPRESENTATION_CONTEXT ( 'NONE', 'WORKASPACE' ) );
#226 =( LENGTH_UNIT ( ) NAMED_UNIT ( * ) SI_UNIT ( $, .METRE. ) );
#227 = CARTESIAN_POINT ( 'NONE',  ( 0.000000000000000000, 1.500000000000000222, -0.1874999999999998335 ) ) ;
#228 = DIRECTION ( 'NONE',  ( 0.000000000000000000, 0.000000000000000000, -1.000000000000000000 ) ) ;
#229 = DIRECTION ( 'NONE',  ( 1.228329711887257701E-16, -1.000000000000000000, 0.000000000000000000 ) ) ;
#230 = AXIS2_PLACEMENT_3D ( 'NONE', #30, #327, #59 ) ;
#231 = CARTESIAN_POINT ( 'NONE',  ( 0.000000000000000000, 0.1875000000000000555, 0.000000000000000000 ) ) ;
#232 = STYLED_ITEM ( 'NONE', ( #280 ), #301 ) ;
#233 = EDGE_CURVE ( 'NONE', #93, #317, #204, .T. ) ;
#234 = CARTESIAN_POINT ( 'NONE',  ( 0.000000000000000000, 0.000000000000000000, 0.000000000000000000 ) ) ;
#235 = DIMENSIONAL_EXPONENTS ( 1.000000000000000000, 0.000000000000000000, 0.000000000000000000, 0.000000000000000000, 0.000000000000000000, 0.000000000000000000, 0.000000000000000000 ) ;
#236 = VECTOR ( 'NONE', #91, 39.37007874015748143 ) ;
#237 = VERTEX_POINT ( 'NONE', #215 ) ;
#238 = MECHANICAL_DESIGN_GEOMETRIC_PRESENTATION_REPRESENTATION (  '', ( #232 ), #22 ) ;
#239 = EDGE_LOOP ( 'NONE', ( #148, #150, #126, #216 ) ) ;
#240 = CARTESIAN_POINT ( 'NONE',  ( 0.000000000000000000, 1.500000000000000222, 0.000000000000000000 ) ) ;
#241 = EDGE_CURVE ( 'NONE', #317, #93, #122, .T. ) ;
#242 = EDGE_LOOP ( 'NONE', ( #176, #112 ) ) ;
#243 = SPHERICAL_SURFACE ( 'NONE', #155, 0.1875000000000000555 ) ;
#244 = EDGE_LOOP ( 'NONE', ( #63, #349, #145, #84 ) ) ;
#245 = STYLED_ITEM ( 'NONE', ( #287 ), #136 ) ;
#246 = DIRECTION ( 'NONE',  ( -1.000000000000000000, 0.000000000000000000, 0.000000000000000000 ) ) ;
#247 = CARTESIAN_POINT ( 'NONE',  ( 2.296212748401286493E-17, 0.000000000000000000, 0.1874999999999999445 ) ) ;
#248 = ADVANCED_FACE ( 'NONE', ( #159 ), #277, .F. ) ;
#249 = CARTESIAN_POINT ( 'NONE',  ( 0.000000000000000000, 0.000000000000000000, -0.1874999999999999445 ) ) ;
#250 = VERTEX_POINT ( 'NONE', #307 ) ;
#251 = COLOUR_RGB ( '',0.7921568627450980005, 0.8196078431372548767, 0.9333333333333333481 ) ;
#252 = AXIS2_PLACEMENT_3D ( 'NONE', #41, #259, #21 ) ;
#253 = ORIENTED_EDGE ( 'NONE', *, *, #334, .T. ) ;
#254 =( NAMED_UNIT ( * ) PLANE_ANGLE_UNIT ( ) SI_UNIT ( $, .RADIAN. ) );
#255 = PRESENTATION_STYLE_ASSIGNMENT (( #221 ) ) ;
#256 =( LENGTH_UNIT ( ) NAMED_UNIT ( * ) SI_UNIT ( $, .METRE. ) );
#257 = AXIS2_PLACEMENT_3D ( 'NONE', #154, #229, #335 ) ;
#258 = UNCERTAINTY_MEASURE_WITH_UNIT (LENGTH_MEASURE( 1.000000000000000082E-05 ), #173, 'distance_accuracy_value', 'NONE');
#259 = DIRECTION ( 'NONE',  ( -1.228329711887257701E-16, 1.000000000000000000, -0.000000000000000000 ) ) ;
#260 = DIRECTION ( 'NONE',  ( -0.000000000000000000, -1.000000000000000000, -0.000000000000000000 ) ) ;
#261 = MANIFOLD_SOLID_BREP ( 'Revolve - Cutting Edge', #275 ) ;
#262 = EDGE_CURVE ( 'NONE', #86, #114, #31, .T. ) ;
#263 = DIRECTION ( 'NONE',  ( -1.228329711887257701E-16, 1.000000000000000000, -0.000000000000000000 ) ) ;
#264 = FILL_AREA_STYLE_COLOUR ( '', #20 ) ;
#265 = VERTEX_POINT ( 'NONE', #227 ) ;
#266 = MECHANICAL_DESIGN_GEOMETRIC_PRESENTATION_REPRESENTATION (  '', ( #245 ), #314 ) ;
#267 = ADVANCED_FACE ( 'NONE', ( #224 ), #193, .F. ) ;
#268 = SURFACE_STYLE_USAGE ( .BOTH. , #90 ) ;
#269 =( CONVERSION_BASED_UNIT ( 'INCH', #87 ) LENGTH_UNIT ( ) NAMED_UNIT ( #322 ) );
#270 = ORIENTED_EDGE ( 'NONE', *, *, #142, .T. ) ;
#271 =( GEOMETRIC_REPRESENTATION_CONTEXT ( 3 ) GLOBAL_UNCERTAINTY_ASSIGNED_CONTEXT ( ( #305 ) ) GLOBAL_UNIT_ASSIGNED_CONTEXT ( ( #207, #131, #74 ) ) REPRESENTATION_CONTEXT ( 'NONE', 'WORKASPACE' ) );
#272 = ORIENTED_EDGE ( 'NONE', *, *, #103, .F. ) ;
#273 = CARTESIAN_POINT ( 'NONE',  ( 1.844336024200838922E-16, 1.500000000000000222, 0.000000000000000000 ) ) ;
#274 = SURFACE_STYLE_FILL_AREA ( #38 ) ;
#275 = CLOSED_SHELL ( 'NONE', ( #40, #301, #136, #128, #199 ) ) ;
#276 = MECHANICAL_DESIGN_GEOMETRIC_PRESENTATION_REPRESENTATION (  '', ( #211 ), #364 ) ;
#277 = PLANE ( 'NONE',  #257 ) ;
#278 = FILL_AREA_STYLE_COLOUR ( '', #47 ) ;
#279 = CARTESIAN_POINT ( 'NONE',  ( 0.000000000000000000, 0.1875000000000000555, -0.1875000000000000555 ) ) ;
#280 = PRESENTATION_STYLE_ASSIGNMENT (( #161 ) ) ;
#281 =( CONVERSION_BASED_UNIT ( 'INCH', #306 ) LENGTH_UNIT ( ) NAMED_UNIT ( #372 ) );
#282 =( NAMED_UNIT ( * ) SI_UNIT ( $, .STERADIAN. ) SOLID_ANGLE_UNIT ( ) );
#283 = LENGTH_MEASURE_WITH_UNIT ( LENGTH_MEASURE( 0.02539999999999999897 ), #85 );
#284 = DIRECTION ( 'NONE',  ( 0.000000000000000000, 0.000000000000000000, -1.000000000000000000 ) ) ;
#285 =( NAMED_UNIT ( * ) PLANE_ANGLE_UNIT ( ) SI_UNIT ( $, .RADIAN. ) );
#286 = CIRCLE ( 'NONE', #370, 0.1875000000000000555 ) ;
#287 = PRESENTATION_STYLE_ASSIGNMENT (( #175 ) ) ;
#288 = EDGE_CURVE ( 'NONE', #321, #53, #290, .T. ) ;
#289 = FILL_AREA_STYLE ('',( #264 ) ) ;
#290 = CIRCLE ( 'NONE', #341, 0.1875000000000000555 ) ;
#291 = DIMENSIONAL_EXPONENTS ( 1.000000000000000000, 0.000000000000000000, 0.000000000000000000, 0.000000000000000000, 0.000000000000000000, 0.000000000000000000, 0.000000000000000000 ) ;
#292 = DIRECTION ( 'NONE',  ( -1.228329711887257701E-16, 1.000000000000000000, -0.000000000000000000 ) ) ;
#293 = ORIENTED_EDGE ( 'NONE', *, *, #133, .F. ) ;
#294 = FACE_OUTER_BOUND ( 'NONE', #244, .T. ) ;
#295 = EDGE_LOOP ( 'NONE', ( #210, #351 ) ) ;
#296 = CARTESIAN_POINT ( 'NONE',  ( -6.123233995736759873E-17, 3.500000000000000000, 0.000000000000000000 ) ) ;
#297 = CIRCLE ( 'NONE', #345, 0.1875000000000000555 ) ;
#298 = PRESENTATION_LAYER_ASSIGNMENT (  '', '', ( #82 ) ) ;
#299 = CARTESIAN_POINT ( 'NONE',  ( 2.296212748401287726E-17, 0.1875000000000000555, 0.1875000000000000278 ) ) ;
#300 = PRESENTATION_STYLE_ASSIGNMENT (( #64 ) ) ;
#301 = ADVANCED_FACE ( 'NONE', ( #362 ), #96, .T. ) ;
#302 = ORIENTED_EDGE ( 'NONE', *, *, #233, .F. ) ;
#303 = AXIS2_PLACEMENT_3D ( 'NONE', #129, #260, #363 ) ;
#304 = DIRECTION ( 'NONE',  ( -1.000000000000000000, 0.000000000000000000, 0.000000000000000000 ) ) ;
#305 = UNCERTAINTY_MEASURE_WITH_UNIT (LENGTH_MEASURE( 1.000000000000000082E-05 ), #207, 'distance_accuracy_value', 'NONE');
#306 = LENGTH_MEASURE_WITH_UNIT ( LENGTH_MEASURE( 0.02539999999999999897 ), #226 );
#307 = CARTESIAN_POINT ( 'NONE',  ( -0.1875000000000000555, 0.1875000000000000555, 2.296212748401287726E-17 ) ) ;
#308 =( CONVERSION_BASED_UNIT ( 'INCH', #283 ) LENGTH_UNIT ( ) NAMED_UNIT ( #113 ) );
#309 = DIRECTION ( 'NONE',  ( 1.224646799147353207E-16, -0.000000000000000000, 1.000000000000000000 ) ) ;
#310 = AXIS2_PLACEMENT_3D ( 'NONE', #66, #16, #97 ) ;
#311 = CLOSED_SHELL ( 'NONE', ( #373, #267, #202, #248 ) ) ;
#312 = CARTESIAN_POINT ( 'NONE',  ( 0.000000000000000000, 0.1875000000000000555, 0.000000000000000000 ) ) ;
#313 =( LENGTH_UNIT ( ) NAMED_UNIT ( * ) SI_UNIT ( $, .METRE. ) );
#314 =( GEOMETRIC_REPRESENTATION_CONTEXT ( 3 ) GLOBAL_UNCERTAINTY_ASSIGNED_CONTEXT ( ( #162 ) ) GLOBAL_UNIT_ASSIGNED_CONTEXT ( ( #281, #213, #318 ) ) REPRESENTATION_CONTEXT ( 'NONE', 'WORKASPACE' ) );
#315 = EDGE_LOOP ( 'NONE', ( #253, #5, #89, #325 ) ) ;
#316 = DIMENSIONAL_EXPONENTS ( 1.000000000000000000, 0.000000000000000000, 0.000000000000000000, 0.000000000000000000, 0.000000000000000000, 0.000000000000000000, 0.000000000000000000 ) ;
#317 = VERTEX_POINT ( 'NONE', #340 ) ;
#318 =( NAMED_UNIT ( * ) SI_UNIT ( $, .STERADIAN. ) SOLID_ANGLE_UNIT ( ) );
#319 = CIRCLE ( 'NONE', #69, 0.1875000000000000555 ) ;
#320 = FILL_AREA_STYLE_COLOUR ( '', #56 ) ;
#321 = VERTEX_POINT ( 'NONE', #174 ) ;
#322 = DIMENSIONAL_EXPONENTS ( 1.000000000000000000, 0.000000000000000000, 0.000000000000000000, 0.000000000000000000, 0.000000000000000000, 0.000000000000000000, 0.000000000000000000 ) ;
#323 = CARTESIAN_POINT ( 'NONE',  ( 0.000000000000000000, 0.1875000000000000555, 0.000000000000000000 ) ) ;
#324 = CYLINDRICAL_SURFACE ( 'NONE', #303, 0.1874999999999999445 ) ;
#325 = ORIENTED_EDGE ( 'NONE', *, *, #133, .T. ) ;
#326 = PRESENTATION_LAYER_ASSIGNMENT (  '', '', ( #76 ) ) ;
#327 = DIRECTION ( 'NONE',  ( 0.000000000000000000, 1.000000000000000000, 0.000000000000000000 ) ) ;
#328 = EDGE_CURVE ( 'NONE', #250, #53, #319, .T. ) ;
#329 = SPHERICAL_SURFACE ( 'NONE', #310, 0.1875000000000000555 ) ;
#330 = SURFACE_STYLE_FILL_AREA ( #71 ) ;
#331 = SURFACE_SIDE_STYLE ('',( #274 ) ) ;
#332 = LENGTH_MEASURE_WITH_UNIT ( LENGTH_MEASURE( 0.02539999999999999897 ), #256 );
#333 = DIRECTION ( 'NONE',  ( -0.000000000000000000, -1.000000000000000000, -0.000000000000000000 ) ) ;
#334 = EDGE_CURVE ( 'NONE', #3, #250, #26, .T. ) ;
#335 = DIRECTION ( 'NONE',  ( 1.000000000000000000, 1.228329711887257701E-16, 0.000000000000000000 ) ) ;
#336 = SURFACE_SIDE_STYLE ('',( #36 ) ) ;
#337 =( CONVERSION_BASED_UNIT ( 'INCH', #332 ) LENGTH_UNIT ( ) NAMED_UNIT ( #27 ) );
#338 = PRESENTATION_STYLE_ASSIGNMENT (( #102 ) ) ;
#339 =( LENGTH_UNIT ( ) NAMED_UNIT ( * ) SI_UNIT ( $, .METRE. ) );
#340 = CARTESIAN_POINT ( 'NONE',  ( -0.1874999999999995004, 1.500000000000000222, 0.000000000000000000 ) ) ;
#341 = AXIS2_PLACEMENT_3D ( 'NONE', #188, #186, #98 ) ;
#342 = PLANE ( 'NONE',  #230 ) ;
#343 = PRODUCT ( '81323', '81323', '', ( #168 ) ) ;
#344 = ORIENTED_EDGE ( 'NONE', *, *, #233, .T. ) ;
#345 = AXIS2_PLACEMENT_3D ( 'NONE', #123, #333, #68 ) ;
#346 = VECTOR ( 'NONE', #151, 39.37007874015748143 ) ;
#347 = DIRECTION ( 'NONE',  ( -1.228329711887257701E-16, 1.000000000000000000, -0.000000000000000000 ) ) ;
#348 = PRODUCT_DEFINITION ( 'UNKNOWN', '', #57, #15 ) ;
#349 = ORIENTED_EDGE ( 'NONE', *, *, #75, .T. ) ;
#350 = CARTESIAN_POINT ( 'NONE',  ( -2.296212748401288034E-17, 0.1875000000000000555, 0.000000000000000000 ) ) ;
#351 = ORIENTED_EDGE ( 'NONE', *, *, #208, .F. ) ;
#352 = DIRECTION ( 'NONE',  ( -0.000000000000000000, -1.000000000000000000, -0.000000000000000000 ) ) ;
#353 = FILL_AREA_STYLE_COLOUR ( '', #99 ) ;
#354 = DIRECTION ( 'NONE',  ( 0.000000000000000000, 0.000000000000000000, -1.000000000000000000 ) ) ;
#355 = LINE ( 'NONE', #34, #346 ) ;
#356 = CARTESIAN_POINT ( 'NONE',  ( 0.000000000000000000, 1.500000000000000222, 0.000000000000000000 ) ) ;
#357 = AXIS2_PLACEMENT_3D ( 'NONE', #217, #146, #92 ) ;
#358 = PRESENTATION_LAYER_ASSIGNMENT (  '', '', ( #94 ) ) ;
#359 =( NAMED_UNIT ( * ) SI_UNIT ( $, .STERADIAN. ) SOLID_ANGLE_UNIT ( ) );
#360 =( NAMED_UNIT ( * ) PLANE_ANGLE_UNIT ( ) SI_UNIT ( $, .RADIAN. ) );
#361 = EDGE_LOOP ( 'NONE', ( #117, #302 ) ) ;
#362 = FACE_OUTER_BOUND ( 'NONE', #190, .T. ) ;
#363 = DIRECTION ( 'NONE',  ( 0.000000000000000000, 0.000000000000000000, -1.000000000000000000 ) ) ;
#364 =( GEOMETRIC_REPRESENTATION_CONTEXT ( 3 ) GLOBAL_UNCERTAINTY_ASSIGNED_CONTEXT ( ( #65 ) ) GLOBAL_UNIT_ASSIGNED_CONTEXT ( ( #269, #62, #7 ) ) REPRESENTATION_CONTEXT ( 'NONE', 'WORKASPACE' ) );
#365 = LENGTH_MEASURE_WITH_UNIT ( LENGTH_MEASURE( 0.02539999999999999897 ), #18 );
#366 = DIRECTION ( 'NONE',  ( -1.000000000000000000, -1.228329711887257701E-16, 0.000000000000000000 ) ) ;
#367 = EDGE_CURVE ( 'NONE', #93, #114, #108, .T. ) ;
#368 = DIRECTION ( 'NONE',  ( -0.000000000000000000, -1.000000000000000000, -0.000000000000000000 ) ) ;
#369 = DIRECTION ( 'NONE',  ( 0.000000000000000000, 0.000000000000000000, -1.000000000000000000 ) ) ;
#370 = AXIS2_PLACEMENT_3D ( 'NONE', #323, #55, #181 ) ;
#371 = COLOUR_RGB ( '',1.000000000000000000, 0.000000000000000000, 0.000000000000000000 ) ;
#372 = DIMENSIONAL_EXPONENTS ( 1.000000000000000000, 0.000000000000000000, 0.000000000000000000, 0.000000000000000000, 0.000000000000000000, 0.000000000000000000, 0.000000000000000000 ) ;
#373 = ADVANCED_FACE ( 'NONE', ( #196 ), #132, .T. ) ;
ENDSEC;
END-ISO-10303-21;
