ISO-10303-21;
HEADER;
FILE_DESCRIPTION (( 'STEP AP214' ),
    '1' );
FILE_NAME ('59606.STEP',
    '2023-07-24T15:14:50',
    ( '' ),
    ( '' ),
    'SwSTEP 2.0',
    'SolidWorks 2023',
    '' );
FILE_SCHEMA (( 'AUTOMOTIVE_DESIGN' ));
ENDSEC;

DATA;
#1 = VECTOR ( 'NONE', #46, 1000.000000000000000 ) ;
#2 =( NAMED_UNIT ( * ) PLANE_ANGLE_UNIT ( ) SI_UNIT ( $, .RADIAN. ) );
#3 = CARTESIAN_POINT ( 'NONE',  ( 0.000000000000000000, 0.000000000000000000, 0.000000000000000000 ) ) ;
#4 = PLANE ( 'NONE',  #41 ) ;
#5 = AXIS2_PLACEMENT_3D ( 'NONE', #291, #204, #120 ) ;
#6 = COLOUR_RGB ( '',0.7921568627450980005, 0.8196078431372548767, 0.9333333333333333481 ) ;
#7 = ORIENTED_EDGE ( 'NONE', *, *, #253, .F. ) ;
#8 =( LENGTH_UNIT ( ) NAMED_UNIT ( * ) SI_UNIT ( .MILLI., .METRE. ) );
#9 =( LENGTH_UNIT ( ) NAMED_UNIT ( * ) SI_UNIT ( .MILLI., .METRE. ) );
#10 = FILL_AREA_STYLE ('',( #149 ) ) ;
#11 = AXIS2_PLACEMENT_3D ( 'NONE', #314, #111, #64 ) ;
#12 =( GEOMETRIC_REPRESENTATION_CONTEXT ( 3 ) GLOBAL_UNCERTAINTY_ASSIGNED_CONTEXT ( ( #90 ) ) GLOBAL_UNIT_ASSIGNED_CONTEXT ( ( #75, #52, #271 ) ) REPRESENTATION_CONTEXT ( 'NONE', 'WORKASPACE' ) );
#13 = ORIENTED_EDGE ( 'NONE', *, *, #330, .F. ) ;
#14 = CARTESIAN_POINT ( 'NONE',  ( 0.000000000000000000, 1.000000000000000000, 0.000000000000000000 ) ) ;
#15 = EDGE_CURVE ( 'NONE', #98, #151, #67, .T. ) ;
#16 =( LENGTH_UNIT ( ) NAMED_UNIT ( * ) SI_UNIT ( .MILLI., .METRE. ) );
#17 = DIRECTION ( 'NONE',  ( -0.000000000000000000, -1.000000000000000000, -0.000000000000000000 ) ) ;
#18 = UNCERTAINTY_MEASURE_WITH_UNIT (LENGTH_MEASURE( 1.000000000000000082E-05 ), #317, 'distance_accuracy_value', 'NONE');
#19 = DIRECTION ( 'NONE',  ( 0.000000000000000000, 0.000000000000000000, -1.000000000000000000 ) ) ;
#20 =( NAMED_UNIT ( * ) SI_UNIT ( $, .STERADIAN. ) SOLID_ANGLE_UNIT ( ) );
#21 = CARTESIAN_POINT ( 'NONE',  ( 9.797174393178825657E-16, 1.000000000000000000, 8.000000000000000000 ) ) ;
#22 = AXIS2_PLACEMENT_3D ( 'NONE', #276, #309, #134 ) ;
#23 = EDGE_CURVE ( 'NONE', #222, #71, #162, .T. ) ;
#24 = UNCERTAINTY_MEASURE_WITH_UNIT (LENGTH_MEASURE( 1.000000000000000082E-05 ), #368, 'distance_accuracy_value', 'NONE');
#25 = DIRECTION ( 'NONE',  ( 1.213802797673107944E-16, -1.000000000000000000, 0.000000000000000000 ) ) ;
#26 =( LENGTH_UNIT ( ) NAMED_UNIT ( * ) SI_UNIT ( .MILLI., .METRE. ) );
#27 = DIRECTION ( 'NONE',  ( -0.000000000000000000, -1.000000000000000000, -0.000000000000000000 ) ) ;
#28 =( NAMED_UNIT ( * ) PLANE_ANGLE_UNIT ( ) SI_UNIT ( $, .RADIAN. ) );
#29 = ORIENTED_EDGE ( 'NONE', *, *, #262, .F. ) ;
#30 = TOROIDAL_SURFACE ( 'NONE', #11, 7.000000000000000000, 1.000000000000000000 ) ;
#31 = CARTESIAN_POINT ( 'NONE',  ( 9.797174393178825657E-16, 0.000000000000000000, 8.000000000000000000 ) ) ;
#32 = AXIS2_PLACEMENT_3D ( 'NONE', #303, #135, #274 ) ;
#33 = STYLED_ITEM ( 'NONE', ( #191 ), #340 ) ;
#34 = EDGE_LOOP ( 'NONE', ( #322, #323 ) ) ;
#35 =( NAMED_UNIT ( * ) SI_UNIT ( $, .STERADIAN. ) SOLID_ANGLE_UNIT ( ) );
#36 = ORIENTED_EDGE ( 'NONE', *, *, #123, .F. ) ;
#37 = SURFACE_STYLE_FILL_AREA ( #96 ) ;
#38 = ORIENTED_EDGE ( 'NONE', *, *, #210, .F. ) ;
#39 = LINE ( 'NONE', #31, #284 ) ;
#40 = ORIENTED_EDGE ( 'NONE', *, *, #60, .F. ) ;
#41 = AXIS2_PLACEMENT_3D ( 'NONE', #173, #25, #82 ) ;
#42 = ADVANCED_FACE ( 'NONE', ( #76 ), #272, .T. ) ;
#43 = PRESENTATION_STYLE_ASSIGNMENT (( #365 ) ) ;
#44 = CARTESIAN_POINT ( 'NONE',  ( 5.204170427930421283E-15, 32.00000000000000000, 0.000000000000000000 ) ) ;
#45 = PRESENTATION_STYLE_ASSIGNMENT (( #224 ) ) ;
#46 = DIRECTION ( 'NONE',  ( -1.213802797673107944E-16, 1.000000000000000000, -0.000000000000000000 ) ) ;
#47 = EDGE_LOOP ( 'NONE', ( #127, #121, #350, #292 ) ) ;
#48 = COLOUR_RGB ( '',1.000000000000000000, 0.000000000000000000, 0.000000000000000000 ) ;
#49 = STYLED_ITEM ( 'NONE', ( #93 ), #215 ) ;
#50 = AXIS2_PLACEMENT_3D ( 'NONE', #14, #250, #332 ) ;
#51 = DIRECTION ( 'NONE',  ( -1.213802797673107944E-16, 1.000000000000000000, -0.000000000000000000 ) ) ;
#52 =( NAMED_UNIT ( * ) PLANE_ANGLE_UNIT ( ) SI_UNIT ( $, .RADIAN. ) );
#53 = EDGE_CURVE ( 'NONE', #100, #294, #258, .T. ) ;
#54 = UNCERTAINTY_MEASURE_WITH_UNIT (LENGTH_MEASURE( 1.000000000000000082E-05 ), #26, 'distance_accuracy_value', 'NONE');
#55 = FILL_AREA_STYLE ('',( #344 ) ) ;
#56 = SURFACE_STYLE_USAGE ( .BOTH. , #195 ) ;
#57 = FACE_OUTER_BOUND ( 'NONE', #348, .T. ) ;
#58 = EDGE_CURVE ( 'NONE', #243, #151, #360, .T. ) ;
#59 = FACE_OUTER_BOUND ( 'NONE', #92, .T. ) ;
#60 = EDGE_CURVE ( 'NONE', #151, #98, #357, .T. ) ;
#61 = VECTOR ( 'NONE', #145, 1000.000000000000000 ) ;
#62 = AXIS2_PLACEMENT_3D ( 'NONE', #153, #126, #351 ) ;
#63 = UNCERTAINTY_MEASURE_WITH_UNIT (LENGTH_MEASURE( 1.000000000000000082E-05 ), #16, 'distance_accuracy_value', 'NONE');
#64 = DIRECTION ( 'NONE',  ( 0.000000000000000000, 0.000000000000000000, -1.000000000000000000 ) ) ;
#65 =( NAMED_UNIT ( * ) SI_UNIT ( $, .STERADIAN. ) SOLID_ANGLE_UNIT ( ) );
#66 = ORIENTED_EDGE ( 'NONE', *, *, #15, .F. ) ;
#67 = CIRCLE ( 'NONE', #345, 8.000000000000001776 ) ;
#68 = AXIS2_PLACEMENT_3D ( 'NONE', #219, #245, #106 ) ;
#69 = ORIENTED_EDGE ( 'NONE', *, *, #273, .F. ) ;
#70 = ORIENTED_EDGE ( 'NONE', *, *, #58, .T. ) ;
#71 = VERTEX_POINT ( 'NONE', #21 ) ;
#72 = PRESENTATION_STYLE_ASSIGNMENT (( #186 ) ) ;
#73 = CIRCLE ( 'NONE', #32, 1.000000000000000000 ) ;
#74 = SURFACE_STYLE_FILL_AREA ( #248 ) ;
#75 =( LENGTH_UNIT ( ) NAMED_UNIT ( * ) SI_UNIT ( .MILLI., .METRE. ) );
#76 = FACE_OUTER_BOUND ( 'NONE', #47, .T. ) ;
#77 =( LENGTH_UNIT ( ) NAMED_UNIT ( * ) SI_UNIT ( .MILLI., .METRE. ) );
#78 = CARTESIAN_POINT ( 'NONE',  ( -1.714505518806293652E-15, 89.00000000000000000, 0.000000000000000000 ) ) ;
#79 = STYLED_ITEM ( 'NONE', ( #72 ), #223 ) ;
#80 = CARTESIAN_POINT ( 'NONE',  ( 0.000000000000000000, 0.000000000000000000, 0.000000000000000000 ) ) ;
#81 = ADVANCED_FACE ( 'NONE', ( #192 ), #109, .T. ) ;
#82 = DIRECTION ( 'NONE',  ( 1.000000000000000000, 1.213802797673107944E-16, 0.000000000000000000 ) ) ;
#83 = CARTESIAN_POINT ( 'NONE',  ( 0.000000000000000000, 0.000000000000000000, 0.000000000000000000 ) ) ;
#84 = FILL_AREA_STYLE ('',( #229 ) ) ;
#85 = DIRECTION ( 'NONE',  ( 1.000000000000000000, 0.000000000000000000, 0.000000000000000000 ) ) ;
#86 = CARTESIAN_POINT ( 'NONE',  ( 5.204170427930421283E-15, 32.00000000000000000, 0.000000000000000000 ) ) ;
#87 = SURFACE_STYLE_FILL_AREA ( #55 ) ;
#88 = SURFACE_SIDE_STYLE ('',( #87 ) ) ;
#89 = PRESENTATION_LAYER_ASSIGNMENT (  '', '', ( #95 ) ) ;
#90 = UNCERTAINTY_MEASURE_WITH_UNIT (LENGTH_MEASURE( 1.000000000000000082E-05 ), #75, 'distance_accuracy_value', 'NONE');
#91 = SURFACE_STYLE_FILL_AREA ( #10 ) ;
#92 = EDGE_LOOP ( 'NONE', ( #13, #69 ) ) ;
#93 = PRESENTATION_STYLE_ASSIGNMENT (( #99 ) ) ;
#94 = ORIENTED_EDGE ( 'NONE', *, *, #319, .F. ) ;
#95 = STYLED_ITEM ( 'NONE', ( #43 ), #97 ) ;
#96 = FILL_AREA_STYLE ('',( #181 ) ) ;
#97 = ADVANCED_FACE ( 'NONE', ( #166 ), #30, .T. ) ;
#98 = VERTEX_POINT ( 'NONE', #369 ) ;
#99 = SURFACE_STYLE_USAGE ( .BOTH. , #320 ) ;
#100 = VERTEX_POINT ( 'NONE', #339 ) ;
#101 = CARTESIAN_POINT ( 'NONE',  ( 9.797174393178825657E-16, 32.00000000000000000, 8.000000000000000000 ) ) ;
#102 = EDGE_LOOP ( 'NONE', ( #240, #157, #36, #214 ) ) ;
#103 = COLOUR_RGB ( '',1.000000000000000000, 0.000000000000000000, 0.000000000000000000 ) ;
#104 = AXIS2_PLACEMENT_3D ( 'NONE', #44, #221, #137 ) ;
#105 = ADVANCED_FACE ( 'NONE', ( #176 ), #287, .T. ) ;
#106 = DIRECTION ( 'NONE',  ( -1.000000000000000000, 0.000000000000000000, 0.000000000000000000 ) ) ;
#107 = CARTESIAN_POINT ( 'NONE',  ( -1.714505518806293849E-15, 89.00000000000000000, 0.000000000000000000 ) ) ;
#108 = FILL_AREA_STYLE_COLOUR ( '', #48 ) ;
#109 = CYLINDRICAL_SURFACE ( 'NONE', #144, 7.999999999999998224 ) ;
#110 = MECHANICAL_DESIGN_GEOMETRIC_PRESENTATION_REPRESENTATION (  '', ( #324 ), #318 ) ;
#111 = DIRECTION ( 'NONE',  ( -0.000000000000000000, -1.000000000000000000, -0.000000000000000000 ) ) ;
#112 = DIRECTION ( 'NONE',  ( 0.000000000000000000, 1.000000000000000000, 0.000000000000000000 ) ) ;
#113 =( GEOMETRIC_REPRESENTATION_CONTEXT ( 3 ) GLOBAL_UNCERTAINTY_ASSIGNED_CONTEXT ( ( #63 ) ) GLOBAL_UNIT_ASSIGNED_CONTEXT ( ( #16, #141, #278 ) ) REPRESENTATION_CONTEXT ( 'NONE', 'WORKASPACE' ) );
#114 = PRODUCT_DEFINITION_FORMATION_WITH_SPECIFIED_SOURCE ( 'ANY', '', #290, .NOT_KNOWN. ) ;
#115 = FACE_OUTER_BOUND ( 'NONE', #34, .T. ) ;
#116 = PRODUCT_DEFINITION_SHAPE ( 'NONE', 'NONE',  #261 ) ;
#117 = PLANE ( 'NONE',  #269 ) ;
#118 = ADVANCED_FACE ( 'NONE', ( #59 ), #117, .F. ) ;
#119 = CIRCLE ( 'NONE', #366, 7.000000000000000000 ) ;
#120 = DIRECTION ( 'NONE',  ( 0.000000000000000000, 0.000000000000000000, -1.000000000000000000 ) ) ;
#121 = ORIENTED_EDGE ( 'NONE', *, *, #210, .T. ) ;
#122 = EDGE_LOOP ( 'NONE', ( #7, #94 ) ) ;
#123 = EDGE_CURVE ( 'NONE', #294, #100, #119, .T. ) ;
#124 = EDGE_LOOP ( 'NONE', ( #353, #265, #40, #184 ) ) ;
#125 = MECHANICAL_DESIGN_GEOMETRIC_PRESENTATION_REPRESENTATION (  '', ( #49 ), #147 ) ;
#126 = DIRECTION ( 'NONE',  ( -0.000000000000000000, -1.000000000000000000, -0.000000000000000000 ) ) ;
#127 = ORIENTED_EDGE ( 'NONE', *, *, #253, .T. ) ;
#128 = FACE_OUTER_BOUND ( 'NONE', #124, .T. ) ;
#129 = DIRECTION ( 'NONE',  ( -1.000000000000000000, 0.000000000000000000, 0.000000000000000000 ) ) ;
#130 = EDGE_CURVE ( 'NONE', #189, #222, #237, .T. ) ;
#131 = CLOSED_SHELL ( 'NONE', ( #42, #200, #194, #97, #215, #105 ) ) ;
#132 = DIRECTION ( 'NONE',  ( 0.000000000000000000, 0.000000000000000000, -1.000000000000000000 ) ) ;
#133 = AXIS2_PLACEMENT_3D ( 'NONE', #201, #112, #343 ) ;
#134 = DIRECTION ( 'NONE',  ( 0.000000000000000000, 0.000000000000000000, -1.000000000000000000 ) ) ;
#135 = DIRECTION ( 'NONE',  ( 1.000000000000000000, 0.000000000000000000, -1.224646799147353207E-16 ) ) ;
#136 = CARTESIAN_POINT ( 'NONE',  ( 0.000000000000000000, 1.000000000000000000, 0.000000000000000000 ) ) ;
#137 = DIRECTION ( 'NONE',  ( -1.000000000000000000, 0.000000000000000000, 0.000000000000000000 ) ) ;
#138 = FILL_AREA_STYLE ('',( #275 ) ) ;
#139 = DIRECTION ( 'NONE',  ( -1.213802797673107944E-16, 1.000000000000000000, -0.000000000000000000 ) ) ;
#140 = PRESENTATION_LAYER_ASSIGNMENT (  '', '', ( #170 ) ) ;
#141 =( NAMED_UNIT ( * ) PLANE_ANGLE_UNIT ( ) SI_UNIT ( $, .RADIAN. ) );
#142 = UNCERTAINTY_MEASURE_WITH_UNIT (LENGTH_MEASURE( 1.000000000000000082E-05 ), #164, 'distance_accuracy_value', 'NONE');
#143 = STYLED_ITEM ( 'NONE', ( #45 ), #42 ) ;
#144 = AXIS2_PLACEMENT_3D ( 'NONE', #107, #51, #301 ) ;
#145 = DIRECTION ( 'NONE',  ( -0.000000000000000000, -1.000000000000000000, -0.000000000000000000 ) ) ;
#146 = ORIENTED_EDGE ( 'NONE', *, *, #235, .F. ) ;
#147 =( GEOMETRIC_REPRESENTATION_CONTEXT ( 3 ) GLOBAL_UNCERTAINTY_ASSIGNED_CONTEXT ( ( #313 ) ) GLOBAL_UNIT_ASSIGNED_CONTEXT ( ( #8, #28, #213 ) ) REPRESENTATION_CONTEXT ( 'NONE', 'WORKASPACE' ) );
#148 = TOROIDAL_SURFACE ( 'NONE', #299, 7.000000000000000000, 1.000000000000000000 ) ;
#149 = FILL_AREA_STYLE_COLOUR ( '', #185 ) ;
#150 = FACE_OUTER_BOUND ( 'NONE', #102, .T. ) ;
#151 = VERTEX_POINT ( 'NONE', #316 ) ;
#152 = ADVANCED_FACE ( 'NONE', ( #57 ), #4, .F. ) ;
#153 = CARTESIAN_POINT ( 'NONE',  ( 0.000000000000000000, 0.000000000000000000, 0.000000000000000000 ) ) ;
#154 = COLOUR_RGB ( '',1.000000000000000000, 0.000000000000000000, 0.000000000000000000 ) ;
#155 = CARTESIAN_POINT ( 'NONE',  ( 0.000000000000000000, 1.000000000000000000, -8.000000000000000000 ) ) ;
#156 =( GEOMETRIC_REPRESENTATION_CONTEXT ( 3 ) GLOBAL_UNCERTAINTY_ASSIGNED_CONTEXT ( ( #175 ) ) GLOBAL_UNIT_ASSIGNED_CONTEXT ( ( #77, #337, #20 ) ) REPRESENTATION_CONTEXT ( 'NONE', 'WORKASPACE' ) );
#157 = ORIENTED_EDGE ( 'NONE', *, *, #235, .T. ) ;
#158 = CARTESIAN_POINT ( 'NONE',  ( 0.000000000000000000, 0.000000000000000000, -7.000000000000000000 ) ) ;
#159 = SURFACE_SIDE_STYLE ('',( #308 ) ) ;
#160 = PRODUCT_RELATED_PRODUCT_CATEGORY ( 'part', '', ( #290 ) ) ;
#161 = DIRECTION ( 'NONE',  ( -0.000000000000000000, -1.000000000000000000, -0.000000000000000000 ) ) ;
#162 = CIRCLE ( 'NONE', #207, 8.000000000000000000 ) ;
#163 =( GEOMETRIC_REPRESENTATION_CONTEXT ( 3 ) GLOBAL_UNCERTAINTY_ASSIGNED_CONTEXT ( ( #54 ) ) GLOBAL_UNIT_ASSIGNED_CONTEXT ( ( #26, #203, #35 ) ) REPRESENTATION_CONTEXT ( 'NONE', 'WORKASPACE' ) );
#164 =( LENGTH_UNIT ( ) NAMED_UNIT ( * ) SI_UNIT ( .MILLI., .METRE. ) );
#165 = AXIS2_PLACEMENT_3D ( 'NONE', #358, #244, #266 ) ;
#166 = FACE_OUTER_BOUND ( 'NONE', #347, .T. ) ;
#167 = FILL_AREA_STYLE_COLOUR ( '', #6 ) ;
#168 =( NAMED_UNIT ( * ) SI_UNIT ( $, .STERADIAN. ) SOLID_ANGLE_UNIT ( ) );
#169 = PRESENTATION_STYLE_ASSIGNMENT (( #310 ) ) ;
#170 = STYLED_ITEM ( 'NONE', ( #169 ), #194 ) ;
#171 =( GEOMETRIC_REPRESENTATION_CONTEXT ( 3 ) GLOBAL_UNCERTAINTY_ASSIGNED_CONTEXT ( ( #24 ) ) GLOBAL_UNIT_ASSIGNED_CONTEXT ( ( #368, #254, #168 ) ) REPRESENTATION_CONTEXT ( 'NONE', 'WORKASPACE' ) );
#172 = CARTESIAN_POINT ( 'NONE',  ( -1.714505518806293849E-15, 89.00000000000000000, 0.000000000000000000 ) ) ;
#173 = CARTESIAN_POINT ( 'NONE',  ( 8.000000000000000000, 89.00000000000000000, 0.000000000000000000 ) ) ;
#174 = DIRECTION ( 'NONE',  ( 0.000000000000000000, 0.000000000000000000, 1.000000000000000000 ) ) ;
#175 = UNCERTAINTY_MEASURE_WITH_UNIT (LENGTH_MEASURE( 1.000000000000000082E-05 ), #77, 'distance_accuracy_value', 'NONE');
#176 = FACE_OUTER_BOUND ( 'NONE', #122, .T. ) ;
#177 = FACE_OUTER_BOUND ( 'NONE', #333, .T. ) ;
#178 = DIRECTION ( 'NONE',  ( -0.000000000000000000, -1.000000000000000000, -0.000000000000000000 ) ) ;
#179 = MECHANICAL_DESIGN_GEOMETRIC_PRESENTATION_REPRESENTATION (  '', ( #79 ), #156 ) ;
#180 = ORIENTED_EDGE ( 'NONE', *, *, #273, .T. ) ;
#181 = FILL_AREA_STYLE_COLOUR ( '', #346 ) ;
#182 = ORIENTED_EDGE ( 'NONE', *, *, #295, .F. ) ;
#183 = CARTESIAN_POINT ( 'NONE',  ( 0.000000000000000000, 1.000000000000000000, 0.000000000000000000 ) ) ;
#184 = ORIENTED_EDGE ( 'NONE', *, *, #58, .F. ) ;
#185 = COLOUR_RGB ( '',1.000000000000000000, 0.000000000000000000, 0.000000000000000000 ) ;
#186 = SURFACE_STYLE_USAGE ( .BOTH. , #159 ) ;
#187 = DIRECTION ( 'NONE',  ( -1.213802797673107944E-16, 1.000000000000000000, -0.000000000000000000 ) ) ;
#188 = CARTESIAN_POINT ( 'NONE',  ( 7.999999999999996447, 89.00000000000000000, 9.797174393178823685E-16 ) ) ;
#189 = VERTEX_POINT ( 'NONE', #282 ) ;
#190 = SURFACE_STYLE_USAGE ( .BOTH. , #267 ) ;
#191 = PRESENTATION_STYLE_ASSIGNMENT (( #190 ) ) ;
#192 = FACE_OUTER_BOUND ( 'NONE', #205, .T. ) ;
#193 = DIRECTION ( 'NONE',  ( -1.000000000000000000, 0.000000000000000000, 0.000000000000000000 ) ) ;
#194 = ADVANCED_FACE ( 'NONE', ( #115 ), #236, .T. ) ;
#195 = SURFACE_SIDE_STYLE ('',( #280 ) ) ;
#196 = AXIS2_PLACEMENT_3D ( 'NONE', #172, #252, #370 ) ;
#197 = CIRCLE ( 'NONE', #300, 1.000000000000000000 ) ;
#198 = DIRECTION ( 'NONE',  ( -1.000000000000000000, -1.213802797673107944E-16, 0.000000000000000000 ) ) ;
#199 = CARTESIAN_POINT ( 'NONE',  ( 0.000000000000000000, 0.000000000000000000, -8.000000000000000000 ) ) ;
#200 = ADVANCED_FACE ( 'NONE', ( #150 ), #148, .T. ) ;
#201 = CARTESIAN_POINT ( 'NONE',  ( 0.000000000000000000, 32.00000000000000000, 0.000000000000000000 ) ) ;
#202 =( GEOMETRIC_REPRESENTATION_CONTEXT ( 3 ) GLOBAL_UNCERTAINTY_ASSIGNED_CONTEXT ( ( #142 ) ) GLOBAL_UNIT_ASSIGNED_CONTEXT ( ( #164, #249, #363 ) ) REPRESENTATION_CONTEXT ( 'NONE', 'WORKASPACE' ) );
#203 =( NAMED_UNIT ( * ) PLANE_ANGLE_UNIT ( ) SI_UNIT ( $, .RADIAN. ) );
#204 = DIRECTION ( 'NONE',  ( 0.000000000000000000, -1.000000000000000000, -0.000000000000000000 ) ) ;
#205 = EDGE_LOOP ( 'NONE', ( #29, #180, #70, #66 ) ) ;
#206 = ORIENTED_EDGE ( 'NONE', *, *, #354, .T. ) ;
#207 = AXIS2_PLACEMENT_3D ( 'NONE', #136, #161, #226 ) ;
#208 = AXIS2_PLACEMENT_3D ( 'NONE', #80, #246, #19 ) ;
#209 = CIRCLE ( 'NONE', #104, 7.999999999999994671 ) ;
#210 = EDGE_CURVE ( 'NONE', #325, #71, #39, .T. ) ;
#211 = DIRECTION ( 'NONE',  ( -0.000000000000000000, -1.000000000000000000, -0.000000000000000000 ) ) ;
#212 = ORIENTED_EDGE ( 'NONE', *, *, #53, .F. ) ;
#213 =( NAMED_UNIT ( * ) SI_UNIT ( $, .STERADIAN. ) SOLID_ANGLE_UNIT ( ) );
#214 = ORIENTED_EDGE ( 'NONE', *, *, #354, .F. ) ;
#215 = ADVANCED_FACE ( 'NONE', ( #177 ), #296, .T. ) ;
#216 = CARTESIAN_POINT ( 'NONE',  ( 0.000000000000000000, 1.000000000000000000, -7.000000000000000000 ) ) ;
#217 = VERTEX_POINT ( 'NONE', #326 ) ;
#218 =( GEOMETRIC_REPRESENTATION_CONTEXT ( 3 ) GLOBAL_UNCERTAINTY_ASSIGNED_CONTEXT ( ( #286 ) ) GLOBAL_UNIT_ASSIGNED_CONTEXT ( ( #9, #321, #65 ) ) REPRESENTATION_CONTEXT ( 'NONE', 'WORKASPACE' ) );
#219 = CARTESIAN_POINT ( 'NONE',  ( 5.204170427930421283E-15, 32.00000000000000000, 0.000000000000000000 ) ) ;
#220 = ORIENTED_EDGE ( 'NONE', *, *, #295, .T. ) ;
#221 = DIRECTION ( 'NONE',  ( -1.213802797673107944E-16, 1.000000000000000000, -0.000000000000000000 ) ) ;
#222 = VERTEX_POINT ( 'NONE', #155 ) ;
#223 = MANIFOLD_SOLID_BREP ( 'Revolve - Tool Body (Straight Shanked)', #230 ) ;
#224 = SURFACE_STYLE_USAGE ( .BOTH. , #302 ) ;
#225 = CIRCLE ( 'NONE', #165, 8.000000000000000000 ) ;
#226 = DIRECTION ( 'NONE',  ( 0.000000000000000000, 0.000000000000000000, -1.000000000000000000 ) ) ;
#227 = SHAPE_DEFINITION_REPRESENTATION ( #116, #228 ) ;
#228 = ADVANCED_BREP_SHAPE_REPRESENTATION ( '59606', ( #340, #223, #270 ), #171 ) ;
#229 = FILL_AREA_STYLE_COLOUR ( '', #154 ) ;
#230 = CLOSED_SHELL ( 'NONE', ( #361, #118, #81, #152 ) ) ;
#231 = PRESENTATION_STYLE_ASSIGNMENT (( #56 ) ) ;
#232 = PRESENTATION_LAYER_ASSIGNMENT (  '', '', ( #49 ) ) ;
#233 = AXIS2_PLACEMENT_3D ( 'NONE', #355, #17, #132 ) ;
#234 = APPLICATION_PROTOCOL_DEFINITION ( 'draft international standard', 'automotive_design', 1998, #281 ) ;
#235 = EDGE_CURVE ( 'NONE', #71, #100, #73, .T. ) ;
#236 = PLANE ( 'NONE',  #5 ) ;
#237 = LINE ( 'NONE', #199, #61 ) ;
#238 = MECHANICAL_DESIGN_GEOMETRIC_PRESENTATION_REPRESENTATION (  '', ( #95 ), #113 ) ;
#239 = APPLICATION_CONTEXT ( 'automotive_design' ) ;
#240 = ORIENTED_EDGE ( 'NONE', *, *, #23, .T. ) ;
#241 = PRESENTATION_LAYER_ASSIGNMENT (  '', '', ( #341 ) ) ;
#242 = CIRCLE ( 'NONE', #233, 8.000000000000000000 ) ;
#243 = VERTEX_POINT ( 'NONE', #247 ) ;
#244 = DIRECTION ( 'NONE',  ( -0.000000000000000000, -1.000000000000000000, -0.000000000000000000 ) ) ;
#245 = DIRECTION ( 'NONE',  ( -1.213802797673107944E-16, 1.000000000000000000, -0.000000000000000000 ) ) ;
#246 = DIRECTION ( 'NONE',  ( -0.000000000000000000, -1.000000000000000000, -0.000000000000000000 ) ) ;
#247 = CARTESIAN_POINT ( 'NONE',  ( -7.999999999999989342, 32.00000000000000000, 0.000000000000000000 ) ) ;
#248 = FILL_AREA_STYLE ('',( #167 ) ) ;
#249 =( NAMED_UNIT ( * ) PLANE_ANGLE_UNIT ( ) SI_UNIT ( $, .RADIAN. ) );
#250 = DIRECTION ( 'NONE',  ( -0.000000000000000000, -1.000000000000000000, -0.000000000000000000 ) ) ;
#251 = SURFACE_SIDE_STYLE ('',( #356 ) ) ;
#252 = DIRECTION ( 'NONE',  ( -1.213802797673107944E-16, 1.000000000000000000, -0.000000000000000000 ) ) ;
#253 = EDGE_CURVE ( 'NONE', #189, #325, #225, .T. ) ;
#254 =( NAMED_UNIT ( * ) PLANE_ANGLE_UNIT ( ) SI_UNIT ( $, .RADIAN. ) );
#255 =( NAMED_UNIT ( * ) SI_UNIT ( $, .STERADIAN. ) SOLID_ANGLE_UNIT ( ) );
#256 = MECHANICAL_DESIGN_GEOMETRIC_PRESENTATION_REPRESENTATION (  '', ( #143 ), #202 ) ;
#257 = DIRECTION ( 'NONE',  ( -1.213802797673107944E-16, 1.000000000000000000, 0.000000000000000000 ) ) ;
#258 = CIRCLE ( 'NONE', #22, 7.000000000000000000 ) ;
#259 = CIRCLE ( 'NONE', #68, 7.999999999999994671 ) ;
#260 = SURFACE_STYLE_USAGE ( .BOTH. , #297 ) ;
#261 = PRODUCT_DEFINITION ( 'UNKNOWN', '', #114, #359 ) ;
#262 = EDGE_CURVE ( 'NONE', #217, #98, #364, .T. ) ;
#263 = PRESENTATION_LAYER_ASSIGNMENT (  '', '', ( #79 ) ) ;
#264 = DIRECTION ( 'NONE',  ( 0.000000000000000000, 0.000000000000000000, -1.000000000000000000 ) ) ;
#265 = ORIENTED_EDGE ( 'NONE', *, *, #262, .T. ) ;
#266 = DIRECTION ( 'NONE',  ( 0.000000000000000000, 0.000000000000000000, -1.000000000000000000 ) ) ;
#267 = SURFACE_SIDE_STYLE ('',( #74 ) ) ;
#268 = FILL_AREA_STYLE ('',( #108 ) ) ;
#269 = AXIS2_PLACEMENT_3D ( 'NONE', #86, #257, #198 ) ;
#270 = AXIS2_PLACEMENT_3D ( 'NONE', #83, #174, #85 ) ;
#271 =( NAMED_UNIT ( * ) SI_UNIT ( $, .STERADIAN. ) SOLID_ANGLE_UNIT ( ) );
#272 = CYLINDRICAL_SURFACE ( 'NONE', #208, 8.000000000000000000 ) ;
#273 = EDGE_CURVE ( 'NONE', #217, #243, #209, .T. ) ;
#274 = DIRECTION ( 'NONE',  ( -1.224646799147353454E-16, 0.000000000000000000, -1.000000000000000000 ) ) ;
#275 = FILL_AREA_STYLE_COLOUR ( '', #293 ) ;
#276 = CARTESIAN_POINT ( 'NONE',  ( 0.000000000000000000, 0.000000000000000000, 0.000000000000000000 ) ) ;
#277 = AXIS2_PLACEMENT_3D ( 'NONE', #78, #338, #193 ) ;
#278 =( NAMED_UNIT ( * ) SI_UNIT ( $, .STERADIAN. ) SOLID_ANGLE_UNIT ( ) );
#279 = COLOUR_RGB ( '',0.7921568627450980005, 0.8196078431372548767, 0.9333333333333333481 ) ;
#280 = SURFACE_STYLE_FILL_AREA ( #84 ) ;
#281 = APPLICATION_CONTEXT ( 'automotive_design' ) ;
#282 = CARTESIAN_POINT ( 'NONE',  ( 0.000000000000000000, 32.00000000000000000, -8.000000000000000000 ) ) ;
#283 = APPLICATION_PROTOCOL_DEFINITION ( 'draft international standard', 'automotive_design', 1998, #239 ) ;
#284 = VECTOR ( 'NONE', #178, 1000.000000000000000 ) ;
#285 = CIRCLE ( 'NONE', #50, 8.000000000000000000 ) ;
#286 = UNCERTAINTY_MEASURE_WITH_UNIT (LENGTH_MEASURE( 1.000000000000000082E-05 ), #9, 'distance_accuracy_value', 'NONE');
#287 = PLANE ( 'NONE',  #133 ) ;
#288 = PRESENTATION_STYLE_ASSIGNMENT (( #260 ) ) ;
#289 = ORIENTED_EDGE ( 'NONE', *, *, #319, .T. ) ;
#290 = PRODUCT ( '59606', '59606', '', ( #342 ) ) ;
#291 = CARTESIAN_POINT ( 'NONE',  ( 0.000000000000000000, 0.000000000000000000, 0.000000000000000000 ) ) ;
#292 = ORIENTED_EDGE ( 'NONE', *, *, #130, .F. ) ;
#293 = COLOUR_RGB ( '',1.000000000000000000, 0.000000000000000000, 0.000000000000000000 ) ;
#294 = VERTEX_POINT ( 'NONE', #158 ) ;
#295 = EDGE_CURVE ( 'NONE', #71, #222, #285, .T. ) ;
#296 = CYLINDRICAL_SURFACE ( 'NONE', #62, 8.000000000000000000 ) ;
#297 = SURFACE_SIDE_STYLE ('',( #37 ) ) ;
#298 = ORIENTED_EDGE ( 'NONE', *, *, #60, .T. ) ;
#299 = AXIS2_PLACEMENT_3D ( 'NONE', #183, #211, #264 ) ;
#300 = AXIS2_PLACEMENT_3D ( 'NONE', #216, #334, #328 ) ;
#301 = DIRECTION ( 'NONE',  ( -1.000000000000000000, 0.000000000000000000, 0.000000000000000000 ) ) ;
#302 = SURFACE_SIDE_STYLE ('',( #331 ) ) ;
#303 = CARTESIAN_POINT ( 'NONE',  ( 8.572527594031473190E-16, 1.000000000000000000, 7.000000000000000000 ) ) ;
#304 = MECHANICAL_DESIGN_GEOMETRIC_PRESENTATION_REPRESENTATION (  '', ( #170 ), #163 ) ;
#305 = PRESENTATION_LAYER_ASSIGNMENT (  '', '', ( #33 ) ) ;
#306 = FILL_AREA_STYLE ('',( #362 ) ) ;
#307 = CARTESIAN_POINT ( 'NONE',  ( -1.714505518806293652E-15, 89.00000000000000000, 0.000000000000000000 ) ) ;
#308 = SURFACE_STYLE_FILL_AREA ( #306 ) ;
#309 = DIRECTION ( 'NONE',  ( -0.000000000000000000, -1.000000000000000000, -0.000000000000000000 ) ) ;
#310 = SURFACE_STYLE_USAGE ( .BOTH. , #88 ) ;
#311 = CYLINDRICAL_SURFACE ( 'NONE', #196, 7.999999999999998224 ) ;
#312 = MECHANICAL_DESIGN_GEOMETRIC_PRESENTATION_REPRESENTATION (  '', ( #341 ), #218 ) ;
#313 = UNCERTAINTY_MEASURE_WITH_UNIT (LENGTH_MEASURE( 1.000000000000000082E-05 ), #8, 'distance_accuracy_value', 'NONE');
#314 = CARTESIAN_POINT ( 'NONE',  ( 0.000000000000000000, 1.000000000000000000, 0.000000000000000000 ) ) ;
#315 = DIRECTION ( 'NONE',  ( 0.000000000000000000, 0.000000000000000000, -1.000000000000000000 ) ) ;
#316 = CARTESIAN_POINT ( 'NONE',  ( -8.000000000000003553, 89.00000000000000000, 0.000000000000000000 ) ) ;
#317 =( LENGTH_UNIT ( ) NAMED_UNIT ( * ) SI_UNIT ( .MILLI., .METRE. ) );
#318 =( GEOMETRIC_REPRESENTATION_CONTEXT ( 3 ) GLOBAL_UNCERTAINTY_ASSIGNED_CONTEXT ( ( #18 ) ) GLOBAL_UNIT_ASSIGNED_CONTEXT ( ( #317, #2, #255 ) ) REPRESENTATION_CONTEXT ( 'NONE', 'WORKASPACE' ) );
#319 = EDGE_CURVE ( 'NONE', #325, #189, #242, .T. ) ;
#320 = SURFACE_SIDE_STYLE ('',( #91 ) ) ;
#321 =( NAMED_UNIT ( * ) PLANE_ANGLE_UNIT ( ) SI_UNIT ( $, .RADIAN. ) );
#322 = ORIENTED_EDGE ( 'NONE', *, *, #123, .T. ) ;
#323 = ORIENTED_EDGE ( 'NONE', *, *, #53, .T. ) ;
#324 = STYLED_ITEM ( 'NONE', ( #231 ), #105 ) ;
#325 = VERTEX_POINT ( 'NONE', #101 ) ;
#326 = CARTESIAN_POINT ( 'NONE',  ( 8.000000000000000000, 32.00000000000000000, 9.797174393178825657E-16 ) ) ;
#327 = ORIENTED_EDGE ( 'NONE', *, *, #130, .T. ) ;
#328 = DIRECTION ( 'NONE',  ( 0.000000000000000000, 0.000000000000000000, 1.000000000000000000 ) ) ;
#329 = VECTOR ( 'NONE', #187, 1000.000000000000000 ) ;
#330 = EDGE_CURVE ( 'NONE', #243, #217, #259, .T. ) ;
#331 = SURFACE_STYLE_FILL_AREA ( #268 ) ;
#332 = DIRECTION ( 'NONE',  ( 0.000000000000000000, 0.000000000000000000, -1.000000000000000000 ) ) ;
#333 = EDGE_LOOP ( 'NONE', ( #38, #289, #327, #182 ) ) ;
#334 = DIRECTION ( 'NONE',  ( -1.000000000000000000, 0.000000000000000000, 0.000000000000000000 ) ) ;
#335 = CARTESIAN_POINT ( 'NONE',  ( -8.000000000000000000, 89.00000000000000000, 0.000000000000000000 ) ) ;
#336 = PRESENTATION_LAYER_ASSIGNMENT (  '', '', ( #324 ) ) ;
#337 =( NAMED_UNIT ( * ) PLANE_ANGLE_UNIT ( ) SI_UNIT ( $, .RADIAN. ) );
#338 = DIRECTION ( 'NONE',  ( -1.213802797673107944E-16, 1.000000000000000000, -0.000000000000000000 ) ) ;
#339 = CARTESIAN_POINT ( 'NONE',  ( 9.184850993605147944E-16, 0.000000000000000000, 7.000000000000000000 ) ) ;
#340 = MANIFOLD_SOLID_BREP ( 'Revolve - Cutting Edge', #131 ) ;
#341 = STYLED_ITEM ( 'NONE', ( #288 ), #200 ) ;
#342 = PRODUCT_CONTEXT ( 'NONE', #281, 'mechanical' ) ;
#343 = DIRECTION ( 'NONE',  ( 0.000000000000000000, -0.000000000000000000, 1.000000000000000000 ) ) ;
#344 = FILL_AREA_STYLE_COLOUR ( '', #103 ) ;
#345 = AXIS2_PLACEMENT_3D ( 'NONE', #307, #139, #129 ) ;
#346 = COLOUR_RGB ( '',1.000000000000000000, 0.000000000000000000, 0.000000000000000000 ) ;
#347 = EDGE_LOOP ( 'NONE', ( #146, #220, #206, #212 ) ) ;
#348 = EDGE_LOOP ( 'NONE', ( #298, #352 ) ) ;
#349 = PRESENTATION_LAYER_ASSIGNMENT (  '', '', ( #143 ) ) ;
#350 = ORIENTED_EDGE ( 'NONE', *, *, #23, .F. ) ;
#351 = DIRECTION ( 'NONE',  ( 0.000000000000000000, 0.000000000000000000, -1.000000000000000000 ) ) ;
#352 = ORIENTED_EDGE ( 'NONE', *, *, #15, .T. ) ;
#353 = ORIENTED_EDGE ( 'NONE', *, *, #330, .T. ) ;
#354 = EDGE_CURVE ( 'NONE', #222, #294, #197, .T. ) ;
#355 = CARTESIAN_POINT ( 'NONE',  ( 0.000000000000000000, 32.00000000000000000, 0.000000000000000000 ) ) ;
#356 = SURFACE_STYLE_FILL_AREA ( #138 ) ;
#357 = CIRCLE ( 'NONE', #277, 8.000000000000001776 ) ;
#358 = CARTESIAN_POINT ( 'NONE',  ( 0.000000000000000000, 32.00000000000000000, 0.000000000000000000 ) ) ;
#359 = PRODUCT_DEFINITION_CONTEXT ( 'detailed design', #239, 'design' ) ;
#360 = LINE ( 'NONE', #335, #329 ) ;
#361 = ADVANCED_FACE ( 'NONE', ( #128 ), #311, .T. ) ;
#362 = FILL_AREA_STYLE_COLOUR ( '', #279 ) ;
#363 =( NAMED_UNIT ( * ) SI_UNIT ( $, .STERADIAN. ) SOLID_ANGLE_UNIT ( ) );
#364 = LINE ( 'NONE', #188, #1 ) ;
#365 = SURFACE_STYLE_USAGE ( .BOTH. , #251 ) ;
#366 = AXIS2_PLACEMENT_3D ( 'NONE', #3, #27, #315 ) ;
#367 = MECHANICAL_DESIGN_GEOMETRIC_PRESENTATION_REPRESENTATION (  '', ( #33 ), #12 ) ;
#368 =( LENGTH_UNIT ( ) NAMED_UNIT ( * ) SI_UNIT ( .MILLI., .METRE. ) );
#369 = CARTESIAN_POINT ( 'NONE',  ( 8.000000000000000000, 89.00000000000000000, 9.797174393178825657E-16 ) ) ;
#370 = DIRECTION ( 'NONE',  ( -1.000000000000000000, 0.000000000000000000, 0.000000000000000000 ) ) ;
ENDSEC;
END-ISO-10303-21;
