ISO-10303-21;
HEADER;
FILE_DESCRIPTION (( 'STEP AP214' ),
    '1' );
FILE_NAME ('Micro_KC-500-750-187.STEP',
    '2021-09-03T20:02:08',
    ( '' ),
    ( '' ),
    'SwSTEP 2.0',
    'SolidWorks 2020',
    '' );
FILE_SCHEMA (( 'AUTOMOTIVE_DESIGN' ));
ENDSEC;

DATA;
#1 = DIRECTION ( 'NONE',  ( -0.0000000000000000000, -0.0000000000000000000, -1.000000000000000000 ) ) ;
#2 = PLANE ( 'NONE',  #31 ) ;
#3 = DIMENSIONAL_EXPONENTS ( 1.000000000000000000, 0.0000000000000000000, 0.0000000000000000000, 0.0000000000000000000, 0.0000000000000000000, 0.0000000000000000000, 0.0000000000000000000 ) ;
#4 = DIRECTION ( 'NONE',  ( 1.000000000000000000, 0.0000000000000000000, 0.0000000000000000000 ) ) ;
#5 =( GEOMETRIC_REPRESENTATION_CONTEXT ( 3 ) GLOBAL_UNCERTAINTY_ASSIGNED_CONTEXT ( ( #265 ) ) GLOBAL_UNIT_ASSIGNED_CONTEXT ( ( #195, #54, #75 ) ) REPRESENTATION_CONTEXT ( 'NONE', 'WORKASPACE' ) );
#6 = ORIENTED_EDGE ( 'NONE', *, *, #273, .T. ) ;
#7 = CARTESIAN_POINT ( 'NONE',  ( 0.2500000000000000000, 3.061616997868382402E-17, 3.000000000000000444 ) ) ;
#8 = ADVANCED_FACE ( 'NONE', ( #145 ), #295, .T. ) ;
#9 = ORIENTED_EDGE ( 'NONE', *, *, #178, .T. ) ;
#10 = FACE_OUTER_BOUND ( 'NONE', #23, .T. ) ;
#11 = DIRECTION ( 'NONE',  ( 0.0000000000000000000, 0.0000000000000000000, 1.000000000000000000 ) ) ;
#12 = CIRCLE ( 'NONE', #191, 0.2500000000000000000 ) ;
#13 = SURFACE_SIDE_STYLE ('',( #367 ) ) ;
#14 = ORIENTED_EDGE ( 'NONE', *, *, #77, .T. ) ;
#15 = SURFACE_STYLE_USAGE ( .BOTH. , #308 ) ;
#16 = ORIENTED_EDGE ( 'NONE', *, *, #128, .F. ) ;
#17 = AXIS2_PLACEMENT_3D ( 'NONE', #245, #288, #207 ) ;
#18 = UNCERTAINTY_MEASURE_WITH_UNIT (LENGTH_MEASURE( 1.000000000000000082E-05 ), #369, 'distance_accuracy_value', 'NONE');
#19 = MECHANICAL_DESIGN_GEOMETRIC_PRESENTATION_REPRESENTATION (  '', ( #283 ), #244 ) ;
#20 = LENGTH_MEASURE_WITH_UNIT ( LENGTH_MEASURE( 0.02539999999999999897 ), #48 );
#21 = ORIENTED_EDGE ( 'NONE', *, *, #128, .T. ) ;
#22 = LENGTH_MEASURE_WITH_UNIT ( LENGTH_MEASURE( 0.02539999999999999897 ), #256 );
#23 = EDGE_LOOP ( 'NONE', ( #166, #51 ) ) ;
#24 = LINE ( 'NONE', #119, #322 ) ;
#25 = VERTEX_POINT ( 'NONE', #90 ) ;
#26 = AXIS2_PLACEMENT_3D ( 'NONE', #192, #131, #69 ) ;
#27 = VECTOR ( 'NONE', #162, 39.37007874015748143 ) ;
#28 = CARTESIAN_POINT ( 'NONE',  ( 0.0000000000000000000, 0.0000000000000000000, 0.7500000000000001110 ) ) ;
#29 = DIRECTION ( 'NONE',  ( -1.000000000000000000, 0.0000000000000000000, 0.0000000000000000000 ) ) ;
#30 = DIRECTION ( 'NONE',  ( 1.000000000000000000, 0.0000000000000000000, 0.0000000000000000000 ) ) ;
#31 = AXIS2_PLACEMENT_3D ( 'NONE', #221, #155, #275 ) ;
#32 = DIRECTION ( 'NONE',  ( -0.0000000000000000000, -0.0000000000000000000, -1.000000000000000000 ) ) ;
#33 = CARTESIAN_POINT ( 'NONE',  ( 0.0000000000000000000, 0.0000000000000000000, 0.1869999999999999996 ) ) ;
#34 = DIRECTION ( 'NONE',  ( -1.000000000000000000, 0.0000000000000000000, 0.0000000000000000000 ) ) ;
#35 = DIRECTION ( 'NONE',  ( -0.0000000000000000000, -0.0000000000000000000, -1.000000000000000000 ) ) ;
#36 = ADVANCED_FACE ( 'NONE', ( #64 ), #212, .T. ) ;
#37 = CARTESIAN_POINT ( 'NONE',  ( -0.1250000000000000833, 2.296212748401287726E-17, 0.7500000000000001110 ) ) ;
#38 = MECHANICAL_DESIGN_GEOMETRIC_PRESENTATION_REPRESENTATION (  '', ( #104 ), #123 ) ;
#39 = ORIENTED_EDGE ( 'NONE', *, *, #218, .T. ) ;
#40 = DIRECTION ( 'NONE',  ( -0.7071067811865490160, 8.659560562354951347E-17, 0.7071067811865460184 ) ) ;
#41 = ORIENTED_EDGE ( 'NONE', *, *, #77, .F. ) ;
#42 = DIRECTION ( 'NONE',  ( -0.0000000000000000000, -0.0000000000000000000, -1.000000000000000000 ) ) ;
#43 = COLOUR_RGB ( '',0.7921568627450980005, 0.8196078431372548767, 0.9333333333333333481 ) ;
#44 = VERTEX_POINT ( 'NONE', #268 ) ;
#45 = APPLICATION_PROTOCOL_DEFINITION ( 'draft international standard', 'automotive_design', 1998, #189 ) ;
#46 = ORIENTED_EDGE ( 'NONE', *, *, #251, .T. ) ;
#47 = DIRECTION ( 'NONE',  ( -0.0000000000000000000, -0.0000000000000000000, -1.000000000000000000 ) ) ;
#48 =( LENGTH_UNIT ( ) NAMED_UNIT ( * ) SI_UNIT ( $, .METRE. ) );
#49 = ORIENTED_EDGE ( 'NONE', *, *, #222, .F. ) ;
#50 = DIMENSIONAL_EXPONENTS ( 1.000000000000000000, 0.0000000000000000000, 0.0000000000000000000, 0.0000000000000000000, 0.0000000000000000000, 0.0000000000000000000, 0.0000000000000000000 ) ;
#51 = ORIENTED_EDGE ( 'NONE', *, *, #251, .F. ) ;
#52 = AXIS2_PLACEMENT_3D ( 'NONE', #246, #153, #34 ) ;
#53 = AXIS2_PLACEMENT_3D ( 'NONE', #33, #35, #255 ) ;
#54 =( NAMED_UNIT ( * ) PLANE_ANGLE_UNIT ( ) SI_UNIT ( $, .RADIAN. ) );
#55 = ORIENTED_EDGE ( 'NONE', *, *, #312, .F. ) ;
#56 = DIRECTION ( 'NONE',  ( -0.0000000000000000000, -0.0000000000000000000, -1.000000000000000000 ) ) ;
#57 = VERTEX_POINT ( 'NONE', #186 ) ;
#58 = DIRECTION ( 'NONE',  ( 0.0000000000000000000, 0.0000000000000000000, 1.000000000000000000 ) ) ;
#59 = CARTESIAN_POINT ( 'NONE',  ( 0.2350000000000011524, 2.969768487932338510E-17, 3.000000000000000444 ) ) ;
#60 = CARTESIAN_POINT ( 'NONE',  ( 0.0000000000000000000, 0.0000000000000000000, 3.000000000000000444 ) ) ;
#61 = CYLINDRICAL_SURFACE ( 'NONE', #117, 0.1250000000000000555 ) ;
#62 = CIRCLE ( 'NONE', #53, 0.2500000000000000000 ) ;
#63 = CARTESIAN_POINT ( 'NONE',  ( 0.0000000000000000000, 0.0000000000000000000, 0.8749999999999994449 ) ) ;
#64 = FACE_OUTER_BOUND ( 'NONE', #370, .T. ) ;
#65 = CARTESIAN_POINT ( 'NONE',  ( 0.0000000000000000000, 0.0000000000000000000, 3.000000000000000444 ) ) ;
#66 = ORIENTED_EDGE ( 'NONE', *, *, #352, .T. ) ;
#67 = DIRECTION ( 'NONE',  ( 0.0000000000000000000, 0.0000000000000000000, 1.000000000000000000 ) ) ;
#68 = MANIFOLD_SOLID_BREP ( 'Cut-Revolve1', #72 ) ;
#69 = DIRECTION ( 'NONE',  ( 1.000000000000000000, 0.0000000000000000000, 0.0000000000000000000 ) ) ;
#70 = AXIS2_PLACEMENT_3D ( 'NONE', #379, #32, #354 ) ;
#71 = CARTESIAN_POINT ( 'NONE',  ( 0.0000000000000000000, 0.0000000000000000000, 2.985000000000001208 ) ) ;
#72 = CLOSED_SHELL ( 'NONE', ( #368, #149, #88, #199, #36, #269, #231, #180, #8, #134, #210, #175, #359 ) ) ;
#73 = FILL_AREA_STYLE_COLOUR ( '', #43 ) ;
#74 = EDGE_LOOP ( 'NONE', ( #80, #285, #143, #287 ) ) ;
#75 =( NAMED_UNIT ( * ) SI_UNIT ( $, .STERADIAN. ) SOLID_ANGLE_UNIT ( ) );
#76 = ORIENTED_EDGE ( 'NONE', *, *, #139, .F. ) ;
#77 = EDGE_CURVE ( 'NONE', #159, #279, #345, .T. ) ;
#78 =( NAMED_UNIT ( * ) PLANE_ANGLE_UNIT ( ) SI_UNIT ( $, .RADIAN. ) );
#79 = ORIENTED_EDGE ( 'NONE', *, *, #193, .F. ) ;
#80 = ORIENTED_EDGE ( 'NONE', *, *, #320, .F. ) ;
#81 = AXIS2_PLACEMENT_3D ( 'NONE', #65, #187, #224 ) ;
#82 = ORIENTED_EDGE ( 'NONE', *, *, #278, .F. ) ;
#83 = CARTESIAN_POINT ( 'NONE',  ( 0.0000000000000000000, 0.0000000000000000000, 0.0000000000000000000 ) ) ;
#84 = CARTESIAN_POINT ( 'NONE',  ( -0.2500000000000000000, 0.0000000000000000000, 3.000000000000000444 ) ) ;
#85 = DIRECTION ( 'NONE',  ( 1.000000000000000000, 0.0000000000000000000, 0.0000000000000000000 ) ) ;
#86 = AXIS2_PLACEMENT_3D ( 'NONE', #348, #242, #29 ) ;
#87 = LINE ( 'NONE', #324, #169 ) ;
#88 = ADVANCED_FACE ( 'NONE', ( #266 ), #168, .T. ) ;
#89 = CARTESIAN_POINT ( 'NONE',  ( 0.0000000000000000000, 0.0000000000000000000, 0.0000000000000000000 ) ) ;
#90 = CARTESIAN_POINT ( 'NONE',  ( 0.2500000000000000000, 3.061616997868382402E-17, 0.1869999999999999996 ) ) ;
#91 = CYLINDRICAL_SURFACE ( 'NONE', #203, 0.1250000000000000555 ) ;
#92 = APPLICATION_CONTEXT ( 'automotive_design' ) ;
#93 = AXIS2_PLACEMENT_3D ( 'NONE', #374, #179, #292 ) ;
#94 = FACE_OUTER_BOUND ( 'NONE', #314, .T. ) ;
#95 = AXIS2_PLACEMENT_3D ( 'NONE', #108, #237, #220 ) ;
#96 = LINE ( 'NONE', #7, #156 ) ;
#97 = EDGE_CURVE ( 'NONE', #147, #279, #213, .T. ) ;
#98 = CARTESIAN_POINT ( 'NONE',  ( -0.2500000000000000000, 0.0000000000000000000, 0.1869999999999999996 ) ) ;
#99 = CARTESIAN_POINT ( 'NONE',  ( -0.1250000000000000555, 0.0000000000000000000, 0.0000000000000000000 ) ) ;
#100 = CIRCLE ( 'NONE', #164, 0.2500000000000000000 ) ;
#101 = FACE_OUTER_BOUND ( 'NONE', #337, .T. ) ;
#102 = LINE ( 'NONE', #307, #338 ) ;
#103 = ORIENTED_EDGE ( 'NONE', *, *, #114, .T. ) ;
#104 = STYLED_ITEM ( 'NONE', ( #277 ), #321 ) ;
#105 = EDGE_CURVE ( 'NONE', #258, #371, #353, .T. ) ;
#106 = ORIENTED_EDGE ( 'NONE', *, *, #284, .T. ) ;
#107 = ORIENTED_EDGE ( 'NONE', *, *, #226, .F. ) ;
#108 = CARTESIAN_POINT ( 'NONE',  ( 0.0000000000000000000, 0.0000000000000000000, 0.0000000000000000000 ) ) ;
#109 = ORIENTED_EDGE ( 'NONE', *, *, #218, .F. ) ;
#110 = APPLICATION_PROTOCOL_DEFINITION ( 'draft international standard', 'automotive_design', 1998, #92 ) ;
#111 = ORIENTED_EDGE ( 'NONE', *, *, #226, .T. ) ;
#112 = CIRCLE ( 'NONE', #26, 0.2500000000000000000 ) ;
#113 = DIRECTION ( 'NONE',  ( -0.7071067811865402453, 0.0000000000000000000, -0.7071067811865546782 ) ) ;
#114 = EDGE_CURVE ( 'NONE', #147, #302, #333, .T. ) ;
#115 = PLANE ( 'NONE',  #332 ) ;
#116 = DIRECTION ( 'NONE',  ( -0.0000000000000000000, -0.0000000000000000000, -1.000000000000000000 ) ) ;
#117 = AXIS2_PLACEMENT_3D ( 'NONE', #83, #56, #176 ) ;
#118 = VECTOR ( 'NONE', #116, 39.37007874015748143 ) ;
#119 = CARTESIAN_POINT ( 'NONE',  ( -0.2350000000000011524, 0.0000000000000000000, 3.000000000000000444 ) ) ;
#120 = EDGE_CURVE ( 'NONE', #141, #44, #173, .T. ) ;
#121 = CARTESIAN_POINT ( 'NONE',  ( 0.0000000000000000000, 0.0000000000000000000, 0.0000000000000000000 ) ) ;
#122 = CIRCLE ( 'NONE', #366, 0.2500000000000000000 ) ;
#123 =( GEOMETRIC_REPRESENTATION_CONTEXT ( 3 ) GLOBAL_UNCERTAINTY_ASSIGNED_CONTEXT ( ( #347 ) ) GLOBAL_UNIT_ASSIGNED_CONTEXT ( ( #230, #233, #280 ) ) REPRESENTATION_CONTEXT ( 'NONE', 'WORKASPACE' ) );
#124 = CARTESIAN_POINT ( 'NONE',  ( 0.1250000000000000278, 1.530808498934191817E-17, 0.1869999999999999996 ) ) ;
#125 = PRODUCT ( 'Micro_KC-500-750-187', 'Micro_KC-500-750-187', '', ( #344 ) ) ;
#126 = EDGE_LOOP ( 'NONE', ( #14, #21 ) ) ;
#127 = DIRECTION ( 'NONE',  ( -1.000000000000000000, 0.0000000000000000000, 0.0000000000000000000 ) ) ;
#128 = EDGE_CURVE ( 'NONE', #279, #159, #132, .T. ) ;
#129 = ORIENTED_EDGE ( 'NONE', *, *, #157, .F. ) ;
#130 = CYLINDRICAL_SURFACE ( 'NONE', #81, 0.2500000000000000000 ) ;
#131 = DIRECTION ( 'NONE',  ( 0.0000000000000000000, 0.0000000000000000000, -1.000000000000000000 ) ) ;
#132 = CIRCLE ( 'NONE', #86, 0.1250000000000000278 ) ;
#133 = PRODUCT_DEFINITION_FORMATION_WITH_SPECIFIED_SOURCE ( 'ANY', '', #125, .NOT_KNOWN. ) ;
#134 = ADVANCED_FACE ( 'NONE', ( #151 ), #91, .T. ) ;
#135 = FACE_OUTER_BOUND ( 'NONE', #330, .T. ) ;
#136 = EDGE_LOOP ( 'NONE', ( #257, #161 ) ) ;
#137 = ORIENTED_EDGE ( 'NONE', *, *, #335, .F. ) ;
#138 = DIRECTION ( 'NONE',  ( -1.000000000000000000, 0.0000000000000000000, 0.0000000000000000000 ) ) ;
#139 = EDGE_CURVE ( 'NONE', #302, #147, #306, .T. ) ;
#140 = CIRCLE ( 'NONE', #248, 0.2500000000000000000 ) ;
#141 = VERTEX_POINT ( 'NONE', #59 ) ;
#142 =( LENGTH_UNIT ( ) NAMED_UNIT ( * ) SI_UNIT ( $, .METRE. ) );
#143 = ORIENTED_EDGE ( 'NONE', *, *, #193, .T. ) ;
#144 = CYLINDRICAL_SURFACE ( 'NONE', #326, 0.2500000000000000000 ) ;
#145 = FACE_OUTER_BOUND ( 'NONE', #74, .T. ) ;
#146 = DIRECTION ( 'NONE',  ( 0.0000000000000000000, 0.0000000000000000000, 1.000000000000000000 ) ) ;
#147 = VERTEX_POINT ( 'NONE', #243 ) ;
#148 = PRESENTATION_LAYER_ASSIGNMENT (  '', '', ( #283 ) ) ;
#149 = ADVANCED_FACE ( 'NONE', ( #181 ), #61, .T. ) ;
#150 = DIRECTION ( 'NONE',  ( -0.0000000000000000000, -0.0000000000000000000, -1.000000000000000000 ) ) ;
#151 = FACE_OUTER_BOUND ( 'NONE', #252, .T. ) ;
#152 =( NAMED_UNIT ( * ) SI_UNIT ( $, .STERADIAN. ) SOLID_ANGLE_UNIT ( ) );
#153 = DIRECTION ( 'NONE',  ( -0.0000000000000000000, -0.0000000000000000000, -1.000000000000000000 ) ) ;
#154 = PLANE ( 'NONE',  #183 ) ;
#155 = DIRECTION ( 'NONE',  ( 0.0000000000000000000, 0.0000000000000000000, 1.000000000000000000 ) ) ;
#156 = VECTOR ( 'NONE', #190, 39.37007874015748143 ) ;
#157 = EDGE_CURVE ( 'NONE', #300, #170, #24, .T. ) ;
#158 = CARTESIAN_POINT ( 'NONE',  ( 0.0000000000000000000, 0.0000000000000000000, 3.000000000000000444 ) ) ;
#159 = VERTEX_POINT ( 'NONE', #293 ) ;
#160 = DIRECTION ( 'NONE',  ( 1.000000000000000000, 0.0000000000000000000, 0.0000000000000000000 ) ) ;
#161 = ORIENTED_EDGE ( 'NONE', *, *, #281, .T. ) ;
#162 = DIRECTION ( 'NONE',  ( -0.0000000000000000000, -0.0000000000000000000, -1.000000000000000000 ) ) ;
#163 = FILL_AREA_STYLE ('',( #73 ) ) ;
#164 = AXIS2_PLACEMENT_3D ( 'NONE', #71, #194, #286 ) ;
#165 = PRODUCT_DEFINITION_CONTEXT ( 'detailed design', #92, 'design' ) ;
#166 = ORIENTED_EDGE ( 'NONE', *, *, #273, .F. ) ;
#167 = EDGE_LOOP ( 'NONE', ( #346, #339, #41, #137 ) ) ;
#168 = CONICAL_SURFACE ( 'NONE', #202, 0.1250000000000000833, 0.7853981633974503884 ) ;
#169 = VECTOR ( 'NONE', #211, 39.37007874015748143 ) ;
#170 = VERTEX_POINT ( 'NONE', #241 ) ;
#171 = DIRECTION ( 'NONE',  ( -0.0000000000000000000, -0.0000000000000000000, -1.000000000000000000 ) ) ;
#172 = ORIENTED_EDGE ( 'NONE', *, *, #352, .F. ) ;
#173 = LINE ( 'NONE', #262, #290 ) ;
#174 = ORIENTED_EDGE ( 'NONE', *, *, #312, .T. ) ;
#175 = ADVANCED_FACE ( 'NONE', ( #319 ), #115, .F. ) ;
#176 = DIRECTION ( 'NONE',  ( -1.000000000000000000, 0.0000000000000000000, 0.0000000000000000000 ) ) ;
#177 = AXIS2_PLACEMENT_3D ( 'NONE', #313, #47, #138 ) ;
#178 = EDGE_CURVE ( 'NONE', #170, #309, #182, .T. ) ;
#179 = DIRECTION ( 'NONE',  ( 0.0000000000000000000, 0.0000000000000000000, -1.000000000000000000 ) ) ;
#180 = ADVANCED_FACE ( 'NONE', ( #264 ), #216, .T. ) ;
#181 = FACE_OUTER_BOUND ( 'NONE', #167, .T. ) ;
#182 = LINE ( 'NONE', #208, #315 ) ;
#183 = AXIS2_PLACEMENT_3D ( 'NONE', #185, #270, #228 ) ;
#184 = AXIS2_PLACEMENT_3D ( 'NONE', #261, #350, #85 ) ;
#185 = CARTESIAN_POINT ( 'NONE',  ( 0.2500000000000000000, 0.0000000000000000000, 0.1869999999999999996 ) ) ;
#186 = CARTESIAN_POINT ( 'NONE',  ( 0.2500000000000000000, 3.061616997868382402E-17, 0.0000000000000000000 ) ) ;
#187 = DIRECTION ( 'NONE',  ( -0.0000000000000000000, -0.0000000000000000000, -1.000000000000000000 ) ) ;
#188 = PRODUCT_DEFINITION ( 'UNKNOWN', '', #133, #165 ) ;
#189 = APPLICATION_CONTEXT ( 'automotive_design' ) ;
#190 = DIRECTION ( 'NONE',  ( -0.0000000000000000000, -0.0000000000000000000, -1.000000000000000000 ) ) ;
#191 = AXIS2_PLACEMENT_3D ( 'NONE', #63, #271, #4 ) ;
#192 = CARTESIAN_POINT ( 'NONE',  ( 0.0000000000000000000, 0.0000000000000000000, 2.985000000000001208 ) ) ;
#193 = EDGE_CURVE ( 'NONE', #147, #363, #87, .T. ) ;
#194 = DIRECTION ( 'NONE',  ( 0.0000000000000000000, 0.0000000000000000000, -1.000000000000000000 ) ) ;
#195 =( CONVERSION_BASED_UNIT ( 'INCH', #22 ) LENGTH_UNIT ( ) NAMED_UNIT ( #225 ) );
#196 = CIRCLE ( 'NONE', #361, 0.2500000000000000000 ) ;
#197 = ORIENTED_EDGE ( 'NONE', *, *, #362, .F. ) ;
#198 = ORIENTED_EDGE ( 'NONE', *, *, #281, .F. ) ;
#199 = ADVANCED_FACE ( 'NONE', ( #323 ), #343, .T. ) ;
#200 = SURFACE_STYLE_USAGE ( .BOTH. , #13 ) ;
#201 = EDGE_LOOP ( 'NONE', ( #198, #206, #172, #129 ) ) ;
#202 = AXIS2_PLACEMENT_3D ( 'NONE', #28, #146, #30 ) ;
#203 = AXIS2_PLACEMENT_3D ( 'NONE', #89, #351, #317 ) ;
#204 = ORIENTED_EDGE ( 'NONE', *, *, #222, .T. ) ;
#205 = SURFACE_STYLE_FILL_AREA ( #272 ) ;
#206 = ORIENTED_EDGE ( 'NONE', *, *, #120, .T. ) ;
#207 = DIRECTION ( 'NONE',  ( -1.000000000000000000, 0.0000000000000000000, 0.0000000000000000000 ) ) ;
#208 = CARTESIAN_POINT ( 'NONE',  ( -0.2500000000000000000, 0.0000000000000000000, 3.000000000000000444 ) ) ;
#209 = PRESENTATION_LAYER_ASSIGNMENT (  '', '', ( #104 ) ) ;
#210 = ADVANCED_FACE ( 'NONE', ( #303, #10 ), #154, .T. ) ;
#211 = DIRECTION ( 'NONE',  ( 0.7071067811865490160, 0.0000000000000000000, 0.7071067811865460184 ) ) ;
#212 = CYLINDRICAL_SURFACE ( 'NONE', #52, 0.2500000000000000000 ) ;
#213 = LINE ( 'NONE', #349, #118 ) ;
#214 = FILL_AREA_STYLE_COLOUR ( '', #305 ) ;
#215 = DIRECTION ( 'NONE',  ( 1.000000000000000000, 0.0000000000000000000, 0.0000000000000000000 ) ) ;
#216 = CONICAL_SURFACE ( 'NONE', #93, 0.2350000000000011524, 0.7853981633974380649 ) ;
#217 = CARTESIAN_POINT ( 'NONE',  ( 0.0000000000000000000, 0.0000000000000000000, 0.8749999999999994449 ) ) ;
#218 = EDGE_CURVE ( 'NONE', #57, #371, #122, .T. ) ;
#219 = ORIENTED_EDGE ( 'NONE', *, *, #105, .T. ) ;
#220 = DIRECTION ( 'NONE',  ( 1.000000000000000000, 0.0000000000000000000, 0.0000000000000000000 ) ) ;
#221 = CARTESIAN_POINT ( 'NONE',  ( 0.0000000000000000000, 0.0000000000000000000, 3.000000000000000444 ) ) ;
#222 = EDGE_CURVE ( 'NONE', #309, #363, #140, .T. ) ;
#223 = PRODUCT_DEFINITION_SHAPE ( 'NONE', 'NONE',  #188 ) ;
#224 = DIRECTION ( 'NONE',  ( -1.000000000000000000, 0.0000000000000000000, 0.0000000000000000000 ) ) ;
#225 = DIMENSIONAL_EXPONENTS ( 1.000000000000000000, 0.0000000000000000000, 0.0000000000000000000, 0.0000000000000000000, 0.0000000000000000000, 0.0000000000000000000, 0.0000000000000000000 ) ;
#226 = EDGE_CURVE ( 'NONE', #371, #57, #196, .T. ) ;
#227 = CIRCLE ( 'NONE', #254, 0.2500000000000000000 ) ;
#228 = DIRECTION ( 'NONE',  ( 1.000000000000000000, 0.0000000000000000000, -0.0000000000000000000 ) ) ;
#229 = CARTESIAN_POINT ( 'NONE',  ( -0.2500000000000000000, 0.0000000000000000000, 0.0000000000000000000 ) ) ;
#230 =( CONVERSION_BASED_UNIT ( 'INCH', #364 ) LENGTH_UNIT ( ) NAMED_UNIT ( #3 ) );
#231 = ADVANCED_FACE ( 'NONE', ( #329 ), #2, .T. ) ;
#232 = AXIS2_PLACEMENT_3D ( 'NONE', #60, #331, #296 ) ;
#233 =( NAMED_UNIT ( * ) PLANE_ANGLE_UNIT ( ) SI_UNIT ( $, .RADIAN. ) );
#234 = EDGE_CURVE ( 'NONE', #300, #141, #356, .T. ) ;
#235 = ORIENTED_EDGE ( 'NONE', *, *, #234, .F. ) ;
#236 = ORIENTED_EDGE ( 'NONE', *, *, #97, .F. ) ;
#237 = DIRECTION ( 'NONE',  ( 0.0000000000000000000, 0.0000000000000000000, 1.000000000000000000 ) ) ;
#238 = ORIENTED_EDGE ( 'NONE', *, *, #120, .F. ) ;
#239 = CIRCLE ( 'NONE', #276, 0.2350000000000011524 ) ;
#240 = ORIENTED_EDGE ( 'NONE', *, *, #362, .T. ) ;
#241 = CARTESIAN_POINT ( 'NONE',  ( -0.2500000000000000000, 0.0000000000000000000, 2.985000000000001208 ) ) ;
#242 = DIRECTION ( 'NONE',  ( -0.0000000000000000000, -0.0000000000000000000, -1.000000000000000000 ) ) ;
#243 = CARTESIAN_POINT ( 'NONE',  ( 0.1250000000000000833, 0.0000000000000000000, 0.7500000000000001110 ) ) ;
#244 =( GEOMETRIC_REPRESENTATION_CONTEXT ( 3 ) GLOBAL_UNCERTAINTY_ASSIGNED_CONTEXT ( ( #18 ) ) GLOBAL_UNIT_ASSIGNED_CONTEXT ( ( #369, #78, #152 ) ) REPRESENTATION_CONTEXT ( 'NONE', 'WORKASPACE' ) );
#245 = CARTESIAN_POINT ( 'NONE',  ( 0.0000000000000000000, 0.0000000000000000000, 0.7500000000000001110 ) ) ;
#246 = CARTESIAN_POINT ( 'NONE',  ( 0.0000000000000000000, 0.0000000000000000000, 3.000000000000000444 ) ) ;
#247 = VECTOR ( 'NONE', #40, 39.37007874015748143 ) ;
#248 = AXIS2_PLACEMENT_3D ( 'NONE', #217, #42, #358 ) ;
#249 = CARTESIAN_POINT ( 'NONE',  ( 0.0000000000000000000, 0.0000000000000000000, 3.000000000000000444 ) ) ;
#250 = CARTESIAN_POINT ( 'NONE',  ( 0.0000000000000000000, 0.0000000000000000000, 0.0000000000000000000 ) ) ;
#251 = EDGE_CURVE ( 'NONE', #25, #258, #227, .T. ) ;
#252 = EDGE_LOOP ( 'NONE', ( #236, #103, #341, #16 ) ) ;
#253 = CARTESIAN_POINT ( 'NONE',  ( -0.1250000000000000833, 1.530808498934192433E-17, 0.7500000000000001110 ) ) ;
#254 = AXIS2_PLACEMENT_3D ( 'NONE', #325, #297, #127 ) ;
#255 = DIRECTION ( 'NONE',  ( -1.000000000000000000, 0.0000000000000000000, 0.0000000000000000000 ) ) ;
#256 =( LENGTH_UNIT ( ) NAMED_UNIT ( * ) SI_UNIT ( $, .METRE. ) );
#257 = ORIENTED_EDGE ( 'NONE', *, *, #234, .T. ) ;
#258 = VERTEX_POINT ( 'NONE', #98 ) ;
#259 = ORIENTED_EDGE ( 'NONE', *, *, #320, .T. ) ;
#260 = DIRECTION ( 'NONE',  ( -0.0000000000000000000, -0.0000000000000000000, -1.000000000000000000 ) ) ;
#261 = CARTESIAN_POINT ( 'NONE',  ( 0.0000000000000000000, 0.0000000000000000000, 0.7500000000000001110 ) ) ;
#262 = CARTESIAN_POINT ( 'NONE',  ( 0.2350000000000011524, 2.877919977996294002E-17, 3.000000000000000444 ) ) ;
#263 = AXIS2_PLACEMENT_3D ( 'NONE', #373, #267, #294 ) ;
#264 = FACE_OUTER_BOUND ( 'NONE', #289, .T. ) ;
#265 = UNCERTAINTY_MEASURE_WITH_UNIT (LENGTH_MEASURE( 1.000000000000000082E-05 ), #195, 'distance_accuracy_value', 'NONE');
#266 = FACE_OUTER_BOUND ( 'NONE', #328, .T. ) ;
#267 = DIRECTION ( 'NONE',  ( -0.0000000000000000000, -0.0000000000000000000, -1.000000000000000000 ) ) ;
#268 = CARTESIAN_POINT ( 'NONE',  ( 0.2500000000000000000, 3.061616997868382402E-17, 2.985000000000001208 ) ) ;
#269 = ADVANCED_FACE ( 'NONE', ( #94 ), #130, .T. ) ;
#270 = DIRECTION ( 'NONE',  ( 0.0000000000000000000, 0.0000000000000000000, 1.000000000000000000 ) ) ;
#271 = DIRECTION ( 'NONE',  ( -0.0000000000000000000, -0.0000000000000000000, -1.000000000000000000 ) ) ;
#272 = FILL_AREA_STYLE ('',( #214 ) ) ;
#273 = EDGE_CURVE ( 'NONE', #258, #25, #62, .T. ) ;
#274 = CARTESIAN_POINT ( 'NONE',  ( -0.2500000000000000000, 0.0000000000000000000, 0.8749999999999994449 ) ) ;
#275 = DIRECTION ( 'NONE',  ( 1.000000000000000000, 0.0000000000000000000, -0.0000000000000000000 ) ) ;
#276 = AXIS2_PLACEMENT_3D ( 'NONE', #249, #357, #160 ) ;
#277 = PRESENTATION_STYLE_ASSIGNMENT (( #200 ) ) ;
#278 = EDGE_CURVE ( 'NONE', #363, #309, #12, .T. ) ;
#279 = VERTEX_POINT ( 'NONE', #124 ) ;
#280 =( NAMED_UNIT ( * ) SI_UNIT ( $, .STERADIAN. ) SOLID_ANGLE_UNIT ( ) );
#281 = EDGE_CURVE ( 'NONE', #141, #300, #239, .T. ) ;
#282 = ORIENTED_EDGE ( 'NONE', *, *, #284, .F. ) ;
#283 = STYLED_ITEM ( 'NONE', ( #310 ), #68 ) ;
#284 = EDGE_CURVE ( 'NONE', #25, #57, #96, .T. ) ;
#285 = ORIENTED_EDGE ( 'NONE', *, *, #114, .F. ) ;
#286 = DIRECTION ( 'NONE',  ( 1.000000000000000000, 0.0000000000000000000, 0.0000000000000000000 ) ) ;
#287 = ORIENTED_EDGE ( 'NONE', *, *, #278, .T. ) ;
#288 = DIRECTION ( 'NONE',  ( -0.0000000000000000000, -0.0000000000000000000, -1.000000000000000000 ) ) ;
#289 = EDGE_LOOP ( 'NONE', ( #238, #235, #342, #55 ) ) ;
#290 = VECTOR ( 'NONE', #375, 39.37007874015748854 ) ;
#291 = DIRECTION ( 'NONE',  ( 1.000000000000000000, 0.0000000000000000000, -0.0000000000000000000 ) ) ;
#292 = DIRECTION ( 'NONE',  ( -1.000000000000000000, 0.0000000000000000000, 0.0000000000000000000 ) ) ;
#293 = CARTESIAN_POINT ( 'NONE',  ( -0.1250000000000000278, 0.0000000000000000000, 0.1869999999999999996 ) ) ;
#294 = DIRECTION ( 'NONE',  ( -1.000000000000000000, 0.0000000000000000000, 0.0000000000000000000 ) ) ;
#295 = CONICAL_SURFACE ( 'NONE', #184, 0.1250000000000000833, 0.7853981633974503884 ) ;
#296 = DIRECTION ( 'NONE',  ( -1.000000000000000000, 0.0000000000000000000, 0.0000000000000000000 ) ) ;
#297 = DIRECTION ( 'NONE',  ( -0.0000000000000000000, -0.0000000000000000000, -1.000000000000000000 ) ) ;
#298 = SHAPE_DEFINITION_REPRESENTATION ( #223, #321 ) ;
#299 = CARTESIAN_POINT ( 'NONE',  ( -0.2350000000000011524, 0.0000000000000000000, 3.000000000000000444 ) ) ;
#300 = VERTEX_POINT ( 'NONE', #299 ) ;
#301 = LINE ( 'NONE', #253, #247 ) ;
#302 = VERTEX_POINT ( 'NONE', #37 ) ;
#303 = FACE_BOUND ( 'NONE', #126, .T. ) ;
#304 = CARTESIAN_POINT ( 'NONE',  ( 0.2500000000000000000, 3.061616997868382402E-17, 0.8749999999999994449 ) ) ;
#305 = COLOUR_RGB ( '',0.7921568627450980005, 0.8196078431372548767, 0.9333333333333333481 ) ;
#306 = CIRCLE ( 'NONE', #263, 0.1250000000000000833 ) ;
#307 = CARTESIAN_POINT ( 'NONE',  ( 0.2500000000000000000, 3.061616997868382402E-17, 3.000000000000000444 ) ) ;
#308 = SURFACE_SIDE_STYLE ('',( #205 ) ) ;
#309 = VERTEX_POINT ( 'NONE', #274 ) ;
#310 = PRESENTATION_STYLE_ASSIGNMENT (( #15 ) ) ;
#311 = ORIENTED_EDGE ( 'NONE', *, *, #105, .F. ) ;
#312 = EDGE_CURVE ( 'NONE', #44, #170, #112, .T. ) ;
#313 = CARTESIAN_POINT ( 'NONE',  ( 0.0000000000000000000, 0.0000000000000000000, 3.000000000000000444 ) ) ;
#314 = EDGE_LOOP ( 'NONE', ( #197, #174, #9, #82 ) ) ;
#315 = VECTOR ( 'NONE', #150, 39.37007874015748143 ) ;
#316 = CARTESIAN_POINT ( 'NONE',  ( 0.0000000000000000000, 0.0000000000000000000, 3.000000000000000444 ) ) ;
#317 = DIRECTION ( 'NONE',  ( -1.000000000000000000, 0.0000000000000000000, 0.0000000000000000000 ) ) ;
#318 = EDGE_LOOP ( 'NONE', ( #107, #109 ) ) ;
#319 = FACE_OUTER_BOUND ( 'NONE', #318, .T. ) ;
#320 = EDGE_CURVE ( 'NONE', #302, #309, #301, .T. ) ;
#321 = ADVANCED_BREP_SHAPE_REPRESENTATION ( 'Micro_KC-500-750-187', ( #68, #95 ), #5 ) ;
#322 = VECTOR ( 'NONE', #113, 39.37007874015748854 ) ;
#323 = FACE_OUTER_BOUND ( 'NONE', #201, .T. ) ;
#324 = CARTESIAN_POINT ( 'NONE',  ( 0.1250000000000000833, 0.0000000000000000000, 0.7500000000000001110 ) ) ;
#325 = CARTESIAN_POINT ( 'NONE',  ( 0.0000000000000000000, 0.0000000000000000000, 0.1869999999999999996 ) ) ;
#326 = AXIS2_PLACEMENT_3D ( 'NONE', #316, #171, #340 ) ;
#327 = DIRECTION ( 'NONE',  ( 1.000000000000000000, 0.0000000000000000000, 0.0000000000000000000 ) ) ;
#328 = EDGE_LOOP ( 'NONE', ( #76, #259, #204, #79 ) ) ;
#329 = FACE_OUTER_BOUND ( 'NONE', #136, .T. ) ;
#330 = EDGE_LOOP ( 'NONE', ( #282, #46, #219, #111 ) ) ;
#331 = DIRECTION ( 'NONE',  ( 0.0000000000000000000, 0.0000000000000000000, -1.000000000000000000 ) ) ;
#332 = AXIS2_PLACEMENT_3D ( 'NONE', #378, #58, #291 ) ;
#333 = CIRCLE ( 'NONE', #17, 0.1250000000000000833 ) ;
#334 = DIRECTION ( 'NONE',  ( 0.0000000000000000000, 0.0000000000000000000, 1.000000000000000000 ) ) ;
#335 = EDGE_CURVE ( 'NONE', #302, #159, #360, .T. ) ;
#336 = CYLINDRICAL_SURFACE ( 'NONE', #177, 0.2500000000000000000 ) ;
#337 = EDGE_LOOP ( 'NONE', ( #6, #106, #39, #311 ) ) ;
#338 = VECTOR ( 'NONE', #260, 39.37007874015748143 ) ;
#339 = ORIENTED_EDGE ( 'NONE', *, *, #97, .T. ) ;
#340 = DIRECTION ( 'NONE',  ( -1.000000000000000000, 0.0000000000000000000, 0.0000000000000000000 ) ) ;
#341 = ORIENTED_EDGE ( 'NONE', *, *, #335, .T. ) ;
#342 = ORIENTED_EDGE ( 'NONE', *, *, #157, .T. ) ;
#343 = CONICAL_SURFACE ( 'NONE', #232, 0.2350000000000011524, 0.7853981633974380649 ) ;
#344 = PRODUCT_CONTEXT ( 'NONE', #189, 'mechanical' ) ;
#345 = CIRCLE ( 'NONE', #70, 0.1250000000000000278 ) ;
#346 = ORIENTED_EDGE ( 'NONE', *, *, #139, .T. ) ;
#347 = UNCERTAINTY_MEASURE_WITH_UNIT (LENGTH_MEASURE( 1.000000000000000082E-05 ), #230, 'distance_accuracy_value', 'NONE');
#348 = CARTESIAN_POINT ( 'NONE',  ( 0.0000000000000000000, 0.0000000000000000000, 0.1869999999999999996 ) ) ;
#349 = CARTESIAN_POINT ( 'NONE',  ( 0.1250000000000000555, 1.530808498934192125E-17, 0.0000000000000000000 ) ) ;
#350 = DIRECTION ( 'NONE',  ( 0.0000000000000000000, 0.0000000000000000000, 1.000000000000000000 ) ) ;
#351 = DIRECTION ( 'NONE',  ( -0.0000000000000000000, -0.0000000000000000000, -1.000000000000000000 ) ) ;
#352 = EDGE_CURVE ( 'NONE', #170, #44, #100, .T. ) ;
#353 = LINE ( 'NONE', #84, #376 ) ;
#354 = DIRECTION ( 'NONE',  ( -1.000000000000000000, 0.0000000000000000000, 0.0000000000000000000 ) ) ;
#355 = DIRECTION ( 'NONE',  ( 1.000000000000000000, 0.0000000000000000000, 0.0000000000000000000 ) ) ;
#356 = CIRCLE ( 'NONE', #377, 0.2350000000000011524 ) ;
#357 = DIRECTION ( 'NONE',  ( 0.0000000000000000000, 0.0000000000000000000, 1.000000000000000000 ) ) ;
#358 = DIRECTION ( 'NONE',  ( 1.000000000000000000, 0.0000000000000000000, 0.0000000000000000000 ) ) ;
#359 = ADVANCED_FACE ( 'NONE', ( #135 ), #144, .T. ) ;
#360 = LINE ( 'NONE', #99, #27 ) ;
#361 = AXIS2_PLACEMENT_3D ( 'NONE', #121, #11, #327 ) ;
#362 = EDGE_CURVE ( 'NONE', #44, #363, #102, .T. ) ;
#363 = VERTEX_POINT ( 'NONE', #304 ) ;
#364 = LENGTH_MEASURE_WITH_UNIT ( LENGTH_MEASURE( 0.02539999999999999897 ), #142 );
#365 = ORIENTED_EDGE ( 'NONE', *, *, #178, .F. ) ;
#366 = AXIS2_PLACEMENT_3D ( 'NONE', #250, #334, #215 ) ;
#367 = SURFACE_STYLE_FILL_AREA ( #163 ) ;
#368 = ADVANCED_FACE ( 'NONE', ( #101 ), #336, .T. ) ;
#369 =( CONVERSION_BASED_UNIT ( 'INCH', #20 ) LENGTH_UNIT ( ) NAMED_UNIT ( #50 ) );
#370 = EDGE_LOOP ( 'NONE', ( #66, #240, #49, #365 ) ) ;
#371 = VERTEX_POINT ( 'NONE', #229 ) ;
#372 = PRODUCT_RELATED_PRODUCT_CATEGORY ( 'part', '', ( #125 ) ) ;
#373 = CARTESIAN_POINT ( 'NONE',  ( 0.0000000000000000000, 0.0000000000000000000, 0.7500000000000001110 ) ) ;
#374 = CARTESIAN_POINT ( 'NONE',  ( 0.0000000000000000000, 0.0000000000000000000, 3.000000000000000444 ) ) ;
#375 = DIRECTION ( 'NONE',  ( 0.7071067811865402453, 8.659560562354845344E-17, -0.7071067811865546782 ) ) ;
#376 = VECTOR ( 'NONE', #1, 39.37007874015748143 ) ;
#377 = AXIS2_PLACEMENT_3D ( 'NONE', #158, #67, #355 ) ;
#378 = CARTESIAN_POINT ( 'NONE',  ( 0.0000000000000000000, 0.0000000000000000000, 0.0000000000000000000 ) ) ;
#379 = CARTESIAN_POINT ( 'NONE',  ( 0.0000000000000000000, 0.0000000000000000000, 0.1869999999999999996 ) ) ;
ENDSEC;
END-ISO-10303-21;
