ISO-10303-21;
HEADER;
FILE_DESCRIPTION (( 'STEP AP214' ),
    '1' );
FILE_NAME ('30497.STEP',
    '2023-06-22T18:31:56',
    ( '' ),
    ( '' ),
    'SwSTEP 2.0',
    'SolidWorks 2023',
    '' );
FILE_SCHEMA (( 'AUTOMOTIVE_DESIGN' ));
ENDSEC;

DATA;
#1 = SURFACE_STYLE_USAGE ( .BOTH. , #195 ) ;
#2 = VERTEX_POINT ( 'NONE', #300 ) ;
#3 = ADVANCED_BREP_SHAPE_REPRESENTATION ( '30497', ( #170, #64, #155 ), #44 ) ;
#4 =( LENGTH_UNIT ( ) NAMED_UNIT ( * ) SI_UNIT ( $, .METRE. ) );
#5 = PRESENTATION_STYLE_ASSIGNMENT (( #86 ) ) ;
#6 = CIRCLE ( 'NONE', #118, 0.2500000000000000000 ) ;
#7 = CARTESIAN_POINT ( 'NONE',  ( 1.224646799147353207E-16, 2.500000000000000000, 0.000000000000000000 ) ) ;
#8 = CARTESIAN_POINT ( 'NONE',  ( 0.000000000000000000, 0.000000000000000000, 0.000000000000000000 ) ) ;
#9 = VERTEX_POINT ( 'NONE', #299 ) ;
#10 = ADVANCED_FACE ( 'NONE', ( #303 ), #139, .T. ) ;
#11 = DIRECTION ( 'NONE',  ( 6.531449595452550356E-17, 1.000000000000000000, -0.000000000000000000 ) ) ;
#12 = EDGE_CURVE ( 'NONE', #212, #9, #164, .T. ) ;
#13 = CYLINDRICAL_SURFACE ( 'NONE', #176, 0.2500000000000000000 ) ;
#14 = STYLED_ITEM ( 'NONE', ( #5 ), #64 ) ;
#15 = DIRECTION ( 'NONE',  ( -1.000000000000000000, 6.531449595452550356E-17, 0.000000000000000000 ) ) ;
#16 =( NAMED_UNIT ( * ) SI_UNIT ( $, .STERADIAN. ) SOLID_ANGLE_UNIT ( ) );
#17 = DIRECTION ( 'NONE',  ( 0.000000000000000000, 0.000000000000000000, -1.000000000000000000 ) ) ;
#18 = ORIENTED_EDGE ( 'NONE', *, *, #47, .T. ) ;
#19 =( CONVERSION_BASED_UNIT ( 'INCH', #22 ) LENGTH_UNIT ( ) NAMED_UNIT ( #49 ) );
#20 = VERTEX_POINT ( 'NONE', #127 ) ;
#21 = AXIS2_PLACEMENT_3D ( 'NONE', #100, #275, #74 ) ;
#22 = LENGTH_MEASURE_WITH_UNIT ( LENGTH_MEASURE( 0.02539999999999999897 ), #167 );
#23 = FILL_AREA_STYLE ('',( #43 ) ) ;
#24 = PRODUCT_DEFINITION_CONTEXT ( 'detailed design', #79, 'design' ) ;
#25 = APPLICATION_PROTOCOL_DEFINITION ( 'draft international standard', 'automotive_design', 1998, #283 ) ;
#26 = MECHANICAL_DESIGN_GEOMETRIC_PRESENTATION_REPRESENTATION (  '', ( #14 ), #39 ) ;
#27 = CIRCLE ( 'NONE', #200, 0.2499999999999998612 ) ;
#28 = ORIENTED_EDGE ( 'NONE', *, *, #47, .F. ) ;
#29 =( NAMED_UNIT ( * ) SI_UNIT ( $, .STERADIAN. ) SOLID_ANGLE_UNIT ( ) );
#30 = ORIENTED_EDGE ( 'NONE', *, *, #12, .F. ) ;
#31 = AXIS2_PLACEMENT_3D ( 'NONE', #69, #237, #93 ) ;
#32 = PRODUCT ( '30497', '30497', '', ( #129 ) ) ;
#33 = LENGTH_MEASURE_WITH_UNIT ( LENGTH_MEASURE( 0.02539999999999999897 ), #4 );
#34 = CARTESIAN_POINT ( 'NONE',  ( 0.2500000000000000000, 2.500000000000000000, 0.000000000000000000 ) ) ;
#35 = EDGE_CURVE ( 'NONE', #282, #20, #293, .T. ) ;
#36 = SURFACE_STYLE_FILL_AREA ( #203 ) ;
#37 = PLANE ( 'NONE',  #102 ) ;
#38 = STYLED_ITEM ( 'NONE', ( #105 ), #52 ) ;
#39 =( GEOMETRIC_REPRESENTATION_CONTEXT ( 3 ) GLOBAL_UNCERTAINTY_ASSIGNED_CONTEXT ( ( #259 ) ) GLOBAL_UNIT_ASSIGNED_CONTEXT ( ( #263, #82, #243 ) ) REPRESENTATION_CONTEXT ( 'NONE', 'WORKASPACE' ) );
#40 = EDGE_LOOP ( 'NONE', ( #76, #254 ) ) ;
#41 = SURFACE_STYLE_FILL_AREA ( #204 ) ;
#42 = FILL_AREA_STYLE_COLOUR ( '', #107 ) ;
#43 = FILL_AREA_STYLE_COLOUR ( '', #281 ) ;
#44 =( GEOMETRIC_REPRESENTATION_CONTEXT ( 3 ) GLOBAL_UNCERTAINTY_ASSIGNED_CONTEXT ( ( #146 ) ) GLOBAL_UNIT_ASSIGNED_CONTEXT ( ( #19, #238, #65 ) ) REPRESENTATION_CONTEXT ( 'NONE', 'WORKASPACE' ) );
#45 = VECTOR ( 'NONE', #231, 39.37007874015748143 ) ;
#46 =( LENGTH_UNIT ( ) NAMED_UNIT ( * ) SI_UNIT ( $, .METRE. ) );
#47 = EDGE_CURVE ( 'NONE', #161, #168, #184, .T. ) ;
#48 = MECHANICAL_DESIGN_GEOMETRIC_PRESENTATION_REPRESENTATION (  '', ( #274 ), #172 ) ;
#49 = DIMENSIONAL_EXPONENTS ( 1.000000000000000000, 0.000000000000000000, 0.000000000000000000, 0.000000000000000000, 0.000000000000000000, 0.000000000000000000, 0.000000000000000000 ) ;
#50 = ORIENTED_EDGE ( 'NONE', *, *, #78, .T. ) ;
#51 =( GEOMETRIC_REPRESENTATION_CONTEXT ( 3 ) GLOBAL_UNCERTAINTY_ASSIGNED_CONTEXT ( ( #140 ) ) GLOBAL_UNIT_ASSIGNED_CONTEXT ( ( #54, #245, #29 ) ) REPRESENTATION_CONTEXT ( 'NONE', 'WORKASPACE' ) );
#52 = ADVANCED_FACE ( 'NONE', ( #60 ), #165, .T. ) ;
#53 = DIRECTION ( 'NONE',  ( 6.531449595452550356E-17, 1.000000000000000000, -0.000000000000000000 ) ) ;
#54 =( CONVERSION_BASED_UNIT ( 'INCH', #33 ) LENGTH_UNIT ( ) NAMED_UNIT ( #77 ) );
#55 = CARTESIAN_POINT ( 'NONE',  ( 3.061616997868383018E-17, 0.000000000000000000, 0.2500000000000000000 ) ) ;
#56 = CARTESIAN_POINT ( 'NONE',  ( 0.000000000000000000, 0.000000000000000000, -0.2500000000000000000 ) ) ;
#57 = FILL_AREA_STYLE_COLOUR ( '', #251 ) ;
#58 = CARTESIAN_POINT ( 'NONE',  ( 5.332479227242161011E-34, 0.6250000000000000000, 0.000000000000000000 ) ) ;
#59 = SURFACE_SIDE_STYLE ('',( #162 ) ) ;
#60 = FACE_OUTER_BOUND ( 'NONE', #216, .T. ) ;
#61 = VECTOR ( 'NONE', #181, 39.37007874015748143 ) ;
#62 = STYLED_ITEM ( 'NONE', ( #68 ), #284 ) ;
#63 = PRODUCT_DEFINITION_SHAPE ( 'NONE', 'NONE',  #103 ) ;
#64 = MANIFOLD_SOLID_BREP ( 'Revolve - Tool Body (Straight Shanked)', #302 ) ;
#65 =( NAMED_UNIT ( * ) SI_UNIT ( $, .STERADIAN. ) SOLID_ANGLE_UNIT ( ) );
#66 = UNCERTAINTY_MEASURE_WITH_UNIT (LENGTH_MEASURE( 1.000000000000000082E-05 ), #145, 'distance_accuracy_value', 'NONE');
#67 = DIRECTION ( 'NONE',  ( -1.000000000000000000, 0.000000000000000000, 0.000000000000000000 ) ) ;
#68 = PRESENTATION_STYLE_ASSIGNMENT (( #190 ) ) ;
#69 = CARTESIAN_POINT ( 'NONE',  ( 0.000000000000000000, 0.000000000000000000, 0.000000000000000000 ) ) ;
#70 =( NAMED_UNIT ( * ) PLANE_ANGLE_UNIT ( ) SI_UNIT ( $, .RADIAN. ) );
#71 = CIRCLE ( 'NONE', #166, 0.2500000000000000000 ) ;
#72 = DIRECTION ( 'NONE',  ( 6.531449595452550356E-17, 1.000000000000000000, -0.000000000000000000 ) ) ;
#73 = STYLED_ITEM ( 'NONE', ( #206 ), #170 ) ;
#74 = DIRECTION ( 'NONE',  ( 0.000000000000000000, 0.000000000000000000, -1.000000000000000000 ) ) ;
#75 = DIRECTION ( 'NONE',  ( 0.000000000000000000, 0.000000000000000000, 1.000000000000000000 ) ) ;
#76 = ORIENTED_EDGE ( 'NONE', *, *, #297, .T. ) ;
#77 = DIMENSIONAL_EXPONENTS ( 1.000000000000000000, 0.000000000000000000, 0.000000000000000000, 0.000000000000000000, 0.000000000000000000, 0.000000000000000000, 0.000000000000000000 ) ;
#78 = EDGE_CURVE ( 'NONE', #2, #20, #135, .T. ) ;
#79 = APPLICATION_CONTEXT ( 'automotive_design' ) ;
#80 = ORIENTED_EDGE ( 'NONE', *, *, #78, .F. ) ;
#81 = CYLINDRICAL_SURFACE ( 'NONE', #241, 0.2499999999999999167 ) ;
#82 =( NAMED_UNIT ( * ) PLANE_ANGLE_UNIT ( ) SI_UNIT ( $, .RADIAN. ) );
#83 = CARTESIAN_POINT ( 'NONE',  ( -0.2500000000000000000, 0.6250000000000000000, 0.000000000000000000 ) ) ;
#84 = ORIENTED_EDGE ( 'NONE', *, *, #297, .F. ) ;
#85 = CIRCLE ( 'NONE', #87, 0.2499999999999998612 ) ;
#86 = SURFACE_STYLE_USAGE ( .BOTH. , #220 ) ;
#87 = AXIS2_PLACEMENT_3D ( 'NONE', #196, #222, #287 ) ;
#88 = DIRECTION ( 'NONE',  ( -1.000000000000000000, 0.000000000000000000, 0.000000000000000000 ) ) ;
#89 = AXIS2_PLACEMENT_3D ( 'NONE', #280, #236, #17 ) ;
#90 = VECTOR ( 'NONE', #11, 39.37007874015748143 ) ;
#91 = PLANE ( 'NONE',  #163 ) ;
#92 = ORIENTED_EDGE ( 'NONE', *, *, #247, .F. ) ;
#93 = DIRECTION ( 'NONE',  ( 0.000000000000000000, 0.000000000000000000, -1.000000000000000000 ) ) ;
#94 = SURFACE_STYLE_USAGE ( .BOTH. , #59 ) ;
#95 = ADVANCED_FACE ( 'NONE', ( #217 ), #174, .T. ) ;
#96 = ORIENTED_EDGE ( 'NONE', *, *, #148, .F. ) ;
#97 = ADVANCED_FACE ( 'NONE', ( #292 ), #81, .T. ) ;
#98 = ADVANCED_FACE ( 'NONE', ( #248 ), #91, .F. ) ;
#99 = ORIENTED_EDGE ( 'NONE', *, *, #180, .F. ) ;
#100 = CARTESIAN_POINT ( 'NONE',  ( 0.000000000000000000, 0.6250000000000000000, 0.000000000000000000 ) ) ;
#101 =( NAMED_UNIT ( * ) SI_UNIT ( $, .STERADIAN. ) SOLID_ANGLE_UNIT ( ) );
#102 = AXIS2_PLACEMENT_3D ( 'NONE', #58, #117, #15 ) ;
#103 = PRODUCT_DEFINITION ( 'UNKNOWN', '', #113, #24 ) ;
#104 = EDGE_LOOP ( 'NONE', ( #240, #257, #50, #289 ) ) ;
#105 = PRESENTATION_STYLE_ASSIGNMENT (( #1 ) ) ;
#106 = ORIENTED_EDGE ( 'NONE', *, *, #276, .T. ) ;
#107 = COLOUR_RGB ( '',1.000000000000000000, 0.000000000000000000, 0.000000000000000000 ) ;
#108 = ADVANCED_FACE ( 'NONE', ( #267 ), #37, .F. ) ;
#109 = DIMENSIONAL_EXPONENTS ( 1.000000000000000000, 0.000000000000000000, 0.000000000000000000, 0.000000000000000000, 0.000000000000000000, 0.000000000000000000, 0.000000000000000000 ) ;
#110 = CARTESIAN_POINT ( 'NONE',  ( 0.000000000000000000, 0.6250000000000000000, 0.000000000000000000 ) ) ;
#111 = DIMENSIONAL_EXPONENTS ( 1.000000000000000000, 0.000000000000000000, 0.000000000000000000, 0.000000000000000000, 0.000000000000000000, 0.000000000000000000, 0.000000000000000000 ) ;
#112 = MECHANICAL_DESIGN_GEOMETRIC_PRESENTATION_REPRESENTATION (  '', ( #298 ), #306 ) ;
#113 = PRODUCT_DEFINITION_FORMATION_WITH_SPECIFIED_SOURCE ( 'ANY', '', #32, .NOT_KNOWN. ) ;
#114 = DIRECTION ( 'NONE',  ( 6.531449595452550356E-17, 1.000000000000000000, -0.000000000000000000 ) ) ;
#115 = CARTESIAN_POINT ( 'NONE',  ( 0.2500000000000000555, 0.6250000000000000000, 3.061616997868383018E-17 ) ) ;
#116 = CARTESIAN_POINT ( 'NONE',  ( 1.224646799147353207E-16, 2.500000000000000000, 0.000000000000000000 ) ) ;
#117 = DIRECTION ( 'NONE',  ( 6.531449595452550356E-17, 1.000000000000000000, -0.000000000000000000 ) ) ;
#118 = AXIS2_PLACEMENT_3D ( 'NONE', #133, #173, #219 ) ;
#119 = CARTESIAN_POINT ( 'NONE',  ( 3.061616997868383018E-17, 0.6250000000000000000, 0.2500000000000000000 ) ) ;
#120 = FACE_OUTER_BOUND ( 'NONE', #104, .T. ) ;
#121 = ORIENTED_EDGE ( 'NONE', *, *, #148, .T. ) ;
#122 = LENGTH_MEASURE_WITH_UNIT ( LENGTH_MEASURE( 0.02539999999999999897 ), #249 );
#123 = UNCERTAINTY_MEASURE_WITH_UNIT (LENGTH_MEASURE( 1.000000000000000082E-05 ), #268, 'distance_accuracy_value', 'NONE');
#124 = ORIENTED_EDGE ( 'NONE', *, *, #296, .F. ) ;
#125 = ADVANCED_FACE ( 'NONE', ( #120 ), #13, .T. ) ;
#126 = DIRECTION ( 'NONE',  ( 6.531449595452550356E-17, 1.000000000000000000, -0.000000000000000000 ) ) ;
#127 = CARTESIAN_POINT ( 'NONE',  ( 0.000000000000000000, 0.000000000000000000, -0.2500000000000000000 ) ) ;
#128 =( NAMED_UNIT ( * ) SI_UNIT ( $, .STERADIAN. ) SOLID_ANGLE_UNIT ( ) );
#129 = PRODUCT_CONTEXT ( 'NONE', #283, 'mechanical' ) ;
#130 = MECHANICAL_DESIGN_GEOMETRIC_PRESENTATION_REPRESENTATION (  '', ( #73 ), #211 ) ;
#131 = ORIENTED_EDGE ( 'NONE', *, *, #151, .T. ) ;
#132 = VERTEX_POINT ( 'NONE', #119 ) ;
#133 = CARTESIAN_POINT ( 'NONE',  ( 0.000000000000000000, 0.6250000000000000000, 0.000000000000000000 ) ) ;
#134 = PRESENTATION_LAYER_ASSIGNMENT (  '', '', ( #14 ) ) ;
#135 = LINE ( 'NONE', #56, #61 ) ;
#136 = LENGTH_MEASURE_WITH_UNIT ( LENGTH_MEASURE( 0.02539999999999999897 ), #225 );
#137 = SURFACE_STYLE_FILL_AREA ( #244 ) ;
#138 = SURFACE_SIDE_STYLE ('',( #36 ) ) ;
#139 = CYLINDRICAL_SURFACE ( 'NONE', #239, 0.2500000000000000000 ) ;
#140 = UNCERTAINTY_MEASURE_WITH_UNIT (LENGTH_MEASURE( 1.000000000000000082E-05 ), #54, 'distance_accuracy_value', 'NONE');
#141 = CARTESIAN_POINT ( 'NONE',  ( 0.000000000000000000, 0.000000000000000000, 0.000000000000000000 ) ) ;
#142 = DIRECTION ( 'NONE',  ( 0.000000000000000000, 0.000000000000000000, -1.000000000000000000 ) ) ;
#143 = PRESENTATION_LAYER_ASSIGNMENT (  '', '', ( #38 ) ) ;
#144 = ORIENTED_EDGE ( 'NONE', *, *, #260, .F. ) ;
#145 =( CONVERSION_BASED_UNIT ( 'INCH', #233 ) LENGTH_UNIT ( ) NAMED_UNIT ( #197 ) );
#146 = UNCERTAINTY_MEASURE_WITH_UNIT (LENGTH_MEASURE( 1.000000000000000082E-05 ), #19, 'distance_accuracy_value', 'NONE');
#147 = DIRECTION ( 'NONE',  ( 0.000000000000000000, 0.000000000000000000, -1.000000000000000000 ) ) ;
#148 = EDGE_CURVE ( 'NONE', #2, #132, #202, .T. ) ;
#149 = EDGE_LOOP ( 'NONE', ( #121, #131, #84, #80 ) ) ;
#150 = DIRECTION ( 'NONE',  ( 0.000000000000000000, 0.000000000000000000, -1.000000000000000000 ) ) ;
#151 = EDGE_CURVE ( 'NONE', #132, #282, #179, .T. ) ;
#152 = ORIENTED_EDGE ( 'NONE', *, *, #260, .T. ) ;
#153 = AXIS2_PLACEMENT_3D ( 'NONE', #110, #198, #291 ) ;
#154 = AXIS2_PLACEMENT_3D ( 'NONE', #242, #72, #67 ) ;
#155 = AXIS2_PLACEMENT_3D ( 'NONE', #277, #75, #309 ) ;
#156 = PRESENTATION_LAYER_ASSIGNMENT (  '', '', ( #298 ) ) ;
#157 =( GEOMETRIC_REPRESENTATION_CONTEXT ( 3 ) GLOBAL_UNCERTAINTY_ASSIGNED_CONTEXT ( ( #66 ) ) GLOBAL_UNIT_ASSIGNED_CONTEXT ( ( #145, #188, #128 ) ) REPRESENTATION_CONTEXT ( 'NONE', 'WORKASPACE' ) );
#158 = FILL_AREA_STYLE ('',( #246 ) ) ;
#159 = FACE_OUTER_BOUND ( 'NONE', #40, .T. ) ;
#160 = CARTESIAN_POINT ( 'NONE',  ( 0.2500000000000000555, 2.500000000000000000, 3.061616997868383018E-17 ) ) ;
#161 = VERTEX_POINT ( 'NONE', #115 ) ;
#162 = SURFACE_STYLE_FILL_AREA ( #158 ) ;
#163 = AXIS2_PLACEMENT_3D ( 'NONE', #34, #270, #256 ) ;
#164 = LINE ( 'NONE', #230, #90 ) ;
#165 = PLANE ( 'NONE',  #153 ) ;
#166 = AXIS2_PLACEMENT_3D ( 'NONE', #304, #193, #150 ) ;
#167 =( LENGTH_UNIT ( ) NAMED_UNIT ( * ) SI_UNIT ( $, .METRE. ) );
#168 = VERTEX_POINT ( 'NONE', #160 ) ;
#169 = ORIENTED_EDGE ( 'NONE', *, *, #180, .T. ) ;
#170 = MANIFOLD_SOLID_BREP ( 'Revolve - Cutting Edge', #229 ) ;
#171 = EDGE_LOOP ( 'NONE', ( #169, #106 ) ) ;
#172 =( GEOMETRIC_REPRESENTATION_CONTEXT ( 3 ) GLOBAL_UNCERTAINTY_ASSIGNED_CONTEXT ( ( #191 ) ) GLOBAL_UNIT_ASSIGNED_CONTEXT ( ( #187, #70, #16 ) ) REPRESENTATION_CONTEXT ( 'NONE', 'WORKASPACE' ) );
#173 = DIRECTION ( 'NONE',  ( 6.531449595452550356E-17, 1.000000000000000000, -0.000000000000000000 ) ) ;
#174 = CYLINDRICAL_SURFACE ( 'NONE', #154, 0.2499999999999999167 ) ;
#175 = FILL_AREA_STYLE_COLOUR ( '', #262 ) ;
#176 = AXIS2_PLACEMENT_3D ( 'NONE', #8, #265, #185 ) ;
#177 = COLOUR_RGB ( '',1.000000000000000000, 0.000000000000000000, 0.000000000000000000 ) ;
#178 = LENGTH_MEASURE_WITH_UNIT ( LENGTH_MEASURE( 0.02539999999999999897 ), #250 );
#179 = LINE ( 'NONE', #55, #45 ) ;
#180 = EDGE_CURVE ( 'NONE', #9, #168, #85, .T. ) ;
#181 = DIRECTION ( 'NONE',  ( -0.000000000000000000, -1.000000000000000000, -0.000000000000000000 ) ) ;
#182 = FILL_AREA_STYLE ('',( #42 ) ) ;
#183 =( NAMED_UNIT ( * ) SI_UNIT ( $, .STERADIAN. ) SOLID_ANGLE_UNIT ( ) );
#184 = LINE ( 'NONE', #272, #228 ) ;
#185 = DIRECTION ( 'NONE',  ( 0.000000000000000000, 0.000000000000000000, -1.000000000000000000 ) ) ;
#186 = MECHANICAL_DESIGN_GEOMETRIC_PRESENTATION_REPRESENTATION (  '', ( #62 ), #157 ) ;
#187 =( CONVERSION_BASED_UNIT ( 'INCH', #278 ) LENGTH_UNIT ( ) NAMED_UNIT ( #215 ) );
#188 =( NAMED_UNIT ( * ) PLANE_ANGLE_UNIT ( ) SI_UNIT ( $, .RADIAN. ) );
#189 = SURFACE_SIDE_STYLE ('',( #226 ) ) ;
#190 = SURFACE_STYLE_USAGE ( .BOTH. , #252 ) ;
#191 = UNCERTAINTY_MEASURE_WITH_UNIT (LENGTH_MEASURE( 1.000000000000000082E-05 ), #187, 'distance_accuracy_value', 'NONE');
#192 =( LENGTH_UNIT ( ) NAMED_UNIT ( * ) SI_UNIT ( $, .METRE. ) );
#193 = DIRECTION ( 'NONE',  ( -0.000000000000000000, -1.000000000000000000, -0.000000000000000000 ) ) ;
#194 = EDGE_LOOP ( 'NONE', ( #28, #234, #286, #264 ) ) ;
#195 = SURFACE_SIDE_STYLE ('',( #209 ) ) ;
#196 = CARTESIAN_POINT ( 'NONE',  ( 1.224646799147353207E-16, 2.500000000000000000, 0.000000000000000000 ) ) ;
#197 = DIMENSIONAL_EXPONENTS ( 1.000000000000000000, 0.000000000000000000, 0.000000000000000000, 0.000000000000000000, 0.000000000000000000, 0.000000000000000000, 0.000000000000000000 ) ;
#198 = DIRECTION ( 'NONE',  ( 0.000000000000000000, 1.000000000000000000, 0.000000000000000000 ) ) ;
#199 = MECHANICAL_DESIGN_GEOMETRIC_PRESENTATION_REPRESENTATION (  '', ( #38 ), #51 ) ;
#200 = AXIS2_PLACEMENT_3D ( 'NONE', #7, #114, #88 ) ;
#201 = DIRECTION ( 'NONE',  ( -0.000000000000000000, -1.000000000000000000, -0.000000000000000000 ) ) ;
#202 = CIRCLE ( 'NONE', #273, 0.2500000000000000000 ) ;
#203 = FILL_AREA_STYLE ('',( #255 ) ) ;
#204 = FILL_AREA_STYLE ('',( #57 ) ) ;
#205 = DIRECTION ( 'NONE',  ( -0.000000000000000000, -1.000000000000000000, -0.000000000000000000 ) ) ;
#206 = PRESENTATION_STYLE_ASSIGNMENT (( #235 ) ) ;
#207 = DIRECTION ( 'NONE',  ( -1.000000000000000000, 0.000000000000000000, 0.000000000000000000 ) ) ;
#208 =( CONVERSION_BASED_UNIT ( 'INCH', #122 ) LENGTH_UNIT ( ) NAMED_UNIT ( #109 ) );
#209 = SURFACE_STYLE_FILL_AREA ( #23 ) ;
#210 = PLANE ( 'NONE',  #89 ) ;
#211 =( GEOMETRIC_REPRESENTATION_CONTEXT ( 3 ) GLOBAL_UNCERTAINTY_ASSIGNED_CONTEXT ( ( #285 ) ) GLOBAL_UNIT_ASSIGNED_CONTEXT ( ( #208, #221, #101 ) ) REPRESENTATION_CONTEXT ( 'NONE', 'WORKASPACE' ) );
#212 = VERTEX_POINT ( 'NONE', #83 ) ;
#213 = COLOUR_RGB ( '',0.7921568627450980005, 0.8196078431372548767, 0.9333333333333333481 ) ;
#214 = SHAPE_DEFINITION_REPRESENTATION ( #63, #3 ) ;
#215 = DIMENSIONAL_EXPONENTS ( 1.000000000000000000, 0.000000000000000000, 0.000000000000000000, 0.000000000000000000, 0.000000000000000000, 0.000000000000000000, 0.000000000000000000 ) ;
#216 = EDGE_LOOP ( 'NONE', ( #96, #124 ) ) ;
#217 = FACE_OUTER_BOUND ( 'NONE', #194, .T. ) ;
#218 = EDGE_LOOP ( 'NONE', ( #144, #92 ) ) ;
#219 = DIRECTION ( 'NONE',  ( -1.000000000000000000, 0.000000000000000000, 0.000000000000000000 ) ) ;
#220 = SURFACE_SIDE_STYLE ('',( #137 ) ) ;
#221 =( NAMED_UNIT ( * ) PLANE_ANGLE_UNIT ( ) SI_UNIT ( $, .RADIAN. ) );
#222 = DIRECTION ( 'NONE',  ( 6.531449595452550356E-17, 1.000000000000000000, -0.000000000000000000 ) ) ;
#223 = DIRECTION ( 'NONE',  ( -1.000000000000000000, 0.000000000000000000, 0.000000000000000000 ) ) ;
#224 =( NAMED_UNIT ( * ) PLANE_ANGLE_UNIT ( ) SI_UNIT ( $, .RADIAN. ) );
#225 =( LENGTH_UNIT ( ) NAMED_UNIT ( * ) SI_UNIT ( $, .METRE. ) );
#226 = SURFACE_STYLE_FILL_AREA ( #182 ) ;
#227 = CARTESIAN_POINT ( 'NONE',  ( 0.000000000000000000, 0.6250000000000000000, 0.000000000000000000 ) ) ;
#228 = VECTOR ( 'NONE', #126, 39.37007874015748143 ) ;
#229 = CLOSED_SHELL ( 'NONE', ( #10, #52, #125, #284 ) ) ;
#230 = CARTESIAN_POINT ( 'NONE',  ( -0.2499999999999998057, 2.500000000000000000, 0.000000000000000000 ) ) ;
#231 = DIRECTION ( 'NONE',  ( -0.000000000000000000, -1.000000000000000000, -0.000000000000000000 ) ) ;
#232 = PRODUCT_RELATED_PRODUCT_CATEGORY ( 'part', '', ( #32 ) ) ;
#233 = LENGTH_MEASURE_WITH_UNIT ( LENGTH_MEASURE( 0.02539999999999999897 ), #46 );
#234 = ORIENTED_EDGE ( 'NONE', *, *, #247, .T. ) ;
#235 = SURFACE_STYLE_USAGE ( .BOTH. , #138 ) ;
#236 = DIRECTION ( 'NONE',  ( 0.000000000000000000, -1.000000000000000000, -0.000000000000000000 ) ) ;
#237 = DIRECTION ( 'NONE',  ( -0.000000000000000000, -1.000000000000000000, -0.000000000000000000 ) ) ;
#238 =( NAMED_UNIT ( * ) PLANE_ANGLE_UNIT ( ) SI_UNIT ( $, .RADIAN. ) );
#239 = AXIS2_PLACEMENT_3D ( 'NONE', #141, #205, #147 ) ;
#240 = ORIENTED_EDGE ( 'NONE', *, *, #151, .F. ) ;
#241 = AXIS2_PLACEMENT_3D ( 'NONE', #116, #53, #207 ) ;
#242 = CARTESIAN_POINT ( 'NONE',  ( 1.224646799147353207E-16, 2.500000000000000000, 0.000000000000000000 ) ) ;
#243 =( NAMED_UNIT ( * ) SI_UNIT ( $, .STERADIAN. ) SOLID_ANGLE_UNIT ( ) );
#244 = FILL_AREA_STYLE ('',( #175 ) ) ;
#245 =( NAMED_UNIT ( * ) PLANE_ANGLE_UNIT ( ) SI_UNIT ( $, .RADIAN. ) );
#246 = FILL_AREA_STYLE_COLOUR ( '', #177 ) ;
#247 = EDGE_CURVE ( 'NONE', #161, #212, #6, .T. ) ;
#248 = FACE_OUTER_BOUND ( 'NONE', #171, .T. ) ;
#249 =( LENGTH_UNIT ( ) NAMED_UNIT ( * ) SI_UNIT ( $, .METRE. ) );
#250 =( LENGTH_UNIT ( ) NAMED_UNIT ( * ) SI_UNIT ( $, .METRE. ) );
#251 = COLOUR_RGB ( '',1.000000000000000000, 0.000000000000000000, 0.000000000000000000 ) ;
#252 = SURFACE_SIDE_STYLE ('',( #41 ) ) ;
#253 = CIRCLE ( 'NONE', #294, 0.2500000000000000000 ) ;
#254 = ORIENTED_EDGE ( 'NONE', *, *, #35, .T. ) ;
#255 = FILL_AREA_STYLE_COLOUR ( '', #213 ) ;
#256 = DIRECTION ( 'NONE',  ( 1.000000000000000000, -6.531449595452550356E-17, 0.000000000000000000 ) ) ;
#257 = ORIENTED_EDGE ( 'NONE', *, *, #296, .T. ) ;
#258 = CIRCLE ( 'NONE', #21, 0.2500000000000000000 ) ;
#259 = UNCERTAINTY_MEASURE_WITH_UNIT (LENGTH_MEASURE( 1.000000000000000082E-05 ), #263, 'distance_accuracy_value', 'NONE');
#260 = EDGE_CURVE ( 'NONE', #212, #161, #253, .T. ) ;
#261 = DIRECTION ( 'NONE',  ( 6.531449595452550356E-17, 1.000000000000000000, -0.000000000000000000 ) ) ;
#262 = COLOUR_RGB ( '',0.7921568627450980005, 0.8196078431372548767, 0.9333333333333333481 ) ;
#263 =( CONVERSION_BASED_UNIT ( 'INCH', #136 ) LENGTH_UNIT ( ) NAMED_UNIT ( #288 ) );
#264 = ORIENTED_EDGE ( 'NONE', *, *, #276, .F. ) ;
#265 = DIRECTION ( 'NONE',  ( -0.000000000000000000, -1.000000000000000000, -0.000000000000000000 ) ) ;
#266 = PRESENTATION_LAYER_ASSIGNMENT (  '', '', ( #274 ) ) ;
#267 = FACE_OUTER_BOUND ( 'NONE', #218, .T. ) ;
#268 =( CONVERSION_BASED_UNIT ( 'INCH', #178 ) LENGTH_UNIT ( ) NAMED_UNIT ( #111 ) );
#269 = CARTESIAN_POINT ( 'NONE',  ( 3.061616997868383018E-17, 0.000000000000000000, 0.2500000000000000000 ) ) ;
#270 = DIRECTION ( 'NONE',  ( -6.531449595452550356E-17, -1.000000000000000000, 0.000000000000000000 ) ) ;
#271 = SURFACE_STYLE_USAGE ( .BOTH. , #189 ) ;
#272 = CARTESIAN_POINT ( 'NONE',  ( 0.2500000000000000555, 2.500000000000000000, 3.061616997868382402E-17 ) ) ;
#273 = AXIS2_PLACEMENT_3D ( 'NONE', #227, #201, #142 ) ;
#274 = STYLED_ITEM ( 'NONE', ( #305 ), #10 ) ;
#275 = DIRECTION ( 'NONE',  ( -0.000000000000000000, -1.000000000000000000, -0.000000000000000000 ) ) ;
#276 = EDGE_CURVE ( 'NONE', #168, #9, #27, .T. ) ;
#277 = CARTESIAN_POINT ( 'NONE',  ( 0.000000000000000000, 0.000000000000000000, 0.000000000000000000 ) ) ;
#278 = LENGTH_MEASURE_WITH_UNIT ( LENGTH_MEASURE( 0.02539999999999999897 ), #192 );
#279 = PRESENTATION_LAYER_ASSIGNMENT (  '', '', ( #62 ) ) ;
#280 = CARTESIAN_POINT ( 'NONE',  ( 0.000000000000000000, 0.000000000000000000, 0.000000000000000000 ) ) ;
#281 = COLOUR_RGB ( '',1.000000000000000000, 0.000000000000000000, 0.000000000000000000 ) ;
#282 = VERTEX_POINT ( 'NONE', #269 ) ;
#283 = APPLICATION_CONTEXT ( 'automotive_design' ) ;
#284 = ADVANCED_FACE ( 'NONE', ( #159 ), #210, .T. ) ;
#285 = UNCERTAINTY_MEASURE_WITH_UNIT (LENGTH_MEASURE( 1.000000000000000082E-05 ), #208, 'distance_accuracy_value', 'NONE');
#286 = ORIENTED_EDGE ( 'NONE', *, *, #12, .T. ) ;
#287 = DIRECTION ( 'NONE',  ( -1.000000000000000000, 0.000000000000000000, 0.000000000000000000 ) ) ;
#288 = DIMENSIONAL_EXPONENTS ( 1.000000000000000000, 0.000000000000000000, 0.000000000000000000, 0.000000000000000000, 0.000000000000000000, 0.000000000000000000, 0.000000000000000000 ) ;
#289 = ORIENTED_EDGE ( 'NONE', *, *, #35, .F. ) ;
#290 = CARTESIAN_POINT ( 'NONE',  ( 0.000000000000000000, 0.6250000000000000000, 0.000000000000000000 ) ) ;
#291 = DIRECTION ( 'NONE',  ( 0.000000000000000000, -0.000000000000000000, 1.000000000000000000 ) ) ;
#292 = FACE_OUTER_BOUND ( 'NONE', #301, .T. ) ;
#293 = CIRCLE ( 'NONE', #31, 0.2500000000000000000 ) ;
#294 = AXIS2_PLACEMENT_3D ( 'NONE', #290, #261, #223 ) ;
#295 = PRESENTATION_STYLE_ASSIGNMENT (( #94 ) ) ;
#296 = EDGE_CURVE ( 'NONE', #132, #2, #258, .T. ) ;
#297 = EDGE_CURVE ( 'NONE', #20, #282, #71, .T. ) ;
#298 = STYLED_ITEM ( 'NONE', ( #295 ), #125 ) ;
#299 = CARTESIAN_POINT ( 'NONE',  ( -0.2499999999999997224, 2.500000000000000000, 0.000000000000000000 ) ) ;
#300 = CARTESIAN_POINT ( 'NONE',  ( 0.000000000000000000, 0.6250000000000000000, -0.2500000000000000000 ) ) ;
#301 = EDGE_LOOP ( 'NONE', ( #152, #18, #99, #30 ) ) ;
#302 = CLOSED_SHELL ( 'NONE', ( #97, #108, #95, #98 ) ) ;
#303 = FACE_OUTER_BOUND ( 'NONE', #149, .T. ) ;
#304 = CARTESIAN_POINT ( 'NONE',  ( 0.000000000000000000, 0.000000000000000000, 0.000000000000000000 ) ) ;
#305 = PRESENTATION_STYLE_ASSIGNMENT (( #271 ) ) ;
#306 =( GEOMETRIC_REPRESENTATION_CONTEXT ( 3 ) GLOBAL_UNCERTAINTY_ASSIGNED_CONTEXT ( ( #123 ) ) GLOBAL_UNIT_ASSIGNED_CONTEXT ( ( #268, #224, #183 ) ) REPRESENTATION_CONTEXT ( 'NONE', 'WORKASPACE' ) );
#307 = APPLICATION_PROTOCOL_DEFINITION ( 'draft international standard', 'automotive_design', 1998, #79 ) ;
#308 = PRESENTATION_LAYER_ASSIGNMENT (  '', '', ( #73 ) ) ;
#309 = DIRECTION ( 'NONE',  ( 1.000000000000000000, 0.000000000000000000, 0.000000000000000000 ) ) ;
ENDSEC;
END-ISO-10303-21;
