ISO-10303-21;
HEADER;
FILE_DESCRIPTION (( 'STEP AP214' ),
    '1' );
FILE_NAME ('59438.STEP',
    '2023-06-30T22:15:48',
    ( '' ),
    ( '' ),
    'SwSTEP 2.0',
    'SolidWorks 2023',
    '' );
FILE_SCHEMA (( 'AUTOMOTIVE_DESIGN' ));
ENDSEC;

DATA;
#1 = ORIENTED_EDGE ( 'NONE', *, *, #209, .T. ) ;
#2 = PRESENTATION_LAYER_ASSIGNMENT (  '', '', ( #100 ) ) ;
#3 = ORIENTED_EDGE ( 'NONE', *, *, #209, .F. ) ;
#4 = DIRECTION ( 'NONE',  ( 0.000000000000000000, 0.000000000000000000, -1.000000000000000000 ) ) ;
#5 = FILL_AREA_STYLE ('',( #150 ) ) ;
#6 = MECHANICAL_DESIGN_GEOMETRIC_PRESENTATION_REPRESENTATION (  '', ( #269 ), #52 ) ;
#7 = DIMENSIONAL_EXPONENTS ( 1.000000000000000000, 0.000000000000000000, 0.000000000000000000, 0.000000000000000000, 0.000000000000000000, 0.000000000000000000, 0.000000000000000000 ) ;
#8 = ADVANCED_FACE ( 'NONE', ( #39 ), #334, .T. ) ;
#9 = DIRECTION ( 'NONE',  ( -0.000000000000000000, -1.000000000000000000, -0.000000000000000000 ) ) ;
#10 = AXIS2_PLACEMENT_3D ( 'NONE', #94, #298, #299 ) ;
#11 = DIRECTION ( 'NONE',  ( 0.000000000000000000, 0.000000000000000000, -1.000000000000000000 ) ) ;
#12 = ORIENTED_EDGE ( 'NONE', *, *, #19, .F. ) ;
#13 = FILL_AREA_STYLE_COLOUR ( '', #201 ) ;
#14 = PRESENTATION_LAYER_ASSIGNMENT (  '', '', ( #312 ) ) ;
#15 =( NAMED_UNIT ( * ) PLANE_ANGLE_UNIT ( ) SI_UNIT ( $, .RADIAN. ) );
#16 = EDGE_CURVE ( 'NONE', #224, #322, #310, .T. ) ;
#17 = CARTESIAN_POINT ( 'NONE',  ( -6.123233995736772199E-17, 3.000000000000000444, 0.000000000000000000 ) ) ;
#18 = CARTESIAN_POINT ( 'NONE',  ( 0.000000000000000000, 1.250000000000000000, -0.1249999999999998473 ) ) ;
#19 = EDGE_CURVE ( 'NONE', #180, #259, #98, .T. ) ;
#20 = AXIS2_PLACEMENT_3D ( 'NONE', #32, #148, #34 ) ;
#21 =( CONVERSION_BASED_UNIT ( 'INCH', #83 ) LENGTH_UNIT ( ) NAMED_UNIT ( #7 ) );
#22 = EDGE_LOOP ( 'NONE', ( #28, #294 ) ) ;
#23 = SURFACE_SIDE_STYLE ('',( #26 ) ) ;
#24 = ORIENTED_EDGE ( 'NONE', *, *, #19, .T. ) ;
#25 = EDGE_LOOP ( 'NONE', ( #86, #371, #319, #139 ) ) ;
#26 = SURFACE_STYLE_FILL_AREA ( #85 ) ;
#27 = AXIS2_PLACEMENT_3D ( 'NONE', #71, #235, #154 ) ;
#28 = ORIENTED_EDGE ( 'NONE', *, *, #141, .T. ) ;
#29 = AXIS2_PLACEMENT_3D ( 'NONE', #171, #196, #369 ) ;
#30 = CARTESIAN_POINT ( 'NONE',  ( 0.000000000000000000, 0.000000000000000000, 0.000000000000000000 ) ) ;
#31 = PLANE ( 'NONE',  #205 ) ;
#32 = CARTESIAN_POINT ( 'NONE',  ( 0.000000000000000000, 0.1249999999999999029, 0.000000000000000000 ) ) ;
#33 = DIRECTION ( 'NONE',  ( -1.000000000000000000, 0.000000000000000000, 0.000000000000000000 ) ) ;
#34 = DIRECTION ( 'NONE',  ( 0.000000000000000000, 0.000000000000000000, -1.000000000000000000 ) ) ;
#35 = DIRECTION ( 'NONE',  ( -1.000000000000000000, -1.574545884618025728E-16, 0.000000000000000000 ) ) ;
#36 = CARTESIAN_POINT ( 'NONE',  ( 2.143131898507868297E-16, 1.250000000000000000, 0.000000000000000000 ) ) ;
#37 = CIRCLE ( 'NONE', #113, 0.1249999999999998473 ) ;
#38 =( CONVERSION_BASED_UNIT ( 'INCH', #214 ) LENGTH_UNIT ( ) NAMED_UNIT ( #146 ) );
#39 = FACE_OUTER_BOUND ( 'NONE', #197, .T. ) ;
#40 = DIRECTION ( 'NONE',  ( -0.000000000000000000, -1.000000000000000000, -0.000000000000000000 ) ) ;
#41 = VECTOR ( 'NONE', #40, 39.37007874015748143 ) ;
#42 = ADVANCED_FACE ( 'NONE', ( #329 ), #245, .T. ) ;
#43 = MECHANICAL_DESIGN_GEOMETRIC_PRESENTATION_REPRESENTATION (  '', ( #312 ), #183 ) ;
#44 = DIRECTION ( 'NONE',  ( 1.000000000000000000, 1.574545884618025728E-16, 0.000000000000000000 ) ) ;
#45 = DIRECTION ( 'NONE',  ( -0.000000000000000000, -1.000000000000000000, -0.000000000000000000 ) ) ;
#46 = EDGE_CURVE ( 'NONE', #136, #372, #190, .T. ) ;
#47 =( LENGTH_UNIT ( ) NAMED_UNIT ( * ) SI_UNIT ( $, .METRE. ) );
#48 = APPLICATION_CONTEXT ( 'automotive_design' ) ;
#49 = PLANE ( 'NONE',  #262 ) ;
#50 = FILL_AREA_STYLE_COLOUR ( '', #229 ) ;
#51 = EDGE_LOOP ( 'NONE', ( #1, #344, #108, #60, #315 ) ) ;
#52 =( GEOMETRIC_REPRESENTATION_CONTEXT ( 3 ) GLOBAL_UNCERTAINTY_ASSIGNED_CONTEXT ( ( #176 ) ) GLOBAL_UNIT_ASSIGNED_CONTEXT ( ( #343, #263, #291 ) ) REPRESENTATION_CONTEXT ( 'NONE', 'WORKASPACE' ) );
#53 =( LENGTH_UNIT ( ) NAMED_UNIT ( * ) SI_UNIT ( $, .METRE. ) );
#54 = ORIENTED_EDGE ( 'NONE', *, *, #359, .F. ) ;
#55 = PRODUCT_CONTEXT ( 'NONE', #99, 'mechanical' ) ;
#56 = FILL_AREA_STYLE_COLOUR ( '', #222 ) ;
#57 = ORIENTED_EDGE ( 'NONE', *, *, #170, .T. ) ;
#58 = DIMENSIONAL_EXPONENTS ( 1.000000000000000000, 0.000000000000000000, 0.000000000000000000, 0.000000000000000000, 0.000000000000000000, 0.000000000000000000, 0.000000000000000000 ) ;
#59 = SPHERICAL_SURFACE ( 'NONE', #282, 0.1249999999999999029 ) ;
#60 = ORIENTED_EDGE ( 'NONE', *, *, #46, .F. ) ;
#61 = FACE_OUTER_BOUND ( 'NONE', #25, .T. ) ;
#62 = CIRCLE ( 'NONE', #200, 0.1249999999999999029 ) ;
#63 = UNCERTAINTY_MEASURE_WITH_UNIT (LENGTH_MEASURE( 1.000000000000000082E-05 ), #326, 'distance_accuracy_value', 'NONE');
#64 = EDGE_CURVE ( 'NONE', #322, #144, #361, .T. ) ;
#65 = CYLINDRICAL_SURFACE ( 'NONE', #277, 0.1249999999999997918 ) ;
#66 =( NAMED_UNIT ( * ) PLANE_ANGLE_UNIT ( ) SI_UNIT ( $, .RADIAN. ) );
#67 = CARTESIAN_POINT ( 'NONE',  ( -6.123233995736772199E-17, 3.000000000000000444, 0.000000000000000000 ) ) ;
#68 = AXIS2_PLACEMENT_3D ( 'NONE', #366, #306, #44 ) ;
#69 =( NAMED_UNIT ( * ) SI_UNIT ( $, .STERADIAN. ) SOLID_ANGLE_UNIT ( ) );
#70 = PRODUCT ( '59438', '59438', '', ( #55 ) ) ;
#71 = CARTESIAN_POINT ( 'NONE',  ( 0.000000000000000000, 0.1249999999999999029, 0.000000000000000000 ) ) ;
#72 = DIRECTION ( 'NONE',  ( 1.000000000000000000, 0.000000000000000000, 0.000000000000000000 ) ) ;
#73 = PRESENTATION_STYLE_ASSIGNMENT (( #251 ) ) ;
#74 = CIRCLE ( 'NONE', #164, 0.1249999999999999445 ) ;
#75 = EDGE_CURVE ( 'NONE', #180, #82, #91, .T. ) ;
#76 = EDGE_CURVE ( 'NONE', #322, #224, #323, .T. ) ;
#77 =( NAMED_UNIT ( * ) PLANE_ANGLE_UNIT ( ) SI_UNIT ( $, .RADIAN. ) );
#78 = DIRECTION ( 'NONE',  ( 1.000000000000000000, 0.000000000000000000, 0.000000000000000000 ) ) ;
#79 = FILL_AREA_STYLE ('',( #341 ) ) ;
#80 = DIRECTION ( 'NONE',  ( 0.000000000000000000, 0.000000000000000000, 1.000000000000000000 ) ) ;
#81 = SURFACE_STYLE_USAGE ( .BOTH. , #320 ) ;
#82 = VERTEX_POINT ( 'NONE', #297 ) ;
#83 = LENGTH_MEASURE_WITH_UNIT ( LENGTH_MEASURE( 0.02539999999999999897 ), #53 );
#84 = EDGE_LOOP ( 'NONE', ( #293, #257, #233, #203 ) ) ;
#85 = FILL_AREA_STYLE ('',( #50 ) ) ;
#86 = ORIENTED_EDGE ( 'NONE', *, *, #111, .T. ) ;
#87 = PRESENTATION_STYLE_ASSIGNMENT (( #284 ) ) ;
#88 = ORIENTED_EDGE ( 'NONE', *, *, #76, .F. ) ;
#89 = SURFACE_STYLE_USAGE ( .BOTH. , #272 ) ;
#90 = PRESENTATION_LAYER_ASSIGNMENT (  '', '', ( #158 ) ) ;
#91 = LINE ( 'NONE', #303, #41 ) ;
#92 = UNCERTAINTY_MEASURE_WITH_UNIT (LENGTH_MEASURE( 1.000000000000000082E-05 ), #21, 'distance_accuracy_value', 'NONE');
#93 =( NAMED_UNIT ( * ) PLANE_ANGLE_UNIT ( ) SI_UNIT ( $, .RADIAN. ) );
#94 = CARTESIAN_POINT ( 'NONE',  ( 0.000000000000000000, 1.250000000000000000, 0.000000000000000000 ) ) ;
#95 =( NAMED_UNIT ( * ) PLANE_ANGLE_UNIT ( ) SI_UNIT ( $, .RADIAN. ) );
#96 = CIRCLE ( 'NONE', #368, 0.1249999999999999029 ) ;
#97 = CARTESIAN_POINT ( 'NONE',  ( 0.1249999999999998473, 1.250000000000000000, 1.530808498934189660E-17 ) ) ;
#98 = CIRCLE ( 'NONE', #10, 0.1249999999999998473 ) ;
#99 = APPLICATION_CONTEXT ( 'automotive_design' ) ;
#100 = STYLED_ITEM ( 'NONE', ( #87 ), #290 ) ;
#101 = FILL_AREA_STYLE ('',( #13 ) ) ;
#102 = DIRECTION ( 'NONE',  ( -1.574545884618025728E-16, 1.000000000000000000, -0.000000000000000000 ) ) ;
#103 = PLANE ( 'NONE',  #68 ) ;
#104 = COLOUR_RGB ( '',1.000000000000000000, 0.000000000000000000, 0.000000000000000000 ) ;
#105 = AXIS2_PLACEMENT_3D ( 'NONE', #336, #102, #219 ) ;
#106 = ORIENTED_EDGE ( 'NONE', *, *, #46, .T. ) ;
#107 = SURFACE_SIDE_STYLE ('',( #168 ) ) ;
#108 = ORIENTED_EDGE ( 'NONE', *, *, #239, .F. ) ;
#109 = DIMENSIONAL_EXPONENTS ( 1.000000000000000000, 0.000000000000000000, 0.000000000000000000, 0.000000000000000000, 0.000000000000000000, 0.000000000000000000, 0.000000000000000000 ) ;
#110 = PRESENTATION_STYLE_ASSIGNMENT (( #260 ) ) ;
#111 = EDGE_CURVE ( 'NONE', #82, #254, #221, .T. ) ;
#112 = EDGE_CURVE ( 'NONE', #254, #136, #62, .T. ) ;
#113 = AXIS2_PLACEMENT_3D ( 'NONE', #166, #45, #305 ) ;
#114 =( LENGTH_UNIT ( ) NAMED_UNIT ( * ) SI_UNIT ( $, .METRE. ) );
#115 = MECHANICAL_DESIGN_GEOMETRIC_PRESENTATION_REPRESENTATION (  '', ( #158 ), #216 ) ;
#116 = CARTESIAN_POINT ( 'NONE',  ( -1.530808498934190893E-17, 0.1249999999999999029, 0.000000000000000000 ) ) ;
#117 = DIMENSIONAL_EXPONENTS ( 1.000000000000000000, 0.000000000000000000, 0.000000000000000000, 0.000000000000000000, 0.000000000000000000, 0.000000000000000000, 0.000000000000000000 ) ;
#118 = FACE_OUTER_BOUND ( 'NONE', #51, .T. ) ;
#119 = DIRECTION ( 'NONE',  ( 0.000000000000000000, 1.000000000000000000, 0.000000000000000000 ) ) ;
#120 = DIRECTION ( 'NONE',  ( -1.000000000000000000, 0.000000000000000000, 0.000000000000000000 ) ) ;
#121 = CIRCLE ( 'NONE', #105, 0.1249999999999999445 ) ;
#122 = DIRECTION ( 'NONE',  ( -1.574545884618025728E-16, 1.000000000000000000, 0.000000000000000000 ) ) ;
#123 = DIRECTION ( 'NONE',  ( -1.000000000000000000, 0.000000000000000000, 0.000000000000000000 ) ) ;
#124 = PRODUCT_RELATED_PRODUCT_CATEGORY ( 'part', '', ( #70 ) ) ;
#125 =( CONVERSION_BASED_UNIT ( 'INCH', #242 ) LENGTH_UNIT ( ) NAMED_UNIT ( #109 ) );
#126 = DIRECTION ( 'NONE',  ( 0.000000000000000000, 0.000000000000000000, -1.000000000000000000 ) ) ;
#127 = AXIS2_PLACEMENT_3D ( 'NONE', #296, #356, #234 ) ;
#128 = CARTESIAN_POINT ( 'NONE',  ( -0.1250000000000000278, 3.000000000000000444, 0.000000000000000000 ) ) ;
#129 = SURFACE_SIDE_STYLE ('',( #311 ) ) ;
#130 = ADVANCED_FACE ( 'NONE', ( #118 ), #351, .T. ) ;
#131 = ORIENTED_EDGE ( 'NONE', *, *, #64, .T. ) ;
#132 =( LENGTH_UNIT ( ) NAMED_UNIT ( * ) SI_UNIT ( $, .METRE. ) );
#133 = AXIS2_PLACEMENT_3D ( 'NONE', #248, #339, #11 ) ;
#134 = PRESENTATION_STYLE_ASSIGNMENT (( #160 ) ) ;
#135 =( NAMED_UNIT ( * ) SI_UNIT ( $, .STERADIAN. ) SOLID_ANGLE_UNIT ( ) );
#136 = VERTEX_POINT ( 'NONE', #309 ) ;
#137 = VECTOR ( 'NONE', #186, 39.37007874015748143 ) ;
#138 =( NAMED_UNIT ( * ) PLANE_ANGLE_UNIT ( ) SI_UNIT ( $, .RADIAN. ) );
#139 = ORIENTED_EDGE ( 'NONE', *, *, #239, .T. ) ;
#140 = DIMENSIONAL_EXPONENTS ( 1.000000000000000000, 0.000000000000000000, 0.000000000000000000, 0.000000000000000000, 0.000000000000000000, 0.000000000000000000, 0.000000000000000000 ) ;
#141 = EDGE_CURVE ( 'NONE', #144, #317, #121, .T. ) ;
#142 = ORIENTED_EDGE ( 'NONE', *, *, #16, .T. ) ;
#143 = VERTEX_POINT ( 'NONE', #364 ) ;
#144 = VERTEX_POINT ( 'NONE', #128 ) ;
#145 = DIRECTION ( 'NONE',  ( 0.000000000000000000, 0.000000000000000000, 1.000000000000000000 ) ) ;
#146 = DIMENSIONAL_EXPONENTS ( 1.000000000000000000, 0.000000000000000000, 0.000000000000000000, 0.000000000000000000, 0.000000000000000000, 0.000000000000000000, 0.000000000000000000 ) ;
#147 = DIRECTION ( 'NONE',  ( -1.574545884618025728E-16, 1.000000000000000000, -0.000000000000000000 ) ) ;
#148 = DIRECTION ( 'NONE',  ( -0.000000000000000000, -1.000000000000000000, -0.000000000000000000 ) ) ;
#149 = APPLICATION_PROTOCOL_DEFINITION ( 'draft international standard', 'automotive_design', 1998, #99 ) ;
#150 = FILL_AREA_STYLE_COLOUR ( '', #104 ) ;
#151 = APPLICATION_PROTOCOL_DEFINITION ( 'draft international standard', 'automotive_design', 1998, #48 ) ;
#152 = FACE_OUTER_BOUND ( 'NONE', #202, .T. ) ;
#153 = VECTOR ( 'NONE', #162, 39.37007874015748143 ) ;
#154 = DIRECTION ( 'NONE',  ( 0.000000000000000000, 0.000000000000000000, -1.000000000000000000 ) ) ;
#155 = DIRECTION ( 'NONE',  ( 0.000000000000000000, 0.000000000000000000, -1.000000000000000000 ) ) ;
#156 = SURFACE_STYLE_USAGE ( .BOTH. , #207 ) ;
#157 = DIRECTION ( 'NONE',  ( -1.574545884618025728E-16, 1.000000000000000000, -0.000000000000000000 ) ) ;
#158 = STYLED_ITEM ( 'NONE', ( #73 ), #130 ) ;
#159 = STYLED_ITEM ( 'NONE', ( #181 ), #370 ) ;
#160 = SURFACE_STYLE_USAGE ( .BOTH. , #129 ) ;
#161 = UNCERTAINTY_MEASURE_WITH_UNIT (LENGTH_MEASURE( 1.000000000000000082E-05 ), #125, 'distance_accuracy_value', 'NONE');
#162 = DIRECTION ( 'NONE',  ( -0.000000000000000000, -1.000000000000000000, -0.000000000000000000 ) ) ;
#163 =( GEOMETRIC_REPRESENTATION_CONTEXT ( 3 ) GLOBAL_UNCERTAINTY_ASSIGNED_CONTEXT ( ( #63 ) ) GLOBAL_UNIT_ASSIGNED_CONTEXT ( ( #326, #66, #273 ) ) REPRESENTATION_CONTEXT ( 'NONE', 'WORKASPACE' ) );
#164 = AXIS2_PLACEMENT_3D ( 'NONE', #17, #187, #367 ) ;
#165 = AXIS2_PLACEMENT_3D ( 'NONE', #30, #145, #373 ) ;
#166 = CARTESIAN_POINT ( 'NONE',  ( 0.000000000000000000, 1.250000000000000000, 0.000000000000000000 ) ) ;
#167 = SURFACE_STYLE_FILL_AREA ( #287 ) ;
#168 = SURFACE_STYLE_FILL_AREA ( #79 ) ;
#169 = ORIENTED_EDGE ( 'NONE', *, *, #112, .F. ) ;
#170 = EDGE_CURVE ( 'NONE', #259, #136, #279, .T. ) ;
#171 = CARTESIAN_POINT ( 'NONE',  ( 0.000000000000000000, 0.1249999999999999029, 0.000000000000000000 ) ) ;
#172 = ORIENTED_EDGE ( 'NONE', *, *, #308, .F. ) ;
#173 = SHAPE_DEFINITION_REPRESENTATION ( #188, #210 ) ;
#174 = ORIENTED_EDGE ( 'NONE', *, *, #16, .F. ) ;
#175 =( NAMED_UNIT ( * ) SI_UNIT ( $, .STERADIAN. ) SOLID_ANGLE_UNIT ( ) );
#176 = UNCERTAINTY_MEASURE_WITH_UNIT (LENGTH_MEASURE( 1.000000000000000082E-05 ), #343, 'distance_accuracy_value', 'NONE');
#177 = AXIS2_PLACEMENT_3D ( 'NONE', #36, #271, #120 ) ;
#178 = MECHANICAL_DESIGN_GEOMETRIC_PRESENTATION_REPRESENTATION (  '', ( #159 ), #353 ) ;
#179 = FILL_AREA_STYLE_COLOUR ( '', #340 ) ;
#180 = VERTEX_POINT ( 'NONE', #189 ) ;
#181 = PRESENTATION_STYLE_ASSIGNMENT (( #89 ) ) ;
#182 = FILL_AREA_STYLE_COLOUR ( '', #194 ) ;
#183 =( GEOMETRIC_REPRESENTATION_CONTEXT ( 3 ) GLOBAL_UNCERTAINTY_ASSIGNED_CONTEXT ( ( #236 ) ) GLOBAL_UNIT_ASSIGNED_CONTEXT ( ( #218, #77, #135 ) ) REPRESENTATION_CONTEXT ( 'NONE', 'WORKASPACE' ) );
#184 = DIRECTION ( 'NONE',  ( -1.574545884618025728E-16, 1.000000000000000000, -0.000000000000000000 ) ) ;
#185 = FACE_OUTER_BOUND ( 'NONE', #348, .T. ) ;
#186 = DIRECTION ( 'NONE',  ( -1.574545884618025728E-16, 1.000000000000000000, -0.000000000000000000 ) ) ;
#187 = DIRECTION ( 'NONE',  ( -1.574545884618025728E-16, 1.000000000000000000, -0.000000000000000000 ) ) ;
#188 = PRODUCT_DEFINITION_SHAPE ( 'NONE', 'NONE',  #332 ) ;
#189 = CARTESIAN_POINT ( 'NONE',  ( 1.530808498934189660E-17, 1.250000000000000000, 0.1249999999999998473 ) ) ;
#190 = CIRCLE ( 'NONE', #27, 0.1249999999999999029 ) ;
#191 = AXIS2_PLACEMENT_3D ( 'NONE', #285, #80, #72 ) ;
#192 = LENGTH_MEASURE_WITH_UNIT ( LENGTH_MEASURE( 0.02539999999999999897 ), #47 );
#193 = EDGE_CURVE ( 'NONE', #317, #144, #74, .T. ) ;
#194 = COLOUR_RGB ( '',1.000000000000000000, 0.000000000000000000, 0.000000000000000000 ) ;
#195 = CARTESIAN_POINT ( 'NONE',  ( -0.1249999999999999029, 0.1249999999999999029, 1.530808498934189968E-17 ) ) ;
#196 = DIRECTION ( 'NONE',  ( -0.000000000000000000, -1.000000000000000000, -0.000000000000000000 ) ) ;
#197 = EDGE_LOOP ( 'NONE', ( #346, #24, #57, #169, #252 ) ) ;
#198 = CARTESIAN_POINT ( 'NONE',  ( 0.1249999999999999029, 0.1249999999999999029, 0.000000000000000000 ) ) ;
#199 = ADVANCED_FACE ( 'NONE', ( #220 ), #103, .F. ) ;
#200 = AXIS2_PLACEMENT_3D ( 'NONE', #265, #267, #4 ) ;
#201 = COLOUR_RGB ( '',0.7921568627450980005, 0.8196078431372548767, 0.9333333333333333481 ) ;
#202 = EDGE_LOOP ( 'NONE', ( #172, #142, #131, #228 ) ) ;
#203 = ORIENTED_EDGE ( 'NONE', *, *, #64, .F. ) ;
#204 = LENGTH_MEASURE_WITH_UNIT ( LENGTH_MEASURE( 0.02539999999999999897 ), #304 );
#205 = AXIS2_PLACEMENT_3D ( 'NONE', #325, #122, #35 ) ;
#206 = CARTESIAN_POINT ( 'NONE',  ( 0.000000000000000000, 1.250000000000000000, 0.000000000000000000 ) ) ;
#207 = SURFACE_SIDE_STYLE ('',( #276 ) ) ;
#208 =( LENGTH_UNIT ( ) NAMED_UNIT ( * ) SI_UNIT ( $, .METRE. ) );
#209 = EDGE_CURVE ( 'NONE', #259, #180, #37, .T. ) ;
#210 = ADVANCED_BREP_SHAPE_REPRESENTATION ( '59438', ( #231, #226, #165 ), #230 ) ;
#211 = SURFACE_STYLE_FILL_AREA ( #331 ) ;
#212 =( LENGTH_UNIT ( ) NAMED_UNIT ( * ) SI_UNIT ( $, .METRE. ) );
#213 = CLOSED_SHELL ( 'NONE', ( #370, #130, #290, #8, #246 ) ) ;
#214 = LENGTH_MEASURE_WITH_UNIT ( LENGTH_MEASURE( 0.02539999999999999897 ), #208 );
#215 = MECHANICAL_DESIGN_GEOMETRIC_PRESENTATION_REPRESENTATION (  '', ( #100 ), #318 ) ;
#216 =( GEOMETRIC_REPRESENTATION_CONTEXT ( 3 ) GLOBAL_UNCERTAINTY_ASSIGNED_CONTEXT ( ( #349 ) ) GLOBAL_UNIT_ASSIGNED_CONTEXT ( ( #249, #15, #362 ) ) REPRESENTATION_CONTEXT ( 'NONE', 'WORKASPACE' ) );
#217 = DIRECTION ( 'NONE',  ( -1.000000000000000000, 0.000000000000000000, 0.000000000000000000 ) ) ;
#218 =( CONVERSION_BASED_UNIT ( 'INCH', #192 ) LENGTH_UNIT ( ) NAMED_UNIT ( #289 ) );
#219 = DIRECTION ( 'NONE',  ( -1.000000000000000000, 0.000000000000000000, 0.000000000000000000 ) ) ;
#220 = FACE_OUTER_BOUND ( 'NONE', #22, .T. ) ;
#221 = CIRCLE ( 'NONE', #20, 0.1249999999999999029 ) ;
#222 = COLOUR_RGB ( '',0.7921568627450980005, 0.8196078431372548767, 0.9333333333333333481 ) ;
#223 =( NAMED_UNIT ( * ) SI_UNIT ( $, .STERADIAN. ) SOLID_ANGLE_UNIT ( ) );
#224 = VERTEX_POINT ( 'NONE', #97 ) ;
#225 = DIMENSIONAL_EXPONENTS ( 1.000000000000000000, 0.000000000000000000, 0.000000000000000000, 0.000000000000000000, 0.000000000000000000, 0.000000000000000000, 0.000000000000000000 ) ;
#226 = MANIFOLD_SOLID_BREP ( 'Revolve - Tool Body (Straight Shanked)', #280 ) ;
#227 = LENGTH_MEASURE_WITH_UNIT ( LENGTH_MEASURE( 0.02539999999999999897 ), #114 );
#228 = ORIENTED_EDGE ( 'NONE', *, *, #193, .F. ) ;
#229 = COLOUR_RGB ( '',1.000000000000000000, 0.000000000000000000, 0.000000000000000000 ) ;
#230 =( GEOMETRIC_REPRESENTATION_CONTEXT ( 3 ) GLOBAL_UNCERTAINTY_ASSIGNED_CONTEXT ( ( #338 ) ) GLOBAL_UNIT_ASSIGNED_CONTEXT ( ( #347, #342, #175 ) ) REPRESENTATION_CONTEXT ( 'NONE', 'WORKASPACE' ) );
#231 = MANIFOLD_SOLID_BREP ( 'Revolve - Cutting Edge', #213 ) ;
#232 = DIRECTION ( 'NONE',  ( 0.000000000000000000, 0.000000000000000000, 1.000000000000000000 ) ) ;
#233 = ORIENTED_EDGE ( 'NONE', *, *, #141, .F. ) ;
#234 = DIRECTION ( 'NONE',  ( 1.000000000000000000, 0.000000000000000000, -1.224646799147353207E-16 ) ) ;
#235 = DIRECTION ( 'NONE',  ( -0.000000000000000000, -1.000000000000000000, -0.000000000000000000 ) ) ;
#236 = UNCERTAINTY_MEASURE_WITH_UNIT (LENGTH_MEASURE( 1.000000000000000082E-05 ), #218, 'distance_accuracy_value', 'NONE');
#237 = CARTESIAN_POINT ( 'NONE',  ( 0.1249999999999997224, 3.000000000000000444, 1.530808498934189044E-17 ) ) ;
#238 = SURFACE_STYLE_FILL_AREA ( #5 ) ;
#239 = EDGE_CURVE ( 'NONE', #372, #82, #286, .T. ) ;
#240 = DIRECTION ( 'NONE',  ( -1.000000000000000000, 0.000000000000000000, 0.000000000000000000 ) ) ;
#241 = CARTESIAN_POINT ( 'NONE',  ( 0.000000000000000000, 0.000000000000000000, 0.000000000000000000 ) ) ;
#242 = LENGTH_MEASURE_WITH_UNIT ( LENGTH_MEASURE( 0.02539999999999999897 ), #266 );
#243 = CARTESIAN_POINT ( 'NONE',  ( -0.1249999999999998612, 3.000000000000000444, 0.000000000000000000 ) ) ;
#244 = COLOUR_RGB ( '',1.000000000000000000, 0.000000000000000000, 0.000000000000000000 ) ;
#245 = CYLINDRICAL_SURFACE ( 'NONE', #316, 0.1249999999999997918 ) ;
#246 = ADVANCED_FACE ( 'NONE', ( #253 ), #59, .T. ) ;
#247 =( NAMED_UNIT ( * ) SI_UNIT ( $, .STERADIAN. ) SOLID_ANGLE_UNIT ( ) );
#248 = CARTESIAN_POINT ( 'NONE',  ( 0.000000000000000000, 0.000000000000000000, 0.000000000000000000 ) ) ;
#249 =( CONVERSION_BASED_UNIT ( 'INCH', #278 ) LENGTH_UNIT ( ) NAMED_UNIT ( #117 ) );
#250 = STYLED_ITEM ( 'NONE', ( #258 ), #231 ) ;
#251 = SURFACE_STYLE_USAGE ( .BOTH. , #355 ) ;
#252 = ORIENTED_EDGE ( 'NONE', *, *, #111, .F. ) ;
#253 = FACE_OUTER_BOUND ( 'NONE', #288, .T. ) ;
#254 = VERTEX_POINT ( 'NONE', #195 ) ;
#255 = SPHERICAL_SURFACE ( 'NONE', #191, 0.1249999999999999029 ) ;
#256 = PRESENTATION_LAYER_ASSIGNMENT (  '', '', ( #159 ) ) ;
#257 = ORIENTED_EDGE ( 'NONE', *, *, #308, .T. ) ;
#258 = PRESENTATION_STYLE_ASSIGNMENT (( #81 ) ) ;
#259 = VERTEX_POINT ( 'NONE', #18 ) ;
#260 = SURFACE_STYLE_USAGE ( .BOTH. , #23 ) ;
#261 = ORIENTED_EDGE ( 'NONE', *, *, #314, .T. ) ;
#262 = AXIS2_PLACEMENT_3D ( 'NONE', #206, #119, #350 ) ;
#263 =( NAMED_UNIT ( * ) PLANE_ANGLE_UNIT ( ) SI_UNIT ( $, .RADIAN. ) );
#264 = EDGE_LOOP ( 'NONE', ( #3, #12 ) ) ;
#265 = CARTESIAN_POINT ( 'NONE',  ( 0.000000000000000000, 0.1249999999999999029, 0.000000000000000000 ) ) ;
#266 =( LENGTH_UNIT ( ) NAMED_UNIT ( * ) SI_UNIT ( $, .METRE. ) );
#267 = DIRECTION ( 'NONE',  ( -0.000000000000000000, -1.000000000000000000, -0.000000000000000000 ) ) ;
#268 = MECHANICAL_DESIGN_GEOMETRIC_PRESENTATION_REPRESENTATION (  '', ( #283 ), #163 ) ;
#269 = STYLED_ITEM ( 'NONE', ( #110 ), #246 ) ;
#270 = DIRECTION ( 'NONE',  ( -1.574545884618025728E-16, 1.000000000000000000, -0.000000000000000000 ) ) ;
#271 = DIRECTION ( 'NONE',  ( -1.574545884618025728E-16, 1.000000000000000000, -0.000000000000000000 ) ) ;
#272 = SURFACE_SIDE_STYLE ('',( #211 ) ) ;
#273 =( NAMED_UNIT ( * ) SI_UNIT ( $, .STERADIAN. ) SOLID_ANGLE_UNIT ( ) );
#274 = CARTESIAN_POINT ( 'NONE',  ( 0.1249999999999998751, 3.000000000000000444, 1.530808498934189968E-17 ) ) ;
#275 = PRODUCT_DEFINITION_CONTEXT ( 'detailed design', #48, 'design' ) ;
#276 = SURFACE_STYLE_FILL_AREA ( #328 ) ;
#277 = AXIS2_PLACEMENT_3D ( 'NONE', #327, #270, #240 ) ;
#278 = LENGTH_MEASURE_WITH_UNIT ( LENGTH_MEASURE( 0.02539999999999999897 ), #132 );
#279 = LINE ( 'NONE', #281, #153 ) ;
#280 = CLOSED_SHELL ( 'NONE', ( #42, #292, #358, #199 ) ) ;
#281 = CARTESIAN_POINT ( 'NONE',  ( 0.000000000000000000, 0.000000000000000000, -0.1249999999999998612 ) ) ;
#282 = AXIS2_PLACEMENT_3D ( 'NONE', #116, #232, #78 ) ;
#283 = STYLED_ITEM ( 'NONE', ( #301 ), #8 ) ;
#284 = SURFACE_STYLE_USAGE ( .BOTH. , #107 ) ;
#285 = CARTESIAN_POINT ( 'NONE',  ( -1.530808498934190893E-17, 0.1249999999999999029, 0.000000000000000000 ) ) ;
#286 = CIRCLE ( 'NONE', #29, 0.1249999999999999029 ) ;
#287 = FILL_AREA_STYLE ('',( #56 ) ) ;
#288 = EDGE_LOOP ( 'NONE', ( #54, #307, #106, #261 ) ) ;
#289 = DIMENSIONAL_EXPONENTS ( 1.000000000000000000, 0.000000000000000000, 0.000000000000000000, 0.000000000000000000, 0.000000000000000000, 0.000000000000000000, 0.000000000000000000 ) ;
#290 = ADVANCED_FACE ( 'NONE', ( #313 ), #49, .T. ) ;
#291 =( NAMED_UNIT ( * ) SI_UNIT ( $, .STERADIAN. ) SOLID_ANGLE_UNIT ( ) );
#292 = ADVANCED_FACE ( 'NONE', ( #185 ), #31, .F. ) ;
#293 = ORIENTED_EDGE ( 'NONE', *, *, #76, .T. ) ;
#294 = ORIENTED_EDGE ( 'NONE', *, *, #193, .T. ) ;
#295 = PRODUCT_DEFINITION_FORMATION_WITH_SPECIFIED_SOURCE ( 'ANY', '', #70, .NOT_KNOWN. ) ;
#296 = CARTESIAN_POINT ( 'NONE',  ( -1.530808498934190893E-17, 0.1249999999999999029, 0.000000000000000000 ) ) ;
#297 = CARTESIAN_POINT ( 'NONE',  ( 1.530808498934190276E-17, 0.1249999999999999029, 0.1249999999999999029 ) ) ;
#298 = DIRECTION ( 'NONE',  ( -0.000000000000000000, -1.000000000000000000, -0.000000000000000000 ) ) ;
#299 = DIRECTION ( 'NONE',  ( 0.000000000000000000, 0.000000000000000000, -1.000000000000000000 ) ) ;
#300 = VECTOR ( 'NONE', #147, 39.37007874015748143 ) ;
#301 = PRESENTATION_STYLE_ASSIGNMENT (( #156 ) ) ;
#302 = LINE ( 'NONE', #237, #300 ) ;
#303 = CARTESIAN_POINT ( 'NONE',  ( 1.530808498934189660E-17, 0.000000000000000000, 0.1249999999999998612 ) ) ;
#304 =( LENGTH_UNIT ( ) NAMED_UNIT ( * ) SI_UNIT ( $, .METRE. ) );
#305 = DIRECTION ( 'NONE',  ( 0.000000000000000000, 0.000000000000000000, -1.000000000000000000 ) ) ;
#306 = DIRECTION ( 'NONE',  ( 1.574545884618025728E-16, -1.000000000000000000, 0.000000000000000000 ) ) ;
#307 = ORIENTED_EDGE ( 'NONE', *, *, #112, .T. ) ;
#308 = EDGE_CURVE ( 'NONE', #224, #317, #302, .T. ) ;
#309 = CARTESIAN_POINT ( 'NONE',  ( 0.000000000000000000, 0.1249999999999999029, -0.1249999999999999029 ) ) ;
#310 = CIRCLE ( 'NONE', #177, 0.1249999999999996392 ) ;
#311 = SURFACE_STYLE_FILL_AREA ( #101 ) ;
#312 = STYLED_ITEM ( 'NONE', ( #134 ), #226 ) ;
#313 = FACE_OUTER_BOUND ( 'NONE', #264, .T. ) ;
#314 = EDGE_CURVE ( 'NONE', #372, #143, #96, .T. ) ;
#315 = ORIENTED_EDGE ( 'NONE', *, *, #170, .F. ) ;
#316 = AXIS2_PLACEMENT_3D ( 'NONE', #67, #184, #123 ) ;
#317 = VERTEX_POINT ( 'NONE', #274 ) ;
#318 =( GEOMETRIC_REPRESENTATION_CONTEXT ( 3 ) GLOBAL_UNCERTAINTY_ASSIGNED_CONTEXT ( ( #363 ) ) GLOBAL_UNIT_ASSIGNED_CONTEXT ( ( #38, #93, #69 ) ) REPRESENTATION_CONTEXT ( 'NONE', 'WORKASPACE' ) );
#319 = ORIENTED_EDGE ( 'NONE', *, *, #314, .F. ) ;
#320 = SURFACE_SIDE_STYLE ('',( #167 ) ) ;
#321 = CARTESIAN_POINT ( 'NONE',  ( -1.530808498934190893E-17, 0.1249999999999999029, 0.000000000000000000 ) ) ;
#322 = VERTEX_POINT ( 'NONE', #354 ) ;
#323 = CIRCLE ( 'NONE', #365, 0.1249999999999996392 ) ;
#324 = CIRCLE ( 'NONE', #127, 0.1249999999999999029 ) ;
#325 = CARTESIAN_POINT ( 'NONE',  ( 2.143131898507868297E-16, 1.250000000000000000, 0.000000000000000000 ) ) ;
#326 =( CONVERSION_BASED_UNIT ( 'INCH', #357 ) LENGTH_UNIT ( ) NAMED_UNIT ( #58 ) );
#327 = CARTESIAN_POINT ( 'NONE',  ( -6.123233995736772199E-17, 3.000000000000000444, 0.000000000000000000 ) ) ;
#328 = FILL_AREA_STYLE ('',( #182 ) ) ;
#329 = FACE_OUTER_BOUND ( 'NONE', #84, .T. ) ;
#330 = PRESENTATION_LAYER_ASSIGNMENT (  '', '', ( #269 ) ) ;
#331 = FILL_AREA_STYLE ('',( #179 ) ) ;
#332 = PRODUCT_DEFINITION ( 'UNKNOWN', '', #295, #275 ) ;
#333 = AXIS2_PLACEMENT_3D ( 'NONE', #241, #9, #126 ) ;
#334 = CYLINDRICAL_SURFACE ( 'NONE', #333, 0.1249999999999998612 ) ;
#335 = CARTESIAN_POINT ( 'NONE',  ( 2.143131898507868297E-16, 1.250000000000000000, 0.000000000000000000 ) ) ;
#336 = CARTESIAN_POINT ( 'NONE',  ( -6.123233995736772199E-17, 3.000000000000000444, 0.000000000000000000 ) ) ;
#337 = PRESENTATION_LAYER_ASSIGNMENT (  '', '', ( #250 ) ) ;
#338 = UNCERTAINTY_MEASURE_WITH_UNIT (LENGTH_MEASURE( 1.000000000000000082E-05 ), #347, 'distance_accuracy_value', 'NONE');
#339 = DIRECTION ( 'NONE',  ( -0.000000000000000000, -1.000000000000000000, -0.000000000000000000 ) ) ;
#340 = COLOUR_RGB ( '',1.000000000000000000, 0.000000000000000000, 0.000000000000000000 ) ;
#341 = FILL_AREA_STYLE_COLOUR ( '', #244 ) ;
#342 =( NAMED_UNIT ( * ) PLANE_ANGLE_UNIT ( ) SI_UNIT ( $, .RADIAN. ) );
#343 =( CONVERSION_BASED_UNIT ( 'INCH', #227 ) LENGTH_UNIT ( ) NAMED_UNIT ( #225 ) );
#344 = ORIENTED_EDGE ( 'NONE', *, *, #75, .T. ) ;
#345 = MECHANICAL_DESIGN_GEOMETRIC_PRESENTATION_REPRESENTATION (  '', ( #250 ), #360 ) ;
#346 = ORIENTED_EDGE ( 'NONE', *, *, #75, .F. ) ;
#347 =( CONVERSION_BASED_UNIT ( 'INCH', #204 ) LENGTH_UNIT ( ) NAMED_UNIT ( #140 ) );
#348 = EDGE_LOOP ( 'NONE', ( #88, #174 ) ) ;
#349 = UNCERTAINTY_MEASURE_WITH_UNIT (LENGTH_MEASURE( 1.000000000000000082E-05 ), #249, 'distance_accuracy_value', 'NONE');
#350 = DIRECTION ( 'NONE',  ( 0.000000000000000000, -0.000000000000000000, 1.000000000000000000 ) ) ;
#351 = CYLINDRICAL_SURFACE ( 'NONE', #133, 0.1249999999999998612 ) ;
#352 = PRESENTATION_LAYER_ASSIGNMENT (  '', '', ( #283 ) ) ;
#353 =( GEOMETRIC_REPRESENTATION_CONTEXT ( 3 ) GLOBAL_UNCERTAINTY_ASSIGNED_CONTEXT ( ( #161 ) ) GLOBAL_UNIT_ASSIGNED_CONTEXT ( ( #125, #95, #247 ) ) REPRESENTATION_CONTEXT ( 'NONE', 'WORKASPACE' ) );
#354 = CARTESIAN_POINT ( 'NONE',  ( -0.1249999999999994171, 1.250000000000000000, 0.000000000000000000 ) ) ;
#355 = SURFACE_SIDE_STYLE ('',( #238 ) ) ;
#356 = DIRECTION ( 'NONE',  ( 1.224646799147353207E-16, -0.000000000000000000, 1.000000000000000000 ) ) ;
#357 = LENGTH_MEASURE_WITH_UNIT ( LENGTH_MEASURE( 0.02539999999999999897 ), #212 );
#358 = ADVANCED_FACE ( 'NONE', ( #152 ), #65, .T. ) ;
#359 = EDGE_CURVE ( 'NONE', #254, #143, #324, .T. ) ;
#360 =( GEOMETRIC_REPRESENTATION_CONTEXT ( 3 ) GLOBAL_UNCERTAINTY_ASSIGNED_CONTEXT ( ( #92 ) ) GLOBAL_UNIT_ASSIGNED_CONTEXT ( ( #21, #138, #223 ) ) REPRESENTATION_CONTEXT ( 'NONE', 'WORKASPACE' ) );
#361 = LINE ( 'NONE', #243, #137 ) ;
#362 =( NAMED_UNIT ( * ) SI_UNIT ( $, .STERADIAN. ) SOLID_ANGLE_UNIT ( ) );
#363 = UNCERTAINTY_MEASURE_WITH_UNIT (LENGTH_MEASURE( 1.000000000000000082E-05 ), #38, 'distance_accuracy_value', 'NONE');
#364 = CARTESIAN_POINT ( 'NONE',  ( -7.654042494670956004E-18, 0.000000000000000000, 0.000000000000000000 ) ) ;
#365 = AXIS2_PLACEMENT_3D ( 'NONE', #335, #157, #217 ) ;
#366 = CARTESIAN_POINT ( 'NONE',  ( 0.1249999999999998751, 3.000000000000000444, 0.000000000000000000 ) ) ;
#367 = DIRECTION ( 'NONE',  ( -1.000000000000000000, 0.000000000000000000, 0.000000000000000000 ) ) ;
#368 = AXIS2_PLACEMENT_3D ( 'NONE', #321, #155, #33 ) ;
#369 = DIRECTION ( 'NONE',  ( 0.000000000000000000, 0.000000000000000000, -1.000000000000000000 ) ) ;
#370 = ADVANCED_FACE ( 'NONE', ( #61 ), #255, .T. ) ;
#371 = ORIENTED_EDGE ( 'NONE', *, *, #359, .T. ) ;
#372 = VERTEX_POINT ( 'NONE', #198 ) ;
#373 = DIRECTION ( 'NONE',  ( 1.000000000000000000, 0.000000000000000000, 0.000000000000000000 ) ) ;
ENDSEC;
END-ISO-10303-21;
