ISO-10303-21;
HEADER;
FILE_DESCRIPTION (( 'STEP AP214' ),
    '1' );
FILE_NAME ('84780.STEP',
    '2023-07-05T16:25:53',
    ( '' ),
    ( '' ),
    'SwSTEP 2.0',
    'SolidWorks 2023',
    '' );
FILE_SCHEMA (( 'AUTOMOTIVE_DESIGN' ));
ENDSEC;

DATA;
#1 = CARTESIAN_POINT ( 'NONE',  ( 0.3124999999999999445, 0.5412658773652724298, 3.827021247335477694E-17 ) ) ;
#2 = ORIENTED_EDGE ( 'NONE', *, *, #87, .T. ) ;
#3 = SURFACE_STYLE_FILL_AREA ( #22 ) ;
#4 = VERTEX_POINT ( 'NONE', #207 ) ;
#5 = SURFACE_STYLE_USAGE ( .BOTH. , #82 ) ;
#6 = AXIS2_PLACEMENT_3D ( 'NONE', #8, #26, #48 ) ;
#7 = CARTESIAN_POINT ( 'NONE',  ( 0.000000000000000000, 0.5412658773652724298, 0.3124999999999998890 ) ) ;
#8 = CARTESIAN_POINT ( 'NONE',  ( 0.000000000000000000, 0.000000000000000000, 0.000000000000000000 ) ) ;
#9 = PRESENTATION_STYLE_ASSIGNMENT (( #92 ) ) ;
#10 = APPLICATION_CONTEXT ( 'automotive_design' ) ;
#11 = STYLED_ITEM ( 'NONE', ( #145 ), #258 ) ;
#12 = DIRECTION ( 'NONE',  ( 0.000000000000000000, 1.000000000000000000, 0.000000000000000000 ) ) ;
#13 = EDGE_CURVE ( 'NONE', #182, #122, #212, .T. ) ;
#14 =( GEOMETRIC_REPRESENTATION_CONTEXT ( 3 ) GLOBAL_UNCERTAINTY_ASSIGNED_CONTEXT ( ( #186 ) ) GLOBAL_UNIT_ASSIGNED_CONTEXT ( ( #109, #111, #151 ) ) REPRESENTATION_CONTEXT ( 'NONE', 'WORKASPACE' ) );
#15 = ORIENTED_EDGE ( 'NONE', *, *, #130, .F. ) ;
#16 = ORIENTED_EDGE ( 'NONE', *, *, #117, .T. ) ;
#17 = LENGTH_MEASURE_WITH_UNIT ( LENGTH_MEASURE( 0.02539999999999999897 ), #229 );
#18 = AXIS2_PLACEMENT_3D ( 'NONE', #179, #34, #175 ) ;
#19 = LENGTH_MEASURE_WITH_UNIT ( LENGTH_MEASURE( 0.02539999999999999897 ), #58 );
#20 = DIRECTION ( 'NONE',  ( -1.277530704499805038E-16, 1.000000000000000000, -0.000000000000000000 ) ) ;
#21 =( NAMED_UNIT ( * ) SI_UNIT ( $, .STERADIAN. ) SOLID_ANGLE_UNIT ( ) );
#22 = FILL_AREA_STYLE ('',( #166 ) ) ;
#23 = CIRCLE ( 'NONE', #68, 0.3124999999999996669 ) ;
#24 = CONICAL_SURFACE ( 'NONE', #114, 22.73032555864674364, 0.5235987755983000369 ) ;
#25 = CARTESIAN_POINT ( 'NONE',  ( 2.528784936293576816E-16, 0.5412658773652724298, 0.000000000000000000 ) ) ;
#26 = DIRECTION ( 'NONE',  ( 0.000000000000000000, 0.000000000000000000, 1.000000000000000000 ) ) ;
#27 = CARTESIAN_POINT ( 'NONE',  ( 0.000000000000000000, 0.000000000000000000, 0.000000000000000000 ) ) ;
#28 = UNCERTAINTY_MEASURE_WITH_UNIT (LENGTH_MEASURE( 1.000000000000000082E-05 ), #107, 'distance_accuracy_value', 'NONE');
#29 = SURFACE_STYLE_FILL_AREA ( #52 ) ;
#30 = SURFACE_SIDE_STYLE ('',( #198 ) ) ;
#31 = CLOSED_SHELL ( 'NONE', ( #226, #134, #93 ) ) ;
#32 = COLOUR_RGB ( '',1.000000000000000000, 0.000000000000000000, 0.000000000000000000 ) ;
#33 =( LENGTH_UNIT ( ) NAMED_UNIT ( * ) SI_UNIT ( $, .METRE. ) );
#34 = DIRECTION ( 'NONE',  ( -0.000000000000000000, -1.000000000000000000, -0.000000000000000000 ) ) ;
#35 = ADVANCED_FACE ( 'NONE', ( #106 ), #129, .F. ) ;
#36 =( NAMED_UNIT ( * ) SI_UNIT ( $, .STERADIAN. ) SOLID_ANGLE_UNIT ( ) );
#37 = SURFACE_STYLE_USAGE ( .BOTH. , #199 ) ;
#38 = ORIENTED_EDGE ( 'NONE', *, *, #130, .T. ) ;
#39 = PRODUCT_DEFINITION ( 'UNKNOWN', '', #110, #230 ) ;
#40 = ORIENTED_EDGE ( 'NONE', *, *, #177, .F. ) ;
#41 = VECTOR ( 'NONE', #233, 39.37007874015748143 ) ;
#42 = DIMENSIONAL_EXPONENTS ( 1.000000000000000000, 0.000000000000000000, 0.000000000000000000, 0.000000000000000000, 0.000000000000000000, 0.000000000000000000, 0.000000000000000000 ) ;
#43 = FACE_OUTER_BOUND ( 'NONE', #205, .T. ) ;
#44 = CARTESIAN_POINT ( 'NONE',  ( 2.528784936293576816E-16, 0.5412658773652725408, 0.000000000000000000 ) ) ;
#45 = FILL_AREA_STYLE ('',( #181 ) ) ;
#46 = DIMENSIONAL_EXPONENTS ( 1.000000000000000000, 0.000000000000000000, 0.000000000000000000, 0.000000000000000000, 0.000000000000000000, 0.000000000000000000, 0.000000000000000000 ) ;
#47 = PRESENTATION_LAYER_ASSIGNMENT (  '', '', ( #97 ) ) ;
#48 = DIRECTION ( 'NONE',  ( 1.000000000000000000, 0.000000000000000000, 0.000000000000000000 ) ) ;
#49 =( LENGTH_UNIT ( ) NAMED_UNIT ( * ) SI_UNIT ( $, .METRE. ) );
#50 = EDGE_CURVE ( 'NONE', #63, #140, #23, .T. ) ;
#51 = DIRECTION ( 'NONE',  ( -1.277530704499805038E-16, 1.000000000000000000, -0.000000000000000000 ) ) ;
#52 = FILL_AREA_STYLE ('',( #251 ) ) ;
#53 = CARTESIAN_POINT ( 'NONE',  ( 0.000000000000000000, 0.5412658773652725408, 0.000000000000000000 ) ) ;
#54 = CARTESIAN_POINT ( 'NONE',  ( -6.123233995736770966E-17, 3.000000000000000444, 0.000000000000000000 ) ) ;
#55 =( LENGTH_UNIT ( ) NAMED_UNIT ( * ) SI_UNIT ( $, .METRE. ) );
#56 = PRODUCT_DEFINITION_SHAPE ( 'NONE', 'NONE',  #39 ) ;
#57 =( NAMED_UNIT ( * ) PLANE_ANGLE_UNIT ( ) SI_UNIT ( $, .RADIAN. ) );
#58 =( LENGTH_UNIT ( ) NAMED_UNIT ( * ) SI_UNIT ( $, .METRE. ) );
#59 = CONICAL_SURFACE ( 'NONE', #104, 22.73032555864674364, 0.5235987755983000369 ) ;
#60 = ORIENTED_EDGE ( 'NONE', *, *, #117, .F. ) ;
#61 = SURFACE_STYLE_USAGE ( .BOTH. , #208 ) ;
#62 = DIRECTION ( 'NONE',  ( -1.277530704499805038E-16, 1.000000000000000000, -0.000000000000000000 ) ) ;
#63 = VERTEX_POINT ( 'NONE', #171 ) ;
#64 =( CONVERSION_BASED_UNIT ( 'INCH', #17 ) LENGTH_UNIT ( ) NAMED_UNIT ( #85 ) );
#65 = COLOUR_RGB ( '',0.7921568627450980005, 0.8196078431372548767, 0.9333333333333333481 ) ;
#66 = ADVANCED_FACE ( 'NONE', ( #43 ), #195, .T. ) ;
#67 = DIRECTION ( 'NONE',  ( -1.000000000000000000, 0.000000000000000000, 0.000000000000000000 ) ) ;
#68 = AXIS2_PLACEMENT_3D ( 'NONE', #211, #51, #150 ) ;
#69 = UNCERTAINTY_MEASURE_WITH_UNIT (LENGTH_MEASURE( 1.000000000000000082E-05 ), #64, 'distance_accuracy_value', 'NONE');
#70 = FACE_OUTER_BOUND ( 'NONE', #201, .T. ) ;
#71 = CARTESIAN_POINT ( 'NONE',  ( -6.123233995736770966E-17, 3.000000000000000444, 0.000000000000000000 ) ) ;
#72 = EDGE_CURVE ( 'NONE', #140, #4, #169, .T. ) ;
#73 = AXIS2_PLACEMENT_3D ( 'NONE', #44, #223, #101 ) ;
#74 = ORIENTED_EDGE ( 'NONE', *, *, #72, .F. ) ;
#75 =( CONVERSION_BASED_UNIT ( 'INCH', #135 ) LENGTH_UNIT ( ) NAMED_UNIT ( #46 ) );
#76 = STYLED_ITEM ( 'NONE', ( #9 ), #93 ) ;
#77 = AXIS2_PLACEMENT_3D ( 'NONE', #71, #153, #236 ) ;
#78 = ADVANCED_BREP_SHAPE_REPRESENTATION ( '84780', ( #263, #258, #6 ), #132 ) ;
#79 = ORIENTED_EDGE ( 'NONE', *, *, #13, .F. ) ;
#80 = CARTESIAN_POINT ( 'NONE',  ( 0.000000000000000000, 39.37007874015748143, 0.000000000000000000 ) ) ;
#81 = CARTESIAN_POINT ( 'NONE',  ( 0.000000000000000000, 0.5412658773652725408, 0.000000000000000000 ) ) ;
#82 = SURFACE_SIDE_STYLE ('',( #3 ) ) ;
#83 = ORIENTED_EDGE ( 'NONE', *, *, #13, .T. ) ;
#84 =( NAMED_UNIT ( * ) PLANE_ANGLE_UNIT ( ) SI_UNIT ( $, .RADIAN. ) );
#85 = DIMENSIONAL_EXPONENTS ( 1.000000000000000000, 0.000000000000000000, 0.000000000000000000, 0.000000000000000000, 0.000000000000000000, 0.000000000000000000, 0.000000000000000000 ) ;
#86 = DIMENSIONAL_EXPONENTS ( 1.000000000000000000, 0.000000000000000000, 0.000000000000000000, 0.000000000000000000, 0.000000000000000000, 0.000000000000000000, 0.000000000000000000 ) ;
#87 = EDGE_CURVE ( 'NONE', #140, #63, #191, .T. ) ;
#88 =( NAMED_UNIT ( * ) SI_UNIT ( $, .STERADIAN. ) SOLID_ANGLE_UNIT ( ) );
#89 = DIRECTION ( 'NONE',  ( 1.277530704499805038E-16, -1.000000000000000000, 0.000000000000000000 ) ) ;
#90 = DIRECTION ( 'NONE',  ( 1.000000000000000000, 1.277530704499805038E-16, 0.000000000000000000 ) ) ;
#91 = DIRECTION ( 'NONE',  ( -1.277530704499805038E-16, 1.000000000000000000, -0.000000000000000000 ) ) ;
#92 = SURFACE_STYLE_USAGE ( .BOTH. , #112 ) ;
#93 = ADVANCED_FACE ( 'NONE', ( #187 ), #24, .T. ) ;
#94 = PRODUCT ( '84780', '84780', '', ( #250 ) ) ;
#95 = FILL_AREA_STYLE_COLOUR ( '', #142 ) ;
#96 = LENGTH_MEASURE_WITH_UNIT ( LENGTH_MEASURE( 0.02539999999999999897 ), #55 );
#97 = STYLED_ITEM ( 'NONE', ( #113 ), #226 ) ;
#98 =( NAMED_UNIT ( * ) SI_UNIT ( $, .STERADIAN. ) SOLID_ANGLE_UNIT ( ) );
#99 = VERTEX_POINT ( 'NONE', #7 ) ;
#100 = DIRECTION ( 'NONE',  ( 0.000000000000000000, 1.000000000000000000, 0.000000000000000000 ) ) ;
#101 = DIRECTION ( 'NONE',  ( -1.000000000000000000, -1.277530704499805038E-16, 0.000000000000000000 ) ) ;
#102 = ORIENTED_EDGE ( 'NONE', *, *, #248, .T. ) ;
#103 =( CONVERSION_BASED_UNIT ( 'INCH', #19 ) LENGTH_UNIT ( ) NAMED_UNIT ( #245 ) );
#104 = AXIS2_PLACEMENT_3D ( 'NONE', #80, #12, #185 ) ;
#105 = ORIENTED_EDGE ( 'NONE', *, *, #248, .F. ) ;
#106 = FACE_OUTER_BOUND ( 'NONE', #118, .T. ) ;
#107 =( CONVERSION_BASED_UNIT ( 'INCH', #228 ) LENGTH_UNIT ( ) NAMED_UNIT ( #42 ) );
#108 = ADVANCED_FACE ( 'NONE', ( #70 ), #260, .T. ) ;
#109 =( CONVERSION_BASED_UNIT ( 'INCH', #215 ) LENGTH_UNIT ( ) NAMED_UNIT ( #86 ) );
#110 = PRODUCT_DEFINITION_FORMATION_WITH_SPECIFIED_SOURCE ( 'ANY', '', #94, .NOT_KNOWN. ) ;
#111 =( NAMED_UNIT ( * ) PLANE_ANGLE_UNIT ( ) SI_UNIT ( $, .RADIAN. ) );
#112 = SURFACE_SIDE_STYLE ('',( #29 ) ) ;
#113 = PRESENTATION_STYLE_ASSIGNMENT (( #200 ) ) ;
#114 = AXIS2_PLACEMENT_3D ( 'NONE', #193, #255, #173 ) ;
#115 = FACE_OUTER_BOUND ( 'NONE', #265, .T. ) ;
#116 = FILL_AREA_STYLE_COLOUR ( '', #32 ) ;
#117 = EDGE_CURVE ( 'NONE', #182, #99, #214, .T. ) ;
#118 = EDGE_LOOP ( 'NONE', ( #222, #38 ) ) ;
#119 = ORIENTED_EDGE ( 'NONE', *, *, #50, .T. ) ;
#120 =( NAMED_UNIT ( * ) PLANE_ANGLE_UNIT ( ) SI_UNIT ( $, .RADIAN. ) );
#121 = DIMENSIONAL_EXPONENTS ( 1.000000000000000000, 0.000000000000000000, 0.000000000000000000, 0.000000000000000000, 0.000000000000000000, 0.000000000000000000, 0.000000000000000000 ) ;
#122 = VERTEX_POINT ( 'NONE', #257 ) ;
#123 = AXIS2_PLACEMENT_3D ( 'NONE', #81, #100, #237 ) ;
#124 = CARTESIAN_POINT ( 'NONE',  ( -6.123233995736772199E-17, 3.000000000000000444, 0.000000000000000000 ) ) ;
#125 = SURFACE_STYLE_FILL_AREA ( #45 ) ;
#126 = CIRCLE ( 'NONE', #202, 0.3124999999999999445 ) ;
#127 = DIRECTION ( 'NONE',  ( 6.123233995736778362E-17, 0.8660254037844380415, -0.5000000000000009992 ) ) ;
#128 = UNCERTAINTY_MEASURE_WITH_UNIT (LENGTH_MEASURE( 1.000000000000000082E-05 ), #75, 'distance_accuracy_value', 'NONE');
#129 = PLANE ( 'NONE',  #141 ) ;
#130 = EDGE_CURVE ( 'NONE', #4, #163, #247, .T. ) ;
#131 = DIRECTION ( 'NONE',  ( -1.000000000000000000, 0.000000000000000000, 0.000000000000000000 ) ) ;
#132 =( GEOMETRIC_REPRESENTATION_CONTEXT ( 3 ) GLOBAL_UNCERTAINTY_ASSIGNED_CONTEXT ( ( #28 ) ) GLOBAL_UNIT_ASSIGNED_CONTEXT ( ( #107, #84, #88 ) ) REPRESENTATION_CONTEXT ( 'NONE', 'WORKASPACE' ) );
#133 = CARTESIAN_POINT ( 'NONE',  ( 0.3124999999999998335, 3.000000000000000444, 3.827021247335477078E-17 ) ) ;
#134 = ADVANCED_FACE ( 'NONE', ( #203 ), #155, .T. ) ;
#135 = LENGTH_MEASURE_WITH_UNIT ( LENGTH_MEASURE( 0.02539999999999999897 ), #33 );
#136 = AXIS2_PLACEMENT_3D ( 'NONE', #25, #91, #254 ) ;
#137 =( GEOMETRIC_REPRESENTATION_CONTEXT ( 3 ) GLOBAL_UNCERTAINTY_ASSIGNED_CONTEXT ( ( #69 ) ) GLOBAL_UNIT_ASSIGNED_CONTEXT ( ( #64, #224, #246 ) ) REPRESENTATION_CONTEXT ( 'NONE', 'WORKASPACE' ) );
#138 = PRESENTATION_STYLE_ASSIGNMENT (( #37 ) ) ;
#139 = ORIENTED_EDGE ( 'NONE', *, *, #87, .F. ) ;
#140 = VERTEX_POINT ( 'NONE', #1 ) ;
#141 = AXIS2_PLACEMENT_3D ( 'NONE', #154, #89, #90 ) ;
#142 = COLOUR_RGB ( '',1.000000000000000000, 0.000000000000000000, 0.000000000000000000 ) ;
#143 = COLOUR_RGB ( '',0.7921568627450980005, 0.8196078431372548767, 0.9333333333333333481 ) ;
#144 = ORIENTED_EDGE ( 'NONE', *, *, #72, .T. ) ;
#145 = PRESENTATION_STYLE_ASSIGNMENT (( #61 ) ) ;
#146 = FACE_OUTER_BOUND ( 'NONE', #161, .T. ) ;
#147 = APPLICATION_PROTOCOL_DEFINITION ( 'draft international standard', 'automotive_design', 1998, #188 ) ;
#148 = CLOSED_SHELL ( 'NONE', ( #66, #256, #108, #35 ) ) ;
#149 = AXIS2_PLACEMENT_3D ( 'NONE', #152, #234, #131 ) ;
#150 = DIRECTION ( 'NONE',  ( -1.000000000000000000, -2.185478394931412793E-16, 0.000000000000000000 ) ) ;
#151 =( NAMED_UNIT ( * ) SI_UNIT ( $, .STERADIAN. ) SOLID_ANGLE_UNIT ( ) );
#152 = CARTESIAN_POINT ( 'NONE',  ( -6.123233995736772199E-17, 3.000000000000000444, 0.000000000000000000 ) ) ;
#153 = DIRECTION ( 'NONE',  ( -1.277530704499805038E-16, 1.000000000000000000, -0.000000000000000000 ) ) ;
#154 = CARTESIAN_POINT ( 'NONE',  ( 0.3124999999999999445, 3.000000000000000444, 0.000000000000000000 ) ) ;
#155 = PLANE ( 'NONE',  #123 ) ;
#156 = FILL_AREA_STYLE ('',( #116 ) ) ;
#157 =( GEOMETRIC_REPRESENTATION_CONTEXT ( 3 ) GLOBAL_UNCERTAINTY_ASSIGNED_CONTEXT ( ( #128 ) ) GLOBAL_UNIT_ASSIGNED_CONTEXT ( ( #75, #57, #36 ) ) REPRESENTATION_CONTEXT ( 'NONE', 'WORKASPACE' ) );
#158 =( NAMED_UNIT ( * ) PLANE_ANGLE_UNIT ( ) SI_UNIT ( $, .RADIAN. ) );
#159 = ORIENTED_EDGE ( 'NONE', *, *, #180, .T. ) ;
#160 = DIRECTION ( 'NONE',  ( -1.000000000000000000, 0.000000000000000000, 0.000000000000000000 ) ) ;
#161 = EDGE_LOOP ( 'NONE', ( #244, #139 ) ) ;
#162 = PRESENTATION_STYLE_ASSIGNMENT (( #5 ) ) ;
#163 = VERTEX_POINT ( 'NONE', #238 ) ;
#164 = CARTESIAN_POINT ( 'NONE',  ( -0.3124999999999999445, 3.000000000000000444, 0.000000000000000000 ) ) ;
#165 =( LENGTH_UNIT ( ) NAMED_UNIT ( * ) SI_UNIT ( $, .METRE. ) );
#166 = FILL_AREA_STYLE_COLOUR ( '', #65 ) ;
#167 = MECHANICAL_DESIGN_GEOMETRIC_PRESENTATION_REPRESENTATION (  '', ( #11 ), #137 ) ;
#168 = UNCERTAINTY_MEASURE_WITH_UNIT (LENGTH_MEASURE( 1.000000000000000082E-05 ), #176, 'distance_accuracy_value', 'NONE');
#169 = LINE ( 'NONE', #133, #41 ) ;
#170 = STYLED_ITEM ( 'NONE', ( #162 ), #263 ) ;
#171 = CARTESIAN_POINT ( 'NONE',  ( -0.3124999999999993894, 0.5412658773652723188, 0.000000000000000000 ) ) ;
#172 = DIRECTION ( 'NONE',  ( 0.000000000000000000, 0.8660254037844380415, 0.5000000000000009992 ) ) ;
#173 = DIRECTION ( 'NONE',  ( 0.000000000000000000, 0.000000000000000000, 1.000000000000000000 ) ) ;
#174 = PRESENTATION_LAYER_ASSIGNMENT (  '', '', ( #170 ) ) ;
#175 = DIRECTION ( 'NONE',  ( 0.000000000000000000, 0.000000000000000000, -1.000000000000000000 ) ) ;
#176 =( CONVERSION_BASED_UNIT ( 'INCH', #96 ) LENGTH_UNIT ( ) NAMED_UNIT ( #121 ) );
#177 = EDGE_CURVE ( 'NONE', #163, #4, #253, .T. ) ;
#178 = EDGE_LOOP ( 'NONE', ( #240, #264 ) ) ;
#179 = CARTESIAN_POINT ( 'NONE',  ( 0.000000000000000000, 0.5412658773652725408, 0.000000000000000000 ) ) ;
#180 = EDGE_CURVE ( 'NONE', #122, #99, #210, .T. ) ;
#181 = FILL_AREA_STYLE_COLOUR ( '', #143 ) ;
#182 = VERTEX_POINT ( 'NONE', #217 ) ;
#183 = VECTOR ( 'NONE', #127, 39.37007874015748143 ) ;
#184 = AXIS2_PLACEMENT_3D ( 'NONE', #54, #262, #160 ) ;
#185 = DIRECTION ( 'NONE',  ( 0.000000000000000000, 0.000000000000000000, 1.000000000000000000 ) ) ;
#186 = UNCERTAINTY_MEASURE_WITH_UNIT (LENGTH_MEASURE( 1.000000000000000082E-05 ), #109, 'distance_accuracy_value', 'NONE');
#187 = FACE_OUTER_BOUND ( 'NONE', #225, .T. ) ;
#188 = APPLICATION_CONTEXT ( 'automotive_design' ) ;
#189 = MECHANICAL_DESIGN_GEOMETRIC_PRESENTATION_REPRESENTATION (  '', ( #97 ), #227 ) ;
#190 = APPLICATION_PROTOCOL_DEFINITION ( 'draft international standard', 'automotive_design', 1998, #10 ) ;
#191 = CIRCLE ( 'NONE', #136, 0.3124999999999996669 ) ;
#192 = STYLED_ITEM ( 'NONE', ( #138 ), #134 ) ;
#193 = CARTESIAN_POINT ( 'NONE',  ( 0.000000000000000000, 39.37007874015748143, 0.000000000000000000 ) ) ;
#194 = CARTESIAN_POINT ( 'NONE',  ( 0.000000000000000000, 0.000000000000000000, 0.000000000000000000 ) ) ;
#195 = CYLINDRICAL_SURFACE ( 'NONE', #252, 0.3124999999999998890 ) ;
#196 = DIRECTION ( 'NONE',  ( 0.000000000000000000, 0.000000000000000000, -1.000000000000000000 ) ) ;
#197 = VECTOR ( 'NONE', #172, 39.37007874015748143 ) ;
#198 = SURFACE_STYLE_FILL_AREA ( #216 ) ;
#199 = SURFACE_SIDE_STYLE ('',( #219 ) ) ;
#200 = SURFACE_STYLE_USAGE ( .BOTH. , #30 ) ;
#201 = EDGE_LOOP ( 'NONE', ( #74, #2, #102, #15 ) ) ;
#202 = AXIS2_PLACEMENT_3D ( 'NONE', #53, #241, #196 ) ;
#203 = FACE_OUTER_BOUND ( 'NONE', #178, .T. ) ;
#204 = EDGE_CURVE ( 'NONE', #99, #122, #126, .T. ) ;
#205 = EDGE_LOOP ( 'NONE', ( #119, #144, #40, #105 ) ) ;
#206 = LINE ( 'NONE', #164, #218 ) ;
#207 = CARTESIAN_POINT ( 'NONE',  ( 0.3124999999999999445, 3.000000000000000444, 3.827021247335477694E-17 ) ) ;
#208 = SURFACE_SIDE_STYLE ('',( #125 ) ) ;
#209 = COLOUR_RGB ( '',1.000000000000000000, 0.000000000000000000, 0.000000000000000000 ) ;
#210 = CIRCLE ( 'NONE', #18, 0.3124999999999999445 ) ;
#211 = CARTESIAN_POINT ( 'NONE',  ( 2.528784936293576816E-16, 0.5412658773652724298, 0.000000000000000000 ) ) ;
#212 = LINE ( 'NONE', #27, #183 ) ;
#213 = MECHANICAL_DESIGN_GEOMETRIC_PRESENTATION_REPRESENTATION (  '', ( #192 ), #157 ) ;
#214 = LINE ( 'NONE', #194, #197 ) ;
#215 = LENGTH_MEASURE_WITH_UNIT ( LENGTH_MEASURE( 0.02539999999999999897 ), #49 );
#216 = FILL_AREA_STYLE ('',( #95 ) ) ;
#217 = CARTESIAN_POINT ( 'NONE',  ( 0.000000000000000000, 0.000000000000000000, 0.000000000000000000 ) ) ;
#218 = VECTOR ( 'NONE', #62, 39.37007874015748143 ) ;
#219 = SURFACE_STYLE_FILL_AREA ( #156 ) ;
#220 = ORIENTED_EDGE ( 'NONE', *, *, #204, .T. ) ;
#221 = MECHANICAL_DESIGN_GEOMETRIC_PRESENTATION_REPRESENTATION (  '', ( #170 ), #239 ) ;
#222 = ORIENTED_EDGE ( 'NONE', *, *, #177, .T. ) ;
#223 = DIRECTION ( 'NONE',  ( -1.277530704499805038E-16, 1.000000000000000000, 0.000000000000000000 ) ) ;
#224 =( NAMED_UNIT ( * ) PLANE_ANGLE_UNIT ( ) SI_UNIT ( $, .RADIAN. ) );
#225 = EDGE_LOOP ( 'NONE', ( #79, #16, #220 ) ) ;
#226 = ADVANCED_FACE ( 'NONE', ( #115 ), #59, .T. ) ;
#227 =( GEOMETRIC_REPRESENTATION_CONTEXT ( 3 ) GLOBAL_UNCERTAINTY_ASSIGNED_CONTEXT ( ( #168 ) ) GLOBAL_UNIT_ASSIGNED_CONTEXT ( ( #176, #158, #98 ) ) REPRESENTATION_CONTEXT ( 'NONE', 'WORKASPACE' ) );
#228 = LENGTH_MEASURE_WITH_UNIT ( LENGTH_MEASURE( 0.02539999999999999897 ), #165 );
#229 =( LENGTH_UNIT ( ) NAMED_UNIT ( * ) SI_UNIT ( $, .METRE. ) );
#230 = PRODUCT_DEFINITION_CONTEXT ( 'detailed design', #188, 'design' ) ;
#231 = PRESENTATION_LAYER_ASSIGNMENT (  '', '', ( #11 ) ) ;
#232 = SHAPE_DEFINITION_REPRESENTATION ( #56, #78 ) ;
#233 = DIRECTION ( 'NONE',  ( -1.277530704499805038E-16, 1.000000000000000000, -0.000000000000000000 ) ) ;
#234 = DIRECTION ( 'NONE',  ( -1.277530704499805038E-16, 1.000000000000000000, -0.000000000000000000 ) ) ;
#235 = MECHANICAL_DESIGN_GEOMETRIC_PRESENTATION_REPRESENTATION (  '', ( #76 ), #14 ) ;
#236 = DIRECTION ( 'NONE',  ( -1.000000000000000000, 0.000000000000000000, 0.000000000000000000 ) ) ;
#237 = DIRECTION ( 'NONE',  ( 0.000000000000000000, -0.000000000000000000, 1.000000000000000000 ) ) ;
#238 = CARTESIAN_POINT ( 'NONE',  ( -0.3125000000000000555, 3.000000000000000444, 0.000000000000000000 ) ) ;
#239 =( GEOMETRIC_REPRESENTATION_CONTEXT ( 3 ) GLOBAL_UNCERTAINTY_ASSIGNED_CONTEXT ( ( #249 ) ) GLOBAL_UNIT_ASSIGNED_CONTEXT ( ( #103, #120, #21 ) ) REPRESENTATION_CONTEXT ( 'NONE', 'WORKASPACE' ) );
#240 = ORIENTED_EDGE ( 'NONE', *, *, #204, .F. ) ;
#241 = DIRECTION ( 'NONE',  ( -0.000000000000000000, -1.000000000000000000, -0.000000000000000000 ) ) ;
#242 = PRESENTATION_LAYER_ASSIGNMENT (  '', '', ( #76 ) ) ;
#243 = PLANE ( 'NONE',  #73 ) ;
#244 = ORIENTED_EDGE ( 'NONE', *, *, #50, .F. ) ;
#245 = DIMENSIONAL_EXPONENTS ( 1.000000000000000000, 0.000000000000000000, 0.000000000000000000, 0.000000000000000000, 0.000000000000000000, 0.000000000000000000, 0.000000000000000000 ) ;
#246 =( NAMED_UNIT ( * ) SI_UNIT ( $, .STERADIAN. ) SOLID_ANGLE_UNIT ( ) );
#247 = CIRCLE ( 'NONE', #77, 0.3125000000000000000 ) ;
#248 = EDGE_CURVE ( 'NONE', #63, #163, #206, .T. ) ;
#249 = UNCERTAINTY_MEASURE_WITH_UNIT (LENGTH_MEASURE( 1.000000000000000082E-05 ), #103, 'distance_accuracy_value', 'NONE');
#250 = PRODUCT_CONTEXT ( 'NONE', #10, 'mechanical' ) ;
#251 = FILL_AREA_STYLE_COLOUR ( '', #209 ) ;
#252 = AXIS2_PLACEMENT_3D ( 'NONE', #124, #20, #67 ) ;
#253 = CIRCLE ( 'NONE', #184, 0.3125000000000000000 ) ;
#254 = DIRECTION ( 'NONE',  ( -1.000000000000000000, -2.185478394931412793E-16, 0.000000000000000000 ) ) ;
#255 = DIRECTION ( 'NONE',  ( 0.000000000000000000, 1.000000000000000000, 0.000000000000000000 ) ) ;
#256 = ADVANCED_FACE ( 'NONE', ( #146 ), #243, .F. ) ;
#257 = CARTESIAN_POINT ( 'NONE',  ( 3.827021247335477078E-17, 0.5412658773652724298, -0.3124999999999998890 ) ) ;
#258 = MANIFOLD_SOLID_BREP ( 'Revolve - Tool Body (Pointed)', #148 ) ;
#259 = PRESENTATION_LAYER_ASSIGNMENT (  '', '', ( #192 ) ) ;
#260 = CYLINDRICAL_SURFACE ( 'NONE', #149, 0.3124999999999998890 ) ;
#261 = PRODUCT_RELATED_PRODUCT_CATEGORY ( 'part', '', ( #94 ) ) ;
#262 = DIRECTION ( 'NONE',  ( -1.277530704499805038E-16, 1.000000000000000000, -0.000000000000000000 ) ) ;
#263 = MANIFOLD_SOLID_BREP ( 'Revolve - Cutting Edge', #31 ) ;
#264 = ORIENTED_EDGE ( 'NONE', *, *, #180, .F. ) ;
#265 = EDGE_LOOP ( 'NONE', ( #60, #83, #159 ) ) ;
ENDSEC;
END-ISO-10303-21;
