ISO-10303-21;
HEADER;
FILE_DESCRIPTION (( 'STEP AP214' ),
    '1' );
FILE_NAME ('83308.STEP',
    '2023-06-23T09:10:55',
    ( '' ),
    ( '' ),
    'SwSTEP 2.0',
    'SolidWorks 2023',
    '' );
FILE_SCHEMA (( 'AUTOMOTIVE_DESIGN' ));
ENDSEC;

DATA;
#1 = VECTOR ( 'NONE', #78, 39.37007874015748143 ) ;
#2 = DIMENSIONAL_EXPONENTS ( 1.000000000000000000, 0.000000000000000000, 0.000000000000000000, 0.000000000000000000, 0.000000000000000000, 0.000000000000000000, 0.000000000000000000 ) ;
#3 = ADVANCED_FACE ( 'NONE', ( #12 ), #220, .T. ) ;
#4 = DIRECTION ( 'NONE',  ( 0.000000000000000000, 0.000000000000000000, -1.000000000000000000 ) ) ;
#5 = CARTESIAN_POINT ( 'NONE',  ( 0.1875000000000000278, 2.500000000000000000, 0.000000000000000000 ) ) ;
#6 =( LENGTH_UNIT ( ) NAMED_UNIT ( * ) SI_UNIT ( $, .METRE. ) );
#7 = CARTESIAN_POINT ( 'NONE',  ( -0.1874999999999999167, 2.500000000000000000, 0.000000000000000000 ) ) ;
#8 = PRESENTATION_LAYER_ASSIGNMENT (  '', '', ( #32 ) ) ;
#9 = DIRECTION ( 'NONE',  ( 1.000000000000000000, -3.498990854706726443E-17, 0.000000000000000000 ) ) ;
#10 = ADVANCED_FACE ( 'NONE', ( #277 ), #231, .T. ) ;
#11 = ORIENTED_EDGE ( 'NONE', *, *, #241, .F. ) ;
#12 = FACE_OUTER_BOUND ( 'NONE', #18, .T. ) ;
#13 =( LENGTH_UNIT ( ) NAMED_UNIT ( * ) SI_UNIT ( $, .METRE. ) );
#14 = SURFACE_STYLE_FILL_AREA ( #270 ) ;
#15 = STYLED_ITEM ( 'NONE', ( #143 ), #142 ) ;
#16 = LENGTH_MEASURE_WITH_UNIT ( LENGTH_MEASURE( 0.02539999999999999897 ), #13 );
#17 = ORIENTED_EDGE ( 'NONE', *, *, #55, .T. ) ;
#18 = EDGE_LOOP ( 'NONE', ( #58, #81, #275, #219 ) ) ;
#19 = CARTESIAN_POINT ( 'NONE',  ( 2.296212748401287726E-17, 0.000000000000000000, 0.1875000000000000278 ) ) ;
#20 = SURFACE_STYLE_FILL_AREA ( #256 ) ;
#21 = DIRECTION ( 'NONE',  ( 0.000000000000000000, -0.000000000000000000, 1.000000000000000000 ) ) ;
#22 = MECHANICAL_DESIGN_GEOMETRIC_PRESENTATION_REPRESENTATION (  '', ( #135 ), #210 ) ;
#23 =( NAMED_UNIT ( * ) PLANE_ANGLE_UNIT ( ) SI_UNIT ( $, .RADIAN. ) );
#24 = CARTESIAN_POINT ( 'NONE',  ( 0.000000000000000000, 0.7500000000000001110, -0.1875000000000000278 ) ) ;
#25 = CARTESIAN_POINT ( 'NONE',  ( 6.123233995736772199E-17, 2.500000000000000000, 0.000000000000000000 ) ) ;
#26 = CARTESIAN_POINT ( 'NONE',  ( 6.123233995736772199E-17, 2.500000000000000000, 0.000000000000000000 ) ) ;
#27 =( NAMED_UNIT ( * ) SI_UNIT ( $, .STERADIAN. ) SOLID_ANGLE_UNIT ( ) );
#28 =( LENGTH_UNIT ( ) NAMED_UNIT ( * ) SI_UNIT ( $, .METRE. ) );
#29 = AXIS2_PLACEMENT_3D ( 'NONE', #179, #226, #21 ) ;
#30 = DIRECTION ( 'NONE',  ( 3.498990854706726443E-17, 1.000000000000000000, -0.000000000000000000 ) ) ;
#31 = CYLINDRICAL_SURFACE ( 'NONE', #249, 0.1874999999999999722 ) ;
#32 = STYLED_ITEM ( 'NONE', ( #257 ), #10 ) ;
#33 = MECHANICAL_DESIGN_GEOMETRIC_PRESENTATION_REPRESENTATION (  '', ( #89 ), #202 ) ;
#34 = CARTESIAN_POINT ( 'NONE',  ( 0.1875000000000000555, 2.500000000000000000, 2.296212748401286801E-17 ) ) ;
#35 = EDGE_LOOP ( 'NONE', ( #267, #250, #17, #298 ) ) ;
#36 = ADVANCED_FACE ( 'NONE', ( #156 ), #203, .F. ) ;
#37 = VERTEX_POINT ( 'NONE', #258 ) ;
#38 =( NAMED_UNIT ( * ) PLANE_ANGLE_UNIT ( ) SI_UNIT ( $, .RADIAN. ) );
#39 = CIRCLE ( 'NONE', #94, 0.1875000000000000278 ) ;
#40 = PRESENTATION_STYLE_ASSIGNMENT (( #150 ) ) ;
#41 = ORIENTED_EDGE ( 'NONE', *, *, #294, .T. ) ;
#42 = VERTEX_POINT ( 'NONE', #19 ) ;
#43 = PRODUCT_RELATED_PRODUCT_CATEGORY ( 'part', '', ( #242 ) ) ;
#44 = LENGTH_MEASURE_WITH_UNIT ( LENGTH_MEASURE( 0.02539999999999999897 ), #232 );
#45 =( GEOMETRIC_REPRESENTATION_CONTEXT ( 3 ) GLOBAL_UNCERTAINTY_ASSIGNED_CONTEXT ( ( #283 ) ) GLOBAL_UNIT_ASSIGNED_CONTEXT ( ( #121, #164, #27 ) ) REPRESENTATION_CONTEXT ( 'NONE', 'WORKASPACE' ) );
#46 =( NAMED_UNIT ( * ) SI_UNIT ( $, .STERADIAN. ) SOLID_ANGLE_UNIT ( ) );
#47 = FILL_AREA_STYLE ('',( #137 ) ) ;
#48 = DIRECTION ( 'NONE',  ( -0.000000000000000000, -1.000000000000000000, -0.000000000000000000 ) ) ;
#49 = CLOSED_SHELL ( 'NONE', ( #159, #36, #236, #255 ) ) ;
#50 = CYLINDRICAL_SURFACE ( 'NONE', #87, 0.1874999999999999722 ) ;
#51 = SURFACE_SIDE_STYLE ('',( #288 ) ) ;
#52 = PRESENTATION_LAYER_ASSIGNMENT (  '', '', ( #15 ) ) ;
#53 = FILL_AREA_STYLE ('',( #169 ) ) ;
#54 = DIRECTION ( 'NONE',  ( 0.000000000000000000, -1.000000000000000000, -0.000000000000000000 ) ) ;
#55 = EDGE_CURVE ( 'NONE', #197, #175, #183, .T. ) ;
#56 = CARTESIAN_POINT ( 'NONE',  ( 2.296212748401287726E-17, 0.000000000000000000, 0.1875000000000000278 ) ) ;
#57 = FILL_AREA_STYLE ('',( #265 ) ) ;
#58 = ORIENTED_EDGE ( 'NONE', *, *, #261, .T. ) ;
#59 = ORIENTED_EDGE ( 'NONE', *, *, #281, .T. ) ;
#60 = UNCERTAINTY_MEASURE_WITH_UNIT (LENGTH_MEASURE( 1.000000000000000082E-05 ), #62, 'distance_accuracy_value', 'NONE');
#61 = AXIS2_PLACEMENT_3D ( 'NONE', #306, #309, #305 ) ;
#62 =( CONVERSION_BASED_UNIT ( 'INCH', #44 ) LENGTH_UNIT ( ) NAMED_UNIT ( #208 ) );
#63 = CARTESIAN_POINT ( 'NONE',  ( 0.000000000000000000, 0.7499999999999998890, 0.000000000000000000 ) ) ;
#64 =( GEOMETRIC_REPRESENTATION_CONTEXT ( 3 ) GLOBAL_UNCERTAINTY_ASSIGNED_CONTEXT ( ( #60 ) ) GLOBAL_UNIT_ASSIGNED_CONTEXT ( ( #62, #23, #115 ) ) REPRESENTATION_CONTEXT ( 'NONE', 'WORKASPACE' ) );
#65 = DIRECTION ( 'NONE',  ( 3.498990854706726443E-17, 1.000000000000000000, -0.000000000000000000 ) ) ;
#66 = CARTESIAN_POINT ( 'NONE',  ( 0.000000000000000000, 0.000000000000000000, 0.000000000000000000 ) ) ;
#67 = PLANE ( 'NONE',  #199 ) ;
#68 = DIRECTION ( 'NONE',  ( 0.000000000000000000, 0.000000000000000000, -1.000000000000000000 ) ) ;
#69 = STYLED_ITEM ( 'NONE', ( #79 ), #3 ) ;
#70 = EDGE_CURVE ( 'NONE', #175, #42, #259, .T. ) ;
#71 = CARTESIAN_POINT ( 'NONE',  ( 0.1875000000000000278, 0.7499999999999998890, 2.296212748401287109E-17 ) ) ;
#72 = APPLICATION_CONTEXT ( 'automotive_design' ) ;
#73 = SURFACE_STYLE_USAGE ( .BOTH. , #145 ) ;
#74 =( NAMED_UNIT ( * ) SI_UNIT ( $, .STERADIAN. ) SOLID_ANGLE_UNIT ( ) );
#75 = MECHANICAL_DESIGN_GEOMETRIC_PRESENTATION_REPRESENTATION (  '', ( #69 ), #282 ) ;
#76 = ORIENTED_EDGE ( 'NONE', *, *, #281, .F. ) ;
#77 = COLOUR_RGB ( '',0.7921568627450980005, 0.8196078431372548767, 0.9333333333333333481 ) ;
#78 = DIRECTION ( 'NONE',  ( 3.498990854706726443E-17, 1.000000000000000000, -0.000000000000000000 ) ) ;
#79 = PRESENTATION_STYLE_ASSIGNMENT (( #104 ) ) ;
#80 =( LENGTH_UNIT ( ) NAMED_UNIT ( * ) SI_UNIT ( $, .METRE. ) );
#81 = ORIENTED_EDGE ( 'NONE', *, *, #251, .T. ) ;
#82 = VECTOR ( 'NONE', #107, 39.37007874015748143 ) ;
#83 = DIRECTION ( 'NONE',  ( 0.000000000000000000, 0.000000000000000000, 1.000000000000000000 ) ) ;
#84 = DIRECTION ( 'NONE',  ( -0.000000000000000000, -1.000000000000000000, -0.000000000000000000 ) ) ;
#85 = PLANE ( 'NONE',  #185 ) ;
#86 = EDGE_CURVE ( 'NONE', #42, #175, #144, .T. ) ;
#87 = AXIS2_PLACEMENT_3D ( 'NONE', #25, #65, #237 ) ;
#88 =( CONVERSION_BASED_UNIT ( 'INCH', #117 ) LENGTH_UNIT ( ) NAMED_UNIT ( #97 ) );
#89 = STYLED_ITEM ( 'NONE', ( #40 ), #299 ) ;
#90 = DIRECTION ( 'NONE',  ( 0.000000000000000000, 0.000000000000000000, -1.000000000000000000 ) ) ;
#91 = SURFACE_STYLE_USAGE ( .BOTH. , #51 ) ;
#92 = CARTESIAN_POINT ( 'NONE',  ( 0.000000000000000000, 0.7500000000000001110, 0.000000000000000000 ) ) ;
#93 =( CONVERSION_BASED_UNIT ( 'INCH', #118 ) LENGTH_UNIT ( ) NAMED_UNIT ( #260 ) );
#94 = AXIS2_PLACEMENT_3D ( 'NONE', #92, #96, #90 ) ;
#95 = PRESENTATION_LAYER_ASSIGNMENT (  '', '', ( #89 ) ) ;
#96 = DIRECTION ( 'NONE',  ( -0.000000000000000000, -1.000000000000000000, -0.000000000000000000 ) ) ;
#97 = DIMENSIONAL_EXPONENTS ( 1.000000000000000000, 0.000000000000000000, 0.000000000000000000, 0.000000000000000000, 0.000000000000000000, 0.000000000000000000, 0.000000000000000000 ) ;
#98 =( LENGTH_UNIT ( ) NAMED_UNIT ( * ) SI_UNIT ( $, .METRE. ) );
#99 = EDGE_LOOP ( 'NONE', ( #293, #59 ) ) ;
#100 = DIRECTION ( 'NONE',  ( 1.000000000000000000, 0.000000000000000000, 0.000000000000000000 ) ) ;
#101 = CLOSED_SHELL ( 'NONE', ( #3, #10, #188, #142 ) ) ;
#102 = SURFACE_SIDE_STYLE ('',( #14 ) ) ;
#103 = FILL_AREA_STYLE_COLOUR ( '', #132 ) ;
#104 = SURFACE_STYLE_USAGE ( .BOTH. , #102 ) ;
#105 = CARTESIAN_POINT ( 'NONE',  ( 0.000000000000000000, 0.000000000000000000, 0.000000000000000000 ) ) ;
#106 = VERTEX_POINT ( 'NONE', #134 ) ;
#107 = DIRECTION ( 'NONE',  ( -0.000000000000000000, -1.000000000000000000, -0.000000000000000000 ) ) ;
#108 = AXIS2_PLACEMENT_3D ( 'NONE', #278, #84, #229 ) ;
#109 = SURFACE_SIDE_STYLE ('',( #20 ) ) ;
#110 = APPLICATION_CONTEXT ( 'automotive_design' ) ;
#111 = SURFACE_SIDE_STYLE ('',( #279 ) ) ;
#112 = AXIS2_PLACEMENT_3D ( 'NONE', #26, #124, #216 ) ;
#113 = AXIS2_PLACEMENT_3D ( 'NONE', #284, #266, #167 ) ;
#114 = PRODUCT_DEFINITION_SHAPE ( 'NONE', 'NONE',  #147 ) ;
#115 =( NAMED_UNIT ( * ) SI_UNIT ( $, .STERADIAN. ) SOLID_ANGLE_UNIT ( ) );
#116 = CARTESIAN_POINT ( 'NONE',  ( 0.000000000000000000, 0.000000000000000000, -0.1875000000000000278 ) ) ;
#117 = LENGTH_MEASURE_WITH_UNIT ( LENGTH_MEASURE( 0.02539999999999999897 ), #28 );
#118 = LENGTH_MEASURE_WITH_UNIT ( LENGTH_MEASURE( 0.02539999999999999897 ), #264 );
#119 = PRODUCT_DEFINITION_CONTEXT ( 'detailed design', #72, 'design' ) ;
#120 = AXIS2_PLACEMENT_3D ( 'NONE', #105, #83, #100 ) ;
#121 =( CONVERSION_BASED_UNIT ( 'INCH', #166 ) LENGTH_UNIT ( ) NAMED_UNIT ( #234 ) );
#122 = LINE ( 'NONE', #34, #1 ) ;
#123 = UNCERTAINTY_MEASURE_WITH_UNIT (LENGTH_MEASURE( 1.000000000000000082E-05 ), #301, 'distance_accuracy_value', 'NONE');
#124 = DIRECTION ( 'NONE',  ( 3.498990854706726443E-17, 1.000000000000000000, -0.000000000000000000 ) ) ;
#125 = DIRECTION ( 'NONE',  ( -0.000000000000000000, -1.000000000000000000, -0.000000000000000000 ) ) ;
#126 = UNCERTAINTY_MEASURE_WITH_UNIT (LENGTH_MEASURE( 1.000000000000000082E-05 ), #93, 'distance_accuracy_value', 'NONE');
#127 =( CONVERSION_BASED_UNIT ( 'INCH', #16 ) LENGTH_UNIT ( ) NAMED_UNIT ( #2 ) );
#128 = ORIENTED_EDGE ( 'NONE', *, *, #200, .T. ) ;
#129 = SURFACE_STYLE_FILL_AREA ( #225 ) ;
#130 = AXIS2_PLACEMENT_3D ( 'NONE', #66, #186, #68 ) ;
#131 = LENGTH_MEASURE_WITH_UNIT ( LENGTH_MEASURE( 0.02539999999999999897 ), #80 );
#132 = COLOUR_RGB ( '',0.7921568627450980005, 0.8196078431372548767, 0.9333333333333333481 ) ;
#133 = EDGE_LOOP ( 'NONE', ( #174, #245 ) ) ;
#134 = CARTESIAN_POINT ( 'NONE',  ( 2.296212748401287726E-17, 0.7500000000000001110, 0.1875000000000000278 ) ) ;
#135 = STYLED_ITEM ( 'NONE', ( #209 ), #188 ) ;
#136 = EDGE_CURVE ( 'NONE', #296, #192, #148, .T. ) ;
#137 = FILL_AREA_STYLE_COLOUR ( '', #161 ) ;
#138 = CARTESIAN_POINT ( 'NONE',  ( 1.147775343873872857E-34, 0.7500000000000001110, 0.000000000000000000 ) ) ;
#139 = CIRCLE ( 'NONE', #113, 0.1874999999999999445 ) ;
#140 = FACE_OUTER_BOUND ( 'NONE', #222, .T. ) ;
#141 = DIRECTION ( 'NONE',  ( -1.000000000000000000, 0.000000000000000000, 0.000000000000000000 ) ) ;
#142 = ADVANCED_FACE ( 'NONE', ( #228 ), #85, .T. ) ;
#143 = PRESENTATION_STYLE_ASSIGNMENT (( #204 ) ) ;
#144 = CIRCLE ( 'NONE', #108, 0.1875000000000000278 ) ;
#145 = SURFACE_SIDE_STYLE ('',( #213 ) ) ;
#146 = LINE ( 'NONE', #7, #182 ) ;
#147 = PRODUCT_DEFINITION ( 'UNKNOWN', '', #239, #119 ) ;
#148 = CIRCLE ( 'NONE', #233, 0.1875000000000000278 ) ;
#149 = ORIENTED_EDGE ( 'NONE', *, *, #70, .T. ) ;
#150 = SURFACE_STYLE_USAGE ( .BOTH. , #176 ) ;
#151 = EDGE_LOOP ( 'NONE', ( #247, #128, #272, #76 ) ) ;
#152 = EDGE_LOOP ( 'NONE', ( #171, #252 ) ) ;
#153 = PRESENTATION_LAYER_ASSIGNMENT (  '', '', ( #135 ) ) ;
#154 = DIRECTION ( 'NONE',  ( -1.000000000000000000, 0.000000000000000000, 0.000000000000000000 ) ) ;
#155 = CARTESIAN_POINT ( 'NONE',  ( 0.000000000000000000, 0.7499999999999998890, 0.000000000000000000 ) ) ;
#156 = FACE_OUTER_BOUND ( 'NONE', #133, .T. ) ;
#157 = DIRECTION ( 'NONE',  ( -1.000000000000000000, 0.000000000000000000, 0.000000000000000000 ) ) ;
#158 = FILL_AREA_STYLE_COLOUR ( '', #221 ) ;
#159 = ADVANCED_FACE ( 'NONE', ( #140 ), #50, .T. ) ;
#160 = DIRECTION ( 'NONE',  ( -1.000000000000000000, 3.498990854706726443E-17, 0.000000000000000000 ) ) ;
#161 = COLOUR_RGB ( '',1.000000000000000000, 0.000000000000000000, 0.000000000000000000 ) ;
#162 = PRESENTATION_LAYER_ASSIGNMENT (  '', '', ( #303 ) ) ;
#163 =( NAMED_UNIT ( * ) PLANE_ANGLE_UNIT ( ) SI_UNIT ( $, .RADIAN. ) );
#164 =( NAMED_UNIT ( * ) PLANE_ANGLE_UNIT ( ) SI_UNIT ( $, .RADIAN. ) );
#165 = DIRECTION ( 'NONE',  ( -3.498990854706726443E-17, -1.000000000000000000, 0.000000000000000000 ) ) ;
#166 = LENGTH_MEASURE_WITH_UNIT ( LENGTH_MEASURE( 0.02539999999999999897 ), #6 );
#167 = DIRECTION ( 'NONE',  ( -1.000000000000000000, 0.000000000000000000, 0.000000000000000000 ) ) ;
#168 = AXIS2_PLACEMENT_3D ( 'NONE', #292, #125, #240 ) ;
#169 = FILL_AREA_STYLE_COLOUR ( '', #227 ) ;
#170 = UNCERTAINTY_MEASURE_WITH_UNIT (LENGTH_MEASURE( 1.000000000000000082E-05 ), #273, 'distance_accuracy_value', 'NONE');
#171 = ORIENTED_EDGE ( 'NONE', *, *, #261, .F. ) ;
#172 = COLOUR_RGB ( '',1.000000000000000000, 0.000000000000000000, 0.000000000000000000 ) ;
#173 = CIRCLE ( 'NONE', #168, 0.1875000000000000278 ) ;
#174 = ORIENTED_EDGE ( 'NONE', *, *, #136, .F. ) ;
#175 = VERTEX_POINT ( 'NONE', #116 ) ;
#176 = SURFACE_SIDE_STYLE ('',( #129 ) ) ;
#177 = ORIENTED_EDGE ( 'NONE', *, *, #286, .F. ) ;
#178 = MECHANICAL_DESIGN_GEOMETRIC_PRESENTATION_REPRESENTATION (  '', ( #32 ), #64 ) ;
#179 = CARTESIAN_POINT ( 'NONE',  ( 0.000000000000000000, 0.7500000000000001110, 0.000000000000000000 ) ) ;
#180 = DIRECTION ( 'NONE',  ( 3.498990854706726443E-17, 1.000000000000000000, -0.000000000000000000 ) ) ;
#181 = PRESENTATION_LAYER_ASSIGNMENT (  '', '', ( #69 ) ) ;
#182 = VECTOR ( 'NONE', #30, 39.37007874015748143 ) ;
#183 = LINE ( 'NONE', #280, #82 ) ;
#184 = DIMENSIONAL_EXPONENTS ( 1.000000000000000000, 0.000000000000000000, 0.000000000000000000, 0.000000000000000000, 0.000000000000000000, 0.000000000000000000, 0.000000000000000000 ) ;
#185 = AXIS2_PLACEMENT_3D ( 'NONE', #263, #54, #4 ) ;
#186 = DIRECTION ( 'NONE',  ( -0.000000000000000000, -1.000000000000000000, -0.000000000000000000 ) ) ;
#187 = FACE_OUTER_BOUND ( 'NONE', #99, .T. ) ;
#188 = ADVANCED_FACE ( 'NONE', ( #290 ), #285, .T. ) ;
#189 = CARTESIAN_POINT ( 'NONE',  ( 6.123233995736772199E-17, 2.500000000000000000, 0.000000000000000000 ) ) ;
#190 = EDGE_LOOP ( 'NONE', ( #149, #198 ) ) ;
#191 = UNCERTAINTY_MEASURE_WITH_UNIT (LENGTH_MEASURE( 1.000000000000000082E-05 ), #127, 'distance_accuracy_value', 'NONE');
#192 = VERTEX_POINT ( 'NONE', #71 ) ;
#193 = MECHANICAL_DESIGN_GEOMETRIC_PRESENTATION_REPRESENTATION (  '', ( #15 ), #45 ) ;
#194 = DIMENSIONAL_EXPONENTS ( 1.000000000000000000, 0.000000000000000000, 0.000000000000000000, 0.000000000000000000, 0.000000000000000000, 0.000000000000000000, 0.000000000000000000 ) ;
#195 = ORIENTED_EDGE ( 'NONE', *, *, #136, .T. ) ;
#196 =( NAMED_UNIT ( * ) SI_UNIT ( $, .STERADIAN. ) SOLID_ANGLE_UNIT ( ) );
#197 = VERTEX_POINT ( 'NONE', #24 ) ;
#198 = ORIENTED_EDGE ( 'NONE', *, *, #86, .T. ) ;
#199 = AXIS2_PLACEMENT_3D ( 'NONE', #5, #165, #9 ) ;
#200 = EDGE_CURVE ( 'NONE', #192, #296, #307, .T. ) ;
#201 = CARTESIAN_POINT ( 'NONE',  ( 0.000000000000000000, 0.000000000000000000, 0.000000000000000000 ) ) ;
#202 =( GEOMETRIC_REPRESENTATION_CONTEXT ( 3 ) GLOBAL_UNCERTAINTY_ASSIGNED_CONTEXT ( ( #191 ) ) GLOBAL_UNIT_ASSIGNED_CONTEXT ( ( #127, #38, #196 ) ) REPRESENTATION_CONTEXT ( 'NONE', 'WORKASPACE' ) );
#203 = PLANE ( 'NONE',  #243 ) ;
#204 = SURFACE_STYLE_USAGE ( .BOTH. , #109 ) ;
#205 = CIRCLE ( 'NONE', #112, 0.1874999999999999445 ) ;
#206 =( GEOMETRIC_REPRESENTATION_CONTEXT ( 3 ) GLOBAL_UNCERTAINTY_ASSIGNED_CONTEXT ( ( #212 ) ) GLOBAL_UNIT_ASSIGNED_CONTEXT ( ( #88, #163, #300 ) ) REPRESENTATION_CONTEXT ( 'NONE', 'WORKASPACE' ) );
#207 = DIRECTION ( 'NONE',  ( 3.498990854706726443E-17, 1.000000000000000000, -0.000000000000000000 ) ) ;
#208 = DIMENSIONAL_EXPONENTS ( 1.000000000000000000, 0.000000000000000000, 0.000000000000000000, 0.000000000000000000, 0.000000000000000000, 0.000000000000000000, 0.000000000000000000 ) ;
#209 = PRESENTATION_STYLE_ASSIGNMENT (( #91 ) ) ;
#210 =( GEOMETRIC_REPRESENTATION_CONTEXT ( 3 ) GLOBAL_UNCERTAINTY_ASSIGNED_CONTEXT ( ( #126 ) ) GLOBAL_UNIT_ASSIGNED_CONTEXT ( ( #93, #262, #215 ) ) REPRESENTATION_CONTEXT ( 'NONE', 'WORKASPACE' ) );
#211 = DIRECTION ( 'NONE',  ( 3.498990854706726443E-17, 1.000000000000000000, -0.000000000000000000 ) ) ;
#212 = UNCERTAINTY_MEASURE_WITH_UNIT (LENGTH_MEASURE( 1.000000000000000082E-05 ), #88, 'distance_accuracy_value', 'NONE');
#213 = SURFACE_STYLE_FILL_AREA ( #57 ) ;
#214 = ADVANCED_BREP_SHAPE_REPRESENTATION ( '83308', ( #291, #299, #120 ), #244 ) ;
#215 =( NAMED_UNIT ( * ) SI_UNIT ( $, .STERADIAN. ) SOLID_ANGLE_UNIT ( ) );
#216 = DIRECTION ( 'NONE',  ( -1.000000000000000000, 0.000000000000000000, 0.000000000000000000 ) ) ;
#217 = CARTESIAN_POINT ( 'NONE',  ( 0.1875000000000000278, 2.500000000000000000, 2.296212748401287109E-17 ) ) ;
#218 = VERTEX_POINT ( 'NONE', #217 ) ;
#219 = ORIENTED_EDGE ( 'NONE', *, *, #55, .F. ) ;
#220 = CYLINDRICAL_SURFACE ( 'NONE', #61, 0.1875000000000000278 ) ;
#221 = COLOUR_RGB ( '',1.000000000000000000, 0.000000000000000000, 0.000000000000000000 ) ;
#222 = EDGE_LOOP ( 'NONE', ( #195, #41, #11, #177 ) ) ;
#223 = SHAPE_DEFINITION_REPRESENTATION ( #114, #214 ) ;
#224 =( NAMED_UNIT ( * ) PLANE_ANGLE_UNIT ( ) SI_UNIT ( $, .RADIAN. ) );
#225 = FILL_AREA_STYLE ('',( #103 ) ) ;
#226 = DIRECTION ( 'NONE',  ( 0.000000000000000000, 1.000000000000000000, 0.000000000000000000 ) ) ;
#227 = COLOUR_RGB ( '',1.000000000000000000, 0.000000000000000000, 0.000000000000000000 ) ;
#228 = FACE_OUTER_BOUND ( 'NONE', #190, .T. ) ;
#229 = DIRECTION ( 'NONE',  ( 0.000000000000000000, 0.000000000000000000, -1.000000000000000000 ) ) ;
#230 = EDGE_CURVE ( 'NONE', #106, #197, #39, .T. ) ;
#231 = PLANE ( 'NONE',  #29 ) ;
#232 =( LENGTH_UNIT ( ) NAMED_UNIT ( * ) SI_UNIT ( $, .METRE. ) );
#233 = AXIS2_PLACEMENT_3D ( 'NONE', #63, #180, #154 ) ;
#234 = DIMENSIONAL_EXPONENTS ( 1.000000000000000000, 0.000000000000000000, 0.000000000000000000, 0.000000000000000000, 0.000000000000000000, 0.000000000000000000, 0.000000000000000000 ) ;
#235 = PRESENTATION_STYLE_ASSIGNMENT (( #73 ) ) ;
#236 = ADVANCED_FACE ( 'NONE', ( #289 ), #31, .T. ) ;
#237 = DIRECTION ( 'NONE',  ( -1.000000000000000000, 0.000000000000000000, 0.000000000000000000 ) ) ;
#238 = LINE ( 'NONE', #56, #274 ) ;
#239 = PRODUCT_DEFINITION_FORMATION_WITH_SPECIFIED_SOURCE ( 'ANY', '', #242, .NOT_KNOWN. ) ;
#240 = DIRECTION ( 'NONE',  ( 0.000000000000000000, 0.000000000000000000, -1.000000000000000000 ) ) ;
#241 = EDGE_CURVE ( 'NONE', #37, #218, #205, .T. ) ;
#242 = PRODUCT ( '83308', '83308', '', ( #271 ) ) ;
#243 = AXIS2_PLACEMENT_3D ( 'NONE', #138, #308, #160 ) ;
#244 =( GEOMETRIC_REPRESENTATION_CONTEXT ( 3 ) GLOBAL_UNCERTAINTY_ASSIGNED_CONTEXT ( ( #123 ) ) GLOBAL_UNIT_ASSIGNED_CONTEXT ( ( #301, #269, #74 ) ) REPRESENTATION_CONTEXT ( 'NONE', 'WORKASPACE' ) );
#245 = ORIENTED_EDGE ( 'NONE', *, *, #200, .F. ) ;
#246 = APPLICATION_PROTOCOL_DEFINITION ( 'draft international standard', 'automotive_design', 1998, #110 ) ;
#247 = ORIENTED_EDGE ( 'NONE', *, *, #294, .F. ) ;
#248 = APPLICATION_PROTOCOL_DEFINITION ( 'draft international standard', 'automotive_design', 1998, #72 ) ;
#249 = AXIS2_PLACEMENT_3D ( 'NONE', #189, #211, #141 ) ;
#250 = ORIENTED_EDGE ( 'NONE', *, *, #230, .T. ) ;
#251 = EDGE_CURVE ( 'NONE', #106, #42, #238, .T. ) ;
#252 = ORIENTED_EDGE ( 'NONE', *, *, #230, .F. ) ;
#253 = SURFACE_STYLE_USAGE ( .BOTH. , #111 ) ;
#254 = AXIS2_PLACEMENT_3D ( 'NONE', #201, #48, #304 ) ;
#255 = ADVANCED_FACE ( 'NONE', ( #187 ), #67, .F. ) ;
#256 = FILL_AREA_STYLE ('',( #158 ) ) ;
#257 = PRESENTATION_STYLE_ASSIGNMENT (( #253 ) ) ;
#258 = CARTESIAN_POINT ( 'NONE',  ( -0.1874999999999998890, 2.500000000000000000, 0.000000000000000000 ) ) ;
#259 = CIRCLE ( 'NONE', #254, 0.1875000000000000278 ) ;
#260 = DIMENSIONAL_EXPONENTS ( 1.000000000000000000, 0.000000000000000000, 0.000000000000000000, 0.000000000000000000, 0.000000000000000000, 0.000000000000000000, 0.000000000000000000 ) ;
#261 = EDGE_CURVE ( 'NONE', #197, #106, #173, .T. ) ;
#262 =( NAMED_UNIT ( * ) PLANE_ANGLE_UNIT ( ) SI_UNIT ( $, .RADIAN. ) );
#263 = CARTESIAN_POINT ( 'NONE',  ( 0.000000000000000000, 0.000000000000000000, 0.000000000000000000 ) ) ;
#264 =( LENGTH_UNIT ( ) NAMED_UNIT ( * ) SI_UNIT ( $, .METRE. ) );
#265 = FILL_AREA_STYLE_COLOUR ( '', #77 ) ;
#266 = DIRECTION ( 'NONE',  ( 3.498990854706726443E-17, 1.000000000000000000, -0.000000000000000000 ) ) ;
#267 = ORIENTED_EDGE ( 'NONE', *, *, #251, .F. ) ;
#268 = MECHANICAL_DESIGN_GEOMETRIC_PRESENTATION_REPRESENTATION (  '', ( #303 ), #206 ) ;
#269 =( NAMED_UNIT ( * ) PLANE_ANGLE_UNIT ( ) SI_UNIT ( $, .RADIAN. ) );
#270 = FILL_AREA_STYLE ('',( #302 ) ) ;
#271 = PRODUCT_CONTEXT ( 'NONE', #110, 'mechanical' ) ;
#272 = ORIENTED_EDGE ( 'NONE', *, *, #286, .T. ) ;
#273 =( CONVERSION_BASED_UNIT ( 'INCH', #131 ) LENGTH_UNIT ( ) NAMED_UNIT ( #184 ) );
#274 = VECTOR ( 'NONE', #287, 39.37007874015748143 ) ;
#275 = ORIENTED_EDGE ( 'NONE', *, *, #70, .F. ) ;
#276 = CARTESIAN_POINT ( 'NONE',  ( -0.1875000000000000278, 0.7499999999999998890, 0.000000000000000000 ) ) ;
#277 = FACE_OUTER_BOUND ( 'NONE', #152, .T. ) ;
#278 = CARTESIAN_POINT ( 'NONE',  ( 0.000000000000000000, 0.000000000000000000, 0.000000000000000000 ) ) ;
#279 = SURFACE_STYLE_FILL_AREA ( #47 ) ;
#280 = CARTESIAN_POINT ( 'NONE',  ( 0.000000000000000000, 0.000000000000000000, -0.1875000000000000278 ) ) ;
#281 = EDGE_CURVE ( 'NONE', #218, #37, #139, .T. ) ;
#282 =( GEOMETRIC_REPRESENTATION_CONTEXT ( 3 ) GLOBAL_UNCERTAINTY_ASSIGNED_CONTEXT ( ( #170 ) ) GLOBAL_UNIT_ASSIGNED_CONTEXT ( ( #273, #224, #46 ) ) REPRESENTATION_CONTEXT ( 'NONE', 'WORKASPACE' ) );
#283 = UNCERTAINTY_MEASURE_WITH_UNIT (LENGTH_MEASURE( 1.000000000000000082E-05 ), #121, 'distance_accuracy_value', 'NONE');
#284 = CARTESIAN_POINT ( 'NONE',  ( 6.123233995736772199E-17, 2.500000000000000000, 0.000000000000000000 ) ) ;
#285 = CYLINDRICAL_SURFACE ( 'NONE', #130, 0.1875000000000000278 ) ;
#286 = EDGE_CURVE ( 'NONE', #296, #37, #146, .T. ) ;
#287 = DIRECTION ( 'NONE',  ( -0.000000000000000000, -1.000000000000000000, -0.000000000000000000 ) ) ;
#288 = SURFACE_STYLE_FILL_AREA ( #53 ) ;
#289 = FACE_OUTER_BOUND ( 'NONE', #151, .T. ) ;
#290 = FACE_OUTER_BOUND ( 'NONE', #35, .T. ) ;
#291 = MANIFOLD_SOLID_BREP ( 'Revolve - Cutting Edge', #101 ) ;
#292 = CARTESIAN_POINT ( 'NONE',  ( 0.000000000000000000, 0.7500000000000001110, 0.000000000000000000 ) ) ;
#293 = ORIENTED_EDGE ( 'NONE', *, *, #241, .T. ) ;
#294 = EDGE_CURVE ( 'NONE', #192, #218, #122, .T. ) ;
#295 = LENGTH_MEASURE_WITH_UNIT ( LENGTH_MEASURE( 0.02539999999999999897 ), #98 );
#296 = VERTEX_POINT ( 'NONE', #276 ) ;
#297 = AXIS2_PLACEMENT_3D ( 'NONE', #155, #207, #157 ) ;
#298 = ORIENTED_EDGE ( 'NONE', *, *, #86, .F. ) ;
#299 = MANIFOLD_SOLID_BREP ( 'Revolve - Tool Body (Straight Shanked)', #49 ) ;
#300 =( NAMED_UNIT ( * ) SI_UNIT ( $, .STERADIAN. ) SOLID_ANGLE_UNIT ( ) );
#301 =( CONVERSION_BASED_UNIT ( 'INCH', #295 ) LENGTH_UNIT ( ) NAMED_UNIT ( #194 ) );
#302 = FILL_AREA_STYLE_COLOUR ( '', #172 ) ;
#303 = STYLED_ITEM ( 'NONE', ( #235 ), #291 ) ;
#304 = DIRECTION ( 'NONE',  ( 0.000000000000000000, 0.000000000000000000, -1.000000000000000000 ) ) ;
#305 = DIRECTION ( 'NONE',  ( 0.000000000000000000, 0.000000000000000000, -1.000000000000000000 ) ) ;
#306 = CARTESIAN_POINT ( 'NONE',  ( 0.000000000000000000, 0.000000000000000000, 0.000000000000000000 ) ) ;
#307 = CIRCLE ( 'NONE', #297, 0.1875000000000000278 ) ;
#308 = DIRECTION ( 'NONE',  ( 3.498990854706726443E-17, 1.000000000000000000, -0.000000000000000000 ) ) ;
#309 = DIRECTION ( 'NONE',  ( -0.000000000000000000, -1.000000000000000000, -0.000000000000000000 ) ) ;
ENDSEC;
END-ISO-10303-21;
