ISO-10303-21;
HEADER;
FILE_DESCRIPTION (( 'STEP AP214' ),
    '1' );
FILE_NAME ('Micro_BEM-156-04.STEP',
    '2021-09-03T13:03:40',
    ( '' ),
    ( '' ),
    'SwSTEP 2.0',
    'SolidWorks 2020',
    '' );
FILE_SCHEMA (( 'AUTOMOTIVE_DESIGN' ));
ENDSEC;

DATA;
#1 = EDGE_CURVE ( 'NONE', #274, #74, #52, .T. ) ;
#2 = FACE_OUTER_BOUND ( 'NONE', #220, .T. ) ;
#3 = UNCERTAINTY_MEASURE_WITH_UNIT (LENGTH_MEASURE( 1.000000000000000082E-05 ), #111, 'distance_accuracy_value', 'NONE');
#4 =( LENGTH_UNIT ( ) NAMED_UNIT ( * ) SI_UNIT ( $, .METRE. ) );
#5 = AXIS2_PLACEMENT_3D ( 'NONE', #7, #144, #93 ) ;
#6 = AXIS2_PLACEMENT_3D ( 'NONE', #173, #221, #314 ) ;
#7 = CARTESIAN_POINT ( 'NONE',  ( 9.554927009839488851E-18, 0.0000000000000000000, 0.07802190000000000514 ) ) ;
#8 = CARTESIAN_POINT ( 'NONE',  ( -0.07802189999999993575, 1.051799537592296220E-17, 0.5629999999999999449 ) ) ;
#9 = CYLINDRICAL_SURFACE ( 'NONE', #135, 0.07802190000000000514 ) ;
#10 = CARTESIAN_POINT ( 'NONE',  ( 9.554927009839488851E-18, 0.0000000000000000000, 0.07802190000000000514 ) ) ;
#11 = DIRECTION ( 'NONE',  ( 1.000000000000000000, 0.0000000000000000000, 0.0000000000000000000 ) ) ;
#12 = DIRECTION ( 'NONE',  ( -1.000000000000000000, 0.0000000000000000000, 2.188366338220633428E-16 ) ) ;
#13 = DIRECTION ( 'NONE',  ( -0.0000000000000000000, -0.0000000000000000000, -1.000000000000000000 ) ) ;
#14 = DIRECTION ( 'NONE',  ( -1.000000000000000000, 0.0000000000000000000, 0.0000000000000000000 ) ) ;
#15 = VERTEX_POINT ( 'NONE', #282 ) ;
#16 = EDGE_LOOP ( 'NONE', ( #295, #128, #125, #226 ) ) ;
#17 = ORIENTED_EDGE ( 'NONE', *, *, #55, .F. ) ;
#18 = ADVANCED_FACE ( 'NONE', ( #132 ), #152, .T. ) ;
#19 = ORIENTED_EDGE ( 'NONE', *, *, #35, .T. ) ;
#20 = VERTEX_POINT ( 'NONE', #133 ) ;
#21 = SURFACE_STYLE_USAGE ( .BOTH. , #325 ) ;
#22 = DIRECTION ( 'NONE',  ( 1.000000000000000000, 0.0000000000000000000, 0.0000000000000000000 ) ) ;
#23 = AXIS2_PLACEMENT_3D ( 'NONE', #277, #108, #82 ) ;
#24 = SPHERICAL_SURFACE ( 'NONE', #252, 0.07802190000000000514 ) ;
#25 = CONICAL_SURFACE ( 'NONE', #50, 0.07802190000000000514, 0.1745329251994338082 ) ;
#26 = VECTOR ( 'NONE', #288, 39.37007874015748143 ) ;
#27 = CARTESIAN_POINT ( 'NONE',  ( -0.07802189999999993575, 9.554927009839488851E-18, 0.5629999999999999449 ) ) ;
#28 = MANIFOLD_SOLID_BREP ( 'Fillet1', #248 ) ;
#29 = SPHERICAL_SURFACE ( 'NONE', #126, 0.07802190000000000514 ) ;
#30 = DIRECTION ( 'NONE',  ( 1.000000000000000000, 0.0000000000000000000, 0.0000000000000000000 ) ) ;
#31 = MECHANICAL_DESIGN_GEOMETRIC_PRESENTATION_REPRESENTATION (  '', ( #312 ), #192 ) ;
#32 = DIRECTION ( 'NONE',  ( 0.0000000000000000000, 0.0000000000000000000, 1.000000000000000000 ) ) ;
#33 = CARTESIAN_POINT ( 'NONE',  ( -0.07802190000000000514, 0.0000000000000000000, 9.554927009839488851E-18 ) ) ;
#34 =( NAMED_UNIT ( * ) PLANE_ANGLE_UNIT ( ) SI_UNIT ( $, .RADIAN. ) );
#35 = EDGE_CURVE ( 'NONE', #96, #150, #300, .T. ) ;
#36 = FACE_OUTER_BOUND ( 'NONE', #98, .T. ) ;
#37 = VECTOR ( 'NONE', #299, 39.37007874015748143 ) ;
#38 = EDGE_CURVE ( 'NONE', #196, #130, #280, .T. ) ;
#39 = DIRECTION ( 'NONE',  ( -1.224646799147353207E-16, -0.0000000000000000000, -1.000000000000000000 ) ) ;
#40 = PRODUCT_DEFINITION_CONTEXT ( 'detailed design', #117, 'design' ) ;
#41 = DIRECTION ( 'NONE',  ( -1.224646799147353207E-16, -0.0000000000000000000, -1.000000000000000000 ) ) ;
#42 = SURFACE_SIDE_STYLE ('',( #97 ) ) ;
#43 = PRESENTATION_LAYER_ASSIGNMENT (  '', '', ( #204 ) ) ;
#44 =( LENGTH_UNIT ( ) NAMED_UNIT ( * ) SI_UNIT ( $, .METRE. ) );
#45 = ORIENTED_EDGE ( 'NONE', *, *, #297, .T. ) ;
#46 = SHAPE_DEFINITION_REPRESENTATION ( #168, #56 ) ;
#47 = ORIENTED_EDGE ( 'NONE', *, *, #83, .T. ) ;
#48 = PRODUCT_RELATED_PRODUCT_CATEGORY ( 'part', '', ( #90 ) ) ;
#49 = ORIENTED_EDGE ( 'NONE', *, *, #227, .T. ) ;
#50 = AXIS2_PLACEMENT_3D ( 'NONE', #191, #292, #260 ) ;
#51 = ORIENTED_EDGE ( 'NONE', *, *, #285, .F. ) ;
#52 = LINE ( 'NONE', #27, #275 ) ;
#53 = ADVANCED_FACE ( 'NONE', ( #281 ), #29, .T. ) ;
#54 = ORIENTED_EDGE ( 'NONE', *, *, #262, .F. ) ;
#55 = EDGE_CURVE ( 'NONE', #74, #15, #230, .T. ) ;
#56 = ADVANCED_BREP_SHAPE_REPRESENTATION ( 'Micro_BEM-156-04', ( #28, #6 ), #253 ) ;
#57 = ADVANCED_FACE ( 'NONE', ( #134 ), #24, .T. ) ;
#58 = CARTESIAN_POINT ( 'NONE',  ( 0.0000000000000000000, 0.0000000000000000000, 2.000000000000000000 ) ) ;
#59 = FILL_AREA_STYLE_COLOUR ( '', #127 ) ;
#60 = DIRECTION ( 'NONE',  ( 1.224646799147353207E-16, 0.0000000000000000000, 1.000000000000000000 ) ) ;
#61 = LINE ( 'NONE', #259, #266 ) ;
#62 = AXIS2_PLACEMENT_3D ( 'NONE', #210, #159, #143 ) ;
#63 = LINE ( 'NONE', #161, #203 ) ;
#64 = LENGTH_MEASURE_WITH_UNIT ( LENGTH_MEASURE( 0.02539999999999999897 ), #185 );
#65 = DIRECTION ( 'NONE',  ( 1.000000000000000000, 0.0000000000000000000, 0.0000000000000000000 ) ) ;
#66 = DIRECTION ( 'NONE',  ( -1.000000000000000000, 0.0000000000000000000, 1.224646799147353207E-16 ) ) ;
#67 = DIRECTION ( 'NONE',  ( 0.0000000000000000000, -1.000000000000000000, 0.0000000000000000000 ) ) ;
#68 = CIRCLE ( 'NONE', #308, 0.07802190000000000514 ) ;
#69 = PRODUCT_DEFINITION ( 'UNKNOWN', '', #208, #40 ) ;
#70 = FACE_OUTER_BOUND ( 'NONE', #243, .T. ) ;
#71 = ORIENTED_EDGE ( 'NONE', *, *, #38, .T. ) ;
#72 = ORIENTED_EDGE ( 'NONE', *, *, #73, .T. ) ;
#73 = EDGE_CURVE ( 'NONE', #316, #15, #77, .T. ) ;
#74 = VERTEX_POINT ( 'NONE', #176 ) ;
#75 = VECTOR ( 'NONE', #162, 39.37007874015748143 ) ;
#76 = AXIS2_PLACEMENT_3D ( 'NONE', #268, #120, #218 ) ;
#77 = LINE ( 'NONE', #305, #37 ) ;
#78 = ORIENTED_EDGE ( 'NONE', *, *, #179, .F. ) ;
#79 = ADVANCED_FACE ( 'NONE', ( #2 ), #267, .T. ) ;
#80 = PRESENTATION_LAYER_ASSIGNMENT (  '', '', ( #312 ) ) ;
#81 =( NAMED_UNIT ( * ) SI_UNIT ( $, .STERADIAN. ) SOLID_ANGLE_UNIT ( ) );
#82 = DIRECTION ( 'NONE',  ( 1.000000000000000000, 0.0000000000000000000, 0.0000000000000000000 ) ) ;
#83 = EDGE_CURVE ( 'NONE', #316, #315, #63, .T. ) ;
#84 = DIRECTION ( 'NONE',  ( -1.224646799147353207E-16, -0.0000000000000000000, -1.000000000000000000 ) ) ;
#85 = DIRECTION ( 'NONE',  ( -0.0000000000000000000, -0.0000000000000000000, -1.000000000000000000 ) ) ;
#86 = CONICAL_SURFACE ( 'NONE', #224, 0.07874999999999980627, 0.7853981633974466137 ) ;
#87 = CARTESIAN_POINT ( 'NONE',  ( 0.0000000000000000000, 0.0000000000000000000, 2.000000000000000000 ) ) ;
#88 = EDGE_CURVE ( 'NONE', #274, #174, #233, .T. ) ;
#89 = CARTESIAN_POINT ( 'NONE',  ( 0.07874999999999980627, 1.056257864264590573E-17, 2.000000000000000000 ) ) ;
#90 = PRODUCT ( 'Micro_BEM-156-04', 'Micro_BEM-156-04', '', ( #197 ) ) ;
#91 = CARTESIAN_POINT ( 'NONE',  ( -0.09375000000000001388, 0.0000000000000000000, 2.000000000000000000 ) ) ;
#92 = CIRCLE ( 'NONE', #171, 0.07802190000000000514 ) ;
#93 = DIRECTION ( 'NONE',  ( -1.000000000000000000, 0.0000000000000000000, 2.188366338220633428E-16 ) ) ;
#94 = DIMENSIONAL_EXPONENTS ( 1.000000000000000000, 0.0000000000000000000, 0.0000000000000000000, 0.0000000000000000000, 0.0000000000000000000, 0.0000000000000000000, 0.0000000000000000000 ) ;
#95 = ORIENTED_EDGE ( 'NONE', *, *, #99, .T. ) ;
#96 = VERTEX_POINT ( 'NONE', #140 ) ;
#97 = SURFACE_STYLE_FILL_AREA ( #187 ) ;
#98 = EDGE_LOOP ( 'NONE', ( #200, #272, #49, #273 ) ) ;
#99 = EDGE_CURVE ( 'NONE', #130, #196, #170, .T. ) ;
#100 = ORIENTED_EDGE ( 'NONE', *, *, #88, .F. ) ;
#101 = CARTESIAN_POINT ( 'NONE',  ( 9.554927009839488851E-18, 0.0000000000000000000, 0.07802190000000000514 ) ) ;
#102 = VECTOR ( 'NONE', #188, 39.37007874015748143 ) ;
#103 =( GEOMETRIC_REPRESENTATION_CONTEXT ( 3 ) GLOBAL_UNCERTAINTY_ASSIGNED_CONTEXT ( ( #215 ) ) GLOBAL_UNIT_ASSIGNED_CONTEXT ( ( #293, #149, #269 ) ) REPRESENTATION_CONTEXT ( 'NONE', 'WORKASPACE' ) );
#104 = DIRECTION ( 'NONE',  ( 0.0000000000000000000, 1.000000000000000000, 0.0000000000000000000 ) ) ;
#105 =( NAMED_UNIT ( * ) PLANE_ANGLE_UNIT ( ) SI_UNIT ( $, .RADIAN. ) );
#106 = ADVANCED_FACE ( 'NONE', ( #287 ), #9, .T. ) ;
#107 = AXIS2_PLACEMENT_3D ( 'NONE', #157, #256, #30 ) ;
#108 = DIRECTION ( 'NONE',  ( 0.0000000000000000000, 0.0000000000000000000, 1.000000000000000000 ) ) ;
#109 = DIRECTION ( 'NONE',  ( -1.000000000000000000, 0.0000000000000000000, 0.0000000000000000000 ) ) ;
#110 = CARTESIAN_POINT ( 'NONE',  ( 0.0000000000000000000, 0.0000000000000000000, 0.0000000000000000000 ) ) ;
#111 =( CONVERSION_BASED_UNIT ( 'INCH', #64 ) LENGTH_UNIT ( ) NAMED_UNIT ( #286 ) );
#112 = DIRECTION ( 'NONE',  ( -1.224646799147353207E-16, -0.0000000000000000000, -1.000000000000000000 ) ) ;
#113 = AXIS2_PLACEMENT_3D ( 'NONE', #10, #183, #12 ) ;
#114 = LINE ( 'NONE', #261, #26 ) ;
#115 = DIRECTION ( 'NONE',  ( 0.0000000000000000000, 0.0000000000000000000, -1.000000000000000000 ) ) ;
#116 = ADVANCED_FACE ( 'NONE', ( #36 ), #237, .T. ) ;
#117 = APPLICATION_CONTEXT ( 'automotive_design' ) ;
#118 = CARTESIAN_POINT ( 'NONE',  ( 0.07874999999999980627, 9.644093543285380530E-18, 2.000000000000000000 ) ) ;
#119 = ADVANCED_FACE ( 'NONE', ( #264 ), #86, .T. ) ;
#120 = DIRECTION ( 'NONE',  ( 0.0000000000000000000, 0.0000000000000000000, -1.000000000000000000 ) ) ;
#121 = ORIENTED_EDGE ( 'NONE', *, *, #83, .F. ) ;
#122 = ORIENTED_EDGE ( 'NONE', *, *, #160, .T. ) ;
#123 = SURFACE_STYLE_USAGE ( .BOTH. , #42 ) ;
#124 = ORIENTED_EDGE ( 'NONE', *, *, #285, .T. ) ;
#125 = ORIENTED_EDGE ( 'NONE', *, *, #35, .F. ) ;
#126 = AXIS2_PLACEMENT_3D ( 'NONE', #129, #104, #22 ) ;
#127 = COLOUR_RGB ( '',0.7921568627450980005, 0.8196078431372548767, 0.9333333333333333481 ) ;
#128 = ORIENTED_EDGE ( 'NONE', *, *, #156, .T. ) ;
#129 = CARTESIAN_POINT ( 'NONE',  ( 9.554927009839488851E-18, 0.0000000000000000000, 0.07802190000000000514 ) ) ;
#130 = VERTEX_POINT ( 'NONE', #209 ) ;
#131 = AXIS2_PLACEMENT_3D ( 'NONE', #153, #302, #181 ) ;
#132 = FACE_OUTER_BOUND ( 'NONE', #321, .T. ) ;
#133 = CARTESIAN_POINT ( 'NONE',  ( 1.433239051475923482E-17, 0.0000000000000000000, 0.0000000000000000000 ) ) ;
#134 = FACE_OUTER_BOUND ( 'NONE', #147, .T. ) ;
#135 = AXIS2_PLACEMENT_3D ( 'NONE', #110, #39, #66 ) ;
#136 = CARTESIAN_POINT ( 'NONE',  ( 6.894761479199598081E-17, 0.0000000000000000000, 0.5629999999999999449 ) ) ;
#137 = AXIS2_PLACEMENT_3D ( 'NONE', #290, #67, #138 ) ;
#138 = DIRECTION ( 'NONE',  ( 0.0000000000000000000, 0.0000000000000000000, -1.000000000000000000 ) ) ;
#139 = CARTESIAN_POINT ( 'NONE',  ( 0.09375000000000001388, 1.148106374200643863E-17, 1.984999999999999654 ) ) ;
#140 = CARTESIAN_POINT ( 'NONE',  ( -0.09375000000000001388, 0.0000000000000000000, 1.984999999999999654 ) ) ;
#141 = CARTESIAN_POINT ( 'NONE',  ( 0.0000000000000000000, 0.0000000000000000000, 2.000000000000000000 ) ) ;
#142 = CIRCLE ( 'NONE', #137, 0.07802190000000000514 ) ;
#143 = DIRECTION ( 'NONE',  ( -1.000000000000000000, 0.0000000000000000000, 0.0000000000000000000 ) ) ;
#144 = DIRECTION ( 'NONE',  ( 1.224646799147353207E-16, 0.0000000000000000000, 1.000000000000000000 ) ) ;
#145 = PRESENTATION_STYLE_ASSIGNMENT (( #123 ) ) ;
#146 = ORIENTED_EDGE ( 'NONE', *, *, #55, .T. ) ;
#147 = EDGE_LOOP ( 'NONE', ( #177, #124, #323 ) ) ;
#148 = ORIENTED_EDGE ( 'NONE', *, *, #257, .T. ) ;
#149 =( NAMED_UNIT ( * ) PLANE_ANGLE_UNIT ( ) SI_UNIT ( $, .RADIAN. ) );
#150 = VERTEX_POINT ( 'NONE', #139 ) ;
#151 = AXIS2_PLACEMENT_3D ( 'NONE', #58, #155, #279 ) ;
#152 = PLANE ( 'NONE',  #151 ) ;
#153 = CARTESIAN_POINT ( 'NONE',  ( 0.0000000000000000000, 0.0000000000000000000, 1.984999999999999654 ) ) ;
#154 = CIRCLE ( 'NONE', #113, 0.07802190000000000514 ) ;
#155 = DIRECTION ( 'NONE',  ( 0.0000000000000000000, 0.0000000000000000000, 1.000000000000000000 ) ) ;
#156 = EDGE_CURVE ( 'NONE', #196, #150, #239, .T. ) ;
#157 = CARTESIAN_POINT ( 'NONE',  ( 0.0000000000000000000, 0.0000000000000000000, 1.984999999999999654 ) ) ;
#158 = CARTESIAN_POINT ( 'NONE',  ( 7.987127902323220081E-17, 0.0000000000000000000, 0.6521984875871288390 ) ) ;
#159 = DIRECTION ( 'NONE',  ( -0.0000000000000000000, -0.0000000000000000000, -1.000000000000000000 ) ) ;
#160 = EDGE_CURVE ( 'NONE', #15, #74, #242, .T. ) ;
#161 = CARTESIAN_POINT ( 'NONE',  ( 0.07802190000000000514, 9.554927009839488851E-18, -9.554927009839488851E-18 ) ) ;
#162 = DIRECTION ( 'NONE',  ( -1.224646799147353207E-16, -0.0000000000000000000, -1.000000000000000000 ) ) ;
#163 = AXIS2_PLACEMENT_3D ( 'NONE', #158, #186, #11 ) ;
#164 = ADVANCED_FACE ( 'NONE', ( #235 ), #271, .T. ) ;
#165 = DIRECTION ( 'NONE',  ( -1.000000000000000000, 1.224646799147353207E-16, 0.0000000000000000000 ) ) ;
#166 = LENGTH_MEASURE_WITH_UNIT ( LENGTH_MEASURE( 0.02539999999999999897 ), #44 );
#167 = ORIENTED_EDGE ( 'NONE', *, *, #195, .T. ) ;
#168 = PRODUCT_DEFINITION_SHAPE ( 'NONE', 'NONE',  #69 ) ;
#169 = ORIENTED_EDGE ( 'NONE', *, *, #156, .F. ) ;
#170 = CIRCLE ( 'NONE', #318, 0.07874999999999980627 ) ;
#171 = AXIS2_PLACEMENT_3D ( 'NONE', #313, #241, #165 ) ;
#172 = EDGE_LOOP ( 'NONE', ( #19, #45, #17, #270 ) ) ;
#173 = CARTESIAN_POINT ( 'NONE',  ( 0.0000000000000000000, 0.0000000000000000000, 0.0000000000000000000 ) ) ;
#174 = VERTEX_POINT ( 'NONE', #306 ) ;
#175 = ORIENTED_EDGE ( 'NONE', *, *, #1, .F. ) ;
#176 = CARTESIAN_POINT ( 'NONE',  ( -0.09374999999999991673, 0.0000000000000000000, 0.6521984875871288390 ) ) ;
#177 = ORIENTED_EDGE ( 'NONE', *, *, #257, .F. ) ;
#178 = ORIENTED_EDGE ( 'NONE', *, *, #246, .F. ) ;
#179 = EDGE_CURVE ( 'NONE', #274, #316, #68, .T. ) ;
#180 = COLOUR_RGB ( '',0.7921568627450980005, 0.8196078431372548767, 0.9333333333333333481 ) ;
#181 = DIRECTION ( 'NONE',  ( 1.000000000000000000, 0.0000000000000000000, 0.0000000000000000000 ) ) ;
#182 = DIMENSIONAL_EXPONENTS ( 1.000000000000000000, 0.0000000000000000000, 0.0000000000000000000, 0.0000000000000000000, 0.0000000000000000000, 0.0000000000000000000, 0.0000000000000000000 ) ;
#183 = DIRECTION ( 'NONE',  ( 1.224646799147353207E-16, 0.0000000000000000000, 1.000000000000000000 ) ) ;
#184 = UNCERTAINTY_MEASURE_WITH_UNIT (LENGTH_MEASURE( 1.000000000000000082E-05 ), #255, 'distance_accuracy_value', 'NONE');
#185 =( LENGTH_UNIT ( ) NAMED_UNIT ( * ) SI_UNIT ( $, .METRE. ) );
#186 = DIRECTION ( 'NONE',  ( -1.224646799147353207E-16, -0.0000000000000000000, -1.000000000000000000 ) ) ;
#187 = FILL_AREA_STYLE ('',( #59 ) ) ;
#188 = DIRECTION ( 'NONE',  ( -0.0000000000000000000, -0.0000000000000000000, -1.000000000000000000 ) ) ;
#189 = CARTESIAN_POINT ( 'NONE',  ( 0.07802190000000001902, 9.554927009839488851E-18, 0.07802189999999999126 ) ) ;
#190 = FACE_OUTER_BOUND ( 'NONE', #245, .T. ) ;
#191 = CARTESIAN_POINT ( 'NONE',  ( 6.894761479199598081E-17, 0.0000000000000000000, 0.5629999999999999449 ) ) ;
#192 =( GEOMETRIC_REPRESENTATION_CONTEXT ( 3 ) GLOBAL_UNCERTAINTY_ASSIGNED_CONTEXT ( ( #184 ) ) GLOBAL_UNIT_ASSIGNED_CONTEXT ( ( #255, #105, #81 ) ) REPRESENTATION_CONTEXT ( 'NONE', 'WORKASPACE' ) );
#193 = CARTESIAN_POINT ( 'NONE',  ( 6.894761479199598081E-17, 0.0000000000000000000, 0.5629999999999999449 ) ) ;
#194 = ORIENTED_EDGE ( 'NONE', *, *, #88, .T. ) ;
#195 = EDGE_CURVE ( 'NONE', #315, #174, #154, .T. ) ;
#196 = VERTEX_POINT ( 'NONE', #89 ) ;
#197 = PRODUCT_CONTEXT ( 'NONE', #263, 'mechanical' ) ;
#198 = EDGE_LOOP ( 'NONE', ( #219, #47, #167, #100 ) ) ;
#199 = ORIENTED_EDGE ( 'NONE', *, *, #247, .T. ) ;
#200 = ORIENTED_EDGE ( 'NONE', *, *, #297, .F. ) ;
#201 = ADVANCED_FACE ( 'NONE', ( #190 ), #25, .T. ) ;
#202 = DIRECTION ( 'NONE',  ( 1.000000000000000000, 0.0000000000000000000, 0.0000000000000000000 ) ) ;
#203 = VECTOR ( 'NONE', #258, 39.37007874015748143 ) ;
#204 = STYLED_ITEM ( 'NONE', ( #145 ), #56 ) ;
#205 = DIRECTION ( 'NONE',  ( -0.1736481776669311083, 2.126576849575782084E-17, 0.9848077530122080203 ) ) ;
#206 = ADVANCED_FACE ( 'NONE', ( #289 ), #213, .T. ) ;
#207 = AXIS2_PLACEMENT_3D ( 'NONE', #136, #60, #240 ) ;
#208 = PRODUCT_DEFINITION_FORMATION_WITH_SPECIFIED_SOURCE ( 'ANY', '', #90, .NOT_KNOWN. ) ;
#209 = CARTESIAN_POINT ( 'NONE',  ( -0.07874999999999980627, 0.0000000000000000000, 2.000000000000000000 ) ) ;
#210 = CARTESIAN_POINT ( 'NONE',  ( 0.0000000000000000000, 0.0000000000000000000, 2.000000000000000000 ) ) ;
#211 = AXIS2_PLACEMENT_3D ( 'NONE', #307, #112, #309 ) ;
#212 = AXIS2_PLACEMENT_3D ( 'NONE', #228, #324, #301 ) ;
#213 = CYLINDRICAL_SURFACE ( 'NONE', #238, 0.09375000000000001388 ) ;
#214 = CARTESIAN_POINT ( 'NONE',  ( 6.894761479199598081E-17, 0.0000000000000000000, 0.5629999999999999449 ) ) ;
#215 = UNCERTAINTY_MEASURE_WITH_UNIT (LENGTH_MEASURE( 1.000000000000000082E-05 ), #293, 'distance_accuracy_value', 'NONE');
#216 = CARTESIAN_POINT ( 'NONE',  ( 0.0000000000000000000, 0.0000000000000000000, 2.000000000000000000 ) ) ;
#217 = APPLICATION_PROTOCOL_DEFINITION ( 'draft international standard', 'automotive_design', 1998, #263 ) ;
#218 = DIRECTION ( 'NONE',  ( -1.000000000000000000, 0.0000000000000000000, 0.0000000000000000000 ) ) ;
#219 = ORIENTED_EDGE ( 'NONE', *, *, #179, .T. ) ;
#220 = EDGE_LOOP ( 'NONE', ( #121, #223, #194, #199 ) ) ;
#221 = DIRECTION ( 'NONE',  ( 0.0000000000000000000, 0.0000000000000000000, 1.000000000000000000 ) ) ;
#222 = EDGE_LOOP ( 'NONE', ( #175, #54, #72, #122 ) ) ;
#223 = ORIENTED_EDGE ( 'NONE', *, *, #262, .T. ) ;
#224 = AXIS2_PLACEMENT_3D ( 'NONE', #141, #115, #109 ) ;
#225 = CIRCLE ( 'NONE', #244, 0.07802190000000000514 ) ;
#226 = ORIENTED_EDGE ( 'NONE', *, *, #322, .F. ) ;
#227 = EDGE_CURVE ( 'NONE', #96, #74, #284, .T. ) ;
#228 = CARTESIAN_POINT ( 'NONE',  ( 7.987127902323220081E-17, 0.0000000000000000000, 0.6521984875871288390 ) ) ;
#229 = FILL_AREA_STYLE ('',( #232 ) ) ;
#230 = CIRCLE ( 'NONE', #212, 0.09375000000000001388 ) ;
#231 = PRESENTATION_STYLE_ASSIGNMENT (( #21 ) ) ;
#232 = FILL_AREA_STYLE_COLOUR ( '', #180 ) ;
#233 = LINE ( 'NONE', #33, #75 ) ;
#234 = CARTESIAN_POINT ( 'NONE',  ( 0.07802190000000007453, 0.0000000000000000000, 0.5629999999999999449 ) ) ;
#235 = FACE_OUTER_BOUND ( 'NONE', #222, .T. ) ;
#236 =( NAMED_UNIT ( * ) SI_UNIT ( $, .STERADIAN. ) SOLID_ANGLE_UNIT ( ) );
#237 = CYLINDRICAL_SURFACE ( 'NONE', #62, 0.09375000000000001388 ) ;
#238 = AXIS2_PLACEMENT_3D ( 'NONE', #216, #85, #311 ) ;
#239 = LINE ( 'NONE', #118, #303 ) ;
#240 = DIRECTION ( 'NONE',  ( 1.000000000000000000, 0.0000000000000000000, 0.0000000000000000000 ) ) ;
#241 = DIRECTION ( 'NONE',  ( 1.224646799147353207E-16, 1.000000000000000000, -0.0000000000000000000 ) ) ;
#242 = CIRCLE ( 'NONE', #163, 0.09375000000000001388 ) ;
#243 = EDGE_LOOP ( 'NONE', ( #169, #294, #276, #178 ) ) ;
#244 = AXIS2_PLACEMENT_3D ( 'NONE', #193, #41, #14 ) ;
#245 = EDGE_LOOP ( 'NONE', ( #78, #296, #146, #317 ) ) ;
#246 = EDGE_CURVE ( 'NONE', #150, #96, #249, .T. ) ;
#247 = EDGE_CURVE ( 'NONE', #174, #315, #291, .T. ) ;
#248 = CLOSED_SHELL ( 'NONE', ( #53, #106, #201, #119, #206, #116, #18, #265, #164, #79, #57 ) ) ;
#249 = CIRCLE ( 'NONE', #107, 0.09375000000000001388 ) ;
#250 = DIRECTION ( 'NONE',  ( 0.0000000000000000000, 1.000000000000000000, 0.0000000000000000000 ) ) ;
#251 = SURFACE_STYLE_FILL_AREA ( #229 ) ;
#252 = AXIS2_PLACEMENT_3D ( 'NONE', #101, #250, #202 ) ;
#253 =( GEOMETRIC_REPRESENTATION_CONTEXT ( 3 ) GLOBAL_UNCERTAINTY_ASSIGNED_CONTEXT ( ( #3 ) ) GLOBAL_UNIT_ASSIGNED_CONTEXT ( ( #111, #34, #236 ) ) REPRESENTATION_CONTEXT ( 'NONE', 'WORKASPACE' ) );
#254 = ORIENTED_EDGE ( 'NONE', *, *, #195, .F. ) ;
#255 =( CONVERSION_BASED_UNIT ( 'INCH', #278 ) LENGTH_UNIT ( ) NAMED_UNIT ( #94 ) );
#256 = DIRECTION ( 'NONE',  ( 0.0000000000000000000, 0.0000000000000000000, -1.000000000000000000 ) ) ;
#257 = EDGE_CURVE ( 'NONE', #20, #174, #92, .T. ) ;
#258 = DIRECTION ( 'NONE',  ( -1.224646799147353207E-16, -0.0000000000000000000, -1.000000000000000000 ) ) ;
#259 = CARTESIAN_POINT ( 'NONE',  ( 0.09375000000000001388, 1.148106374200643863E-17, 2.000000000000000000 ) ) ;
#260 = DIRECTION ( 'NONE',  ( 1.000000000000000000, 0.0000000000000000000, 0.0000000000000000000 ) ) ;
#261 = CARTESIAN_POINT ( 'NONE',  ( -0.07874999999999980627, 0.0000000000000000000, 2.000000000000000000 ) ) ;
#262 = EDGE_CURVE ( 'NONE', #316, #274, #225, .T. ) ;
#263 = APPLICATION_CONTEXT ( 'automotive_design' ) ;
#264 = FACE_OUTER_BOUND ( 'NONE', #16, .T. ) ;
#265 = ADVANCED_FACE ( 'NONE', ( #70 ), #319, .T. ) ;
#266 = VECTOR ( 'NONE', #13, 39.37007874015748143 ) ;
#267 = CYLINDRICAL_SURFACE ( 'NONE', #211, 0.07802190000000000514 ) ;
#268 = CARTESIAN_POINT ( 'NONE',  ( 0.0000000000000000000, 0.0000000000000000000, 2.000000000000000000 ) ) ;
#269 =( NAMED_UNIT ( * ) SI_UNIT ( $, .STERADIAN. ) SOLID_ANGLE_UNIT ( ) );
#270 = ORIENTED_EDGE ( 'NONE', *, *, #227, .F. ) ;
#271 = CONICAL_SURFACE ( 'NONE', #207, 0.07802190000000000514, 0.1745329251994338082 ) ;
#272 = ORIENTED_EDGE ( 'NONE', *, *, #246, .T. ) ;
#273 = ORIENTED_EDGE ( 'NONE', *, *, #160, .F. ) ;
#274 = VERTEX_POINT ( 'NONE', #8 ) ;
#275 = VECTOR ( 'NONE', #205, 39.37007874015747433 ) ;
#276 = ORIENTED_EDGE ( 'NONE', *, *, #322, .T. ) ;
#277 = CARTESIAN_POINT ( 'NONE',  ( 0.0000000000000000000, 0.0000000000000000000, 2.000000000000000000 ) ) ;
#278 = LENGTH_MEASURE_WITH_UNIT ( LENGTH_MEASURE( 0.02539999999999999897 ), #4 );
#279 = DIRECTION ( 'NONE',  ( 1.000000000000000000, 0.0000000000000000000, -0.0000000000000000000 ) ) ;
#280 = CIRCLE ( 'NONE', #23, 0.07874999999999980627 ) ;
#281 = FACE_OUTER_BOUND ( 'NONE', #298, .T. ) ;
#282 = CARTESIAN_POINT ( 'NONE',  ( 0.09375000000000009714, 1.148106374200644787E-17, 0.6521984875871288390 ) ) ;
#283 = DIRECTION ( 'NONE',  ( 0.7071067811865463515, 8.659560562354916834E-17, -0.7071067811865486830 ) ) ;
#284 = LINE ( 'NONE', #91, #102 ) ;
#285 = EDGE_CURVE ( 'NONE', #20, #315, #142, .T. ) ;
#286 = DIMENSIONAL_EXPONENTS ( 1.000000000000000000, 0.0000000000000000000, 0.0000000000000000000, 0.0000000000000000000, 0.0000000000000000000, 0.0000000000000000000, 0.0000000000000000000 ) ;
#287 = FACE_OUTER_BOUND ( 'NONE', #198, .T. ) ;
#288 = DIRECTION ( 'NONE',  ( -0.7071067811865463515, 0.0000000000000000000, -0.7071067811865486830 ) ) ;
#289 = FACE_OUTER_BOUND ( 'NONE', #172, .T. ) ;
#290 = CARTESIAN_POINT ( 'NONE',  ( 9.554927009839488851E-18, 0.0000000000000000000, 0.07802190000000000514 ) ) ;
#291 = CIRCLE ( 'NONE', #5, 0.07802190000000000514 ) ;
#292 = DIRECTION ( 'NONE',  ( 1.224646799147353207E-16, 0.0000000000000000000, 1.000000000000000000 ) ) ;
#293 =( CONVERSION_BASED_UNIT ( 'INCH', #166 ) LENGTH_UNIT ( ) NAMED_UNIT ( #182 ) );
#294 = ORIENTED_EDGE ( 'NONE', *, *, #99, .F. ) ;
#295 = ORIENTED_EDGE ( 'NONE', *, *, #38, .F. ) ;
#296 = ORIENTED_EDGE ( 'NONE', *, *, #1, .T. ) ;
#297 = EDGE_CURVE ( 'NONE', #150, #15, #61, .T. ) ;
#298 = EDGE_LOOP ( 'NONE', ( #51, #148, #254 ) ) ;
#299 = DIRECTION ( 'NONE',  ( 0.1736481776669313026, 0.0000000000000000000, 0.9848077530122077983 ) ) ;
#300 = CIRCLE ( 'NONE', #131, 0.09375000000000001388 ) ;
#301 = DIRECTION ( 'NONE',  ( 1.000000000000000000, 0.0000000000000000000, 0.0000000000000000000 ) ) ;
#302 = DIRECTION ( 'NONE',  ( 0.0000000000000000000, 0.0000000000000000000, -1.000000000000000000 ) ) ;
#303 = VECTOR ( 'NONE', #283, 39.37007874015748143 ) ;
#304 = MECHANICAL_DESIGN_GEOMETRIC_PRESENTATION_REPRESENTATION (  '', ( #204 ), #103 ) ;
#305 = CARTESIAN_POINT ( 'NONE',  ( 0.07802190000000007453, 0.0000000000000000000, 0.5629999999999999449 ) ) ;
#306 = CARTESIAN_POINT ( 'NONE',  ( -0.07802189999999999126, 0.0000000000000000000, 0.07802190000000001902 ) ) ;
#307 = CARTESIAN_POINT ( 'NONE',  ( 0.0000000000000000000, 0.0000000000000000000, 0.0000000000000000000 ) ) ;
#308 = AXIS2_PLACEMENT_3D ( 'NONE', #214, #84, #310 ) ;
#309 = DIRECTION ( 'NONE',  ( -1.000000000000000000, 0.0000000000000000000, 1.224646799147353207E-16 ) ) ;
#310 = DIRECTION ( 'NONE',  ( -1.000000000000000000, 0.0000000000000000000, 0.0000000000000000000 ) ) ;
#311 = DIRECTION ( 'NONE',  ( -1.000000000000000000, 0.0000000000000000000, 0.0000000000000000000 ) ) ;
#312 = STYLED_ITEM ( 'NONE', ( #231 ), #28 ) ;
#313 = CARTESIAN_POINT ( 'NONE',  ( 9.554927009839488851E-18, 0.0000000000000000000, 0.07802190000000000514 ) ) ;
#314 = DIRECTION ( 'NONE',  ( 1.000000000000000000, 0.0000000000000000000, 0.0000000000000000000 ) ) ;
#315 = VERTEX_POINT ( 'NONE', #189 ) ;
#316 = VERTEX_POINT ( 'NONE', #234 ) ;
#317 = ORIENTED_EDGE ( 'NONE', *, *, #73, .F. ) ;
#318 = AXIS2_PLACEMENT_3D ( 'NONE', #87, #32, #65 ) ;
#319 = CONICAL_SURFACE ( 'NONE', #76, 0.07874999999999980627, 0.7853981633974466137 ) ;
#320 = APPLICATION_PROTOCOL_DEFINITION ( 'draft international standard', 'automotive_design', 1998, #117 ) ;
#321 = EDGE_LOOP ( 'NONE', ( #95, #71 ) ) ;
#322 = EDGE_CURVE ( 'NONE', #130, #96, #114, .T. ) ;
#323 = ORIENTED_EDGE ( 'NONE', *, *, #247, .F. ) ;
#324 = DIRECTION ( 'NONE',  ( -1.224646799147353207E-16, -0.0000000000000000000, -1.000000000000000000 ) ) ;
#325 = SURFACE_SIDE_STYLE ('',( #251 ) ) ;
ENDSEC;
END-ISO-10303-21;
