ISO-10303-21;
HEADER;
FILE_DESCRIPTION (( 'STEP AP214' ),
    '1' );
FILE_NAME ('03675.STEP',
    '2023-06-22T15:38:10',
    ( '' ),
    ( '' ),
    'SwSTEP 2.0',
    'SolidWorks 2023',
    '' );
FILE_SCHEMA (( 'AUTOMOTIVE_DESIGN' ));
ENDSEC;

DATA;
#1 = PLANE ( 'NONE',  #24 ) ;
#2 = PRODUCT_CONTEXT ( 'NONE', #108, 'mechanical' ) ;
#3 = ADVANCED_FACE ( 'NONE', ( #261 ), #67, .T. ) ;
#4 =( GEOMETRIC_REPRESENTATION_CONTEXT ( 3 ) GLOBAL_UNCERTAINTY_ASSIGNED_CONTEXT ( ( #33 ) ) GLOBAL_UNIT_ASSIGNED_CONTEXT ( ( #13, #45, #239 ) ) REPRESENTATION_CONTEXT ( 'NONE', 'WORKASPACE' ) );
#5 = FACE_OUTER_BOUND ( 'NONE', #278, .T. ) ;
#6 =( NAMED_UNIT ( * ) PLANE_ANGLE_UNIT ( ) SI_UNIT ( $, .RADIAN. ) );
#7 = CYLINDRICAL_SURFACE ( 'NONE', #113, 0.3750000000000001110 ) ;
#8 = ORIENTED_EDGE ( 'NONE', *, *, #306, .T. ) ;
#9 = AXIS2_PLACEMENT_3D ( 'NONE', #279, #260, #12 ) ;
#10 = CARTESIAN_POINT ( 'NONE',  ( -0.3750000000000002776, 5.000000000000000000, 0.000000000000000000 ) ) ;
#11 = MANIFOLD_SOLID_BREP ( 'Revolve - Cutting Edge', #285 ) ;
#12 = DIRECTION ( 'NONE',  ( 0.000000000000000000, 0.000000000000000000, -1.000000000000000000 ) ) ;
#13 =( CONVERSION_BASED_UNIT ( 'INCH', #265 ) LENGTH_UNIT ( ) NAMED_UNIT ( #287 ) );
#14 =( NAMED_UNIT ( * ) SI_UNIT ( $, .STERADIAN. ) SOLID_ANGLE_UNIT ( ) );
#15 = FILL_AREA_STYLE_COLOUR ( '', #90 ) ;
#16 = PRODUCT_DEFINITION_FORMATION_WITH_SPECIFIED_SOURCE ( 'ANY', '', #298, .NOT_KNOWN. ) ;
#17 = PLANE ( 'NONE',  #205 ) ;
#18 = DIRECTION ( 'NONE',  ( -0.000000000000000000, -1.000000000000000000, -0.000000000000000000 ) ) ;
#19 = ORIENTED_EDGE ( 'NONE', *, *, #288, .F. ) ;
#20 = ORIENTED_EDGE ( 'NONE', *, *, #288, .T. ) ;
#21 = COLOUR_RGB ( '',1.000000000000000000, 0.000000000000000000, 0.000000000000000000 ) ;
#22 = SURFACE_STYLE_USAGE ( .BOTH. , #244 ) ;
#23 = FILL_AREA_STYLE_COLOUR ( '', #21 ) ;
#24 = AXIS2_PLACEMENT_3D ( 'NONE', #149, #99, #250 ) ;
#25 = FILL_AREA_STYLE ('',( #118 ) ) ;
#26 = DIRECTION ( 'NONE',  ( -1.000000000000000000, 0.000000000000000000, 0.000000000000000000 ) ) ;
#27 = EDGE_LOOP ( 'NONE', ( #127, #259, #19, #280 ) ) ;
#28 = CARTESIAN_POINT ( 'NONE',  ( 4.592425496802575451E-17, 0.000000000000000000, 0.3750000000000000555 ) ) ;
#29 = EDGE_LOOP ( 'NONE', ( #89, #179, #8, #104 ) ) ;
#30 =( GEOMETRIC_REPRESENTATION_CONTEXT ( 3 ) GLOBAL_UNCERTAINTY_ASSIGNED_CONTEXT ( ( #227 ) ) GLOBAL_UNIT_ASSIGNED_CONTEXT ( ( #132, #263, #194 ) ) REPRESENTATION_CONTEXT ( 'NONE', 'WORKASPACE' ) );
#31 = PRESENTATION_LAYER_ASSIGNMENT (  '', '', ( #176 ) ) ;
#32 = PRESENTATION_STYLE_ASSIGNMENT (( #105 ) ) ;
#33 = UNCERTAINTY_MEASURE_WITH_UNIT (LENGTH_MEASURE( 1.000000000000000082E-05 ), #13, 'distance_accuracy_value', 'NONE');
#34 = FACE_OUTER_BOUND ( 'NONE', #305, .T. ) ;
#35 =( NAMED_UNIT ( * ) SI_UNIT ( $, .STERADIAN. ) SOLID_ANGLE_UNIT ( ) );
#36 = ORIENTED_EDGE ( 'NONE', *, *, #294, .T. ) ;
#37 = COLOUR_RGB ( '',0.7921568627450980005, 0.8196078431372548767, 0.9333333333333333481 ) ;
#38 = DIRECTION ( 'NONE',  ( -0.000000000000000000, -1.000000000000000000, -0.000000000000000000 ) ) ;
#39 = VERTEX_POINT ( 'NONE', #190 ) ;
#40 = PRESENTATION_STYLE_ASSIGNMENT (( #93 ) ) ;
#41 = EDGE_LOOP ( 'NONE', ( #36, #122 ) ) ;
#42 = SURFACE_SIDE_STYLE ('',( #215 ) ) ;
#43 = CIRCLE ( 'NONE', #251, 0.3750000000000001665 ) ;
#44 = CARTESIAN_POINT ( 'NONE',  ( 0.000000000000000000, 0.000000000000000000, -0.3750000000000000555 ) ) ;
#45 =( NAMED_UNIT ( * ) PLANE_ANGLE_UNIT ( ) SI_UNIT ( $, .RADIAN. ) );
#46 = EDGE_CURVE ( 'NONE', #80, #147, #65, .T. ) ;
#47 = DIRECTION ( 'NONE',  ( -4.453261087808557677E-17, 1.000000000000000000, -0.000000000000000000 ) ) ;
#48 = ORIENTED_EDGE ( 'NONE', *, *, #46, .F. ) ;
#49 = DIRECTION ( 'NONE',  ( -4.453261087808557677E-17, 1.000000000000000000, -0.000000000000000000 ) ) ;
#50 = PRODUCT_DEFINITION_CONTEXT ( 'detailed design', #212, 'design' ) ;
#51 = ADVANCED_FACE ( 'NONE', ( #5 ), #140, .F. ) ;
#52 = MECHANICAL_DESIGN_GEOMETRIC_PRESENTATION_REPRESENTATION (  '', ( #176 ), #79 ) ;
#53 = DIRECTION ( 'NONE',  ( -0.000000000000000000, -1.000000000000000000, -0.000000000000000000 ) ) ;
#54 = CARTESIAN_POINT ( 'NONE',  ( 0.3750000000000000555, 5.000000000000000000, 4.592425496802576684E-17 ) ) ;
#55 = LENGTH_MEASURE_WITH_UNIT ( LENGTH_MEASURE( 0.02539999999999999897 ), #246 );
#56 =( NAMED_UNIT ( * ) SI_UNIT ( $, .STERADIAN. ) SOLID_ANGLE_UNIT ( ) );
#57 = AXIS2_PLACEMENT_3D ( 'NONE', #293, #248, #174 ) ;
#58 = AXIS2_PLACEMENT_3D ( 'NONE', #88, #262, #111 ) ;
#59 =( NAMED_UNIT ( * ) SI_UNIT ( $, .STERADIAN. ) SOLID_ANGLE_UNIT ( ) );
#60 = FILL_AREA_STYLE_COLOUR ( '', #37 ) ;
#61 = VERTEX_POINT ( 'NONE', #54 ) ;
#62 = CYLINDRICAL_SURFACE ( 'NONE', #197, 0.3750000000000000555 ) ;
#63 = ORIENTED_EDGE ( 'NONE', *, *, #255, .F. ) ;
#64 =( LENGTH_UNIT ( ) NAMED_UNIT ( * ) SI_UNIT ( $, .METRE. ) );
#65 = CIRCLE ( 'NONE', #57, 0.3750000000000000555 ) ;
#66 =( GEOMETRIC_REPRESENTATION_CONTEXT ( 3 ) GLOBAL_UNCERTAINTY_ASSIGNED_CONTEXT ( ( #289 ) ) GLOBAL_UNIT_ASSIGNED_CONTEXT ( ( #284, #161, #14 ) ) REPRESENTATION_CONTEXT ( 'NONE', 'WORKASPACE' ) );
#67 = CYLINDRICAL_SURFACE ( 'NONE', #223, 0.3750000000000000555 ) ;
#68 = ORIENTED_EDGE ( 'NONE', *, *, #186, .T. ) ;
#69 = DIRECTION ( 'NONE',  ( 4.453261087808557677E-17, -1.000000000000000000, 0.000000000000000000 ) ) ;
#70 = FILL_AREA_STYLE ('',( #15 ) ) ;
#71 = LENGTH_MEASURE_WITH_UNIT ( LENGTH_MEASURE( 0.02539999999999999897 ), #163 );
#72 = DIRECTION ( 'NONE',  ( 0.000000000000000000, 1.000000000000000000, 0.000000000000000000 ) ) ;
#73 = AXIS2_PLACEMENT_3D ( 'NONE', #249, #103, #26 ) ;
#74 = ADVANCED_FACE ( 'NONE', ( #245 ), #143, .T. ) ;
#75 = SURFACE_STYLE_USAGE ( .BOTH. , #290 ) ;
#76 = CARTESIAN_POINT ( 'NONE',  ( 0.3750000000000000555, 2.250000000000000444, 4.592425496802576684E-17 ) ) ;
#77 = COLOUR_RGB ( '',1.000000000000000000, 0.000000000000000000, 0.000000000000000000 ) ;
#78 = DIMENSIONAL_EXPONENTS ( 1.000000000000000000, 0.000000000000000000, 0.000000000000000000, 0.000000000000000000, 0.000000000000000000, 0.000000000000000000, 0.000000000000000000 ) ;
#79 =( GEOMETRIC_REPRESENTATION_CONTEXT ( 3 ) GLOBAL_UNCERTAINTY_ASSIGNED_CONTEXT ( ( #169 ) ) GLOBAL_UNIT_ASSIGNED_CONTEXT ( ( #82, #221, #35 ) ) REPRESENTATION_CONTEXT ( 'NONE', 'WORKASPACE' ) );
#80 = VERTEX_POINT ( 'NONE', #170 ) ;
#81 = EDGE_CURVE ( 'NONE', #61, #153, #43, .T. ) ;
#82 =( CONVERSION_BASED_UNIT ( 'INCH', #146 ) LENGTH_UNIT ( ) NAMED_UNIT ( #187 ) );
#83 = UNCERTAINTY_MEASURE_WITH_UNIT (LENGTH_MEASURE( 1.000000000000000082E-05 ), #101, 'distance_accuracy_value', 'NONE');
#84 = DIRECTION ( 'NONE',  ( -4.453261087808557677E-17, 1.000000000000000000, -0.000000000000000000 ) ) ;
#85 = LINE ( 'NONE', #28, #172 ) ;
#86 = DIRECTION ( 'NONE',  ( 0.000000000000000000, 0.000000000000000000, -1.000000000000000000 ) ) ;
#87 = EDGE_CURVE ( 'NONE', #254, #281, #96, .T. ) ;
#88 = CARTESIAN_POINT ( 'NONE',  ( 0.000000000000000000, 0.000000000000000000, 0.000000000000000000 ) ) ;
#89 = ORIENTED_EDGE ( 'NONE', *, *, #120, .F. ) ;
#90 = COLOUR_RGB ( '',0.7921568627450980005, 0.8196078431372548767, 0.9333333333333333481 ) ;
#91 = CIRCLE ( 'NONE', #264, 0.3750000000000001665 ) ;
#92 = LENGTH_MEASURE_WITH_UNIT ( LENGTH_MEASURE( 0.02539999999999999897 ), #188 );
#93 = SURFACE_STYLE_USAGE ( .BOTH. , #159 ) ;
#94 = EDGE_LOOP ( 'NONE', ( #63, #151, #68, #178 ) ) ;
#95 = STYLED_ITEM ( 'NONE', ( #220 ), #74 ) ;
#96 = CIRCLE ( 'NONE', #203, 0.3750000000000000555 ) ;
#97 = COLOUR_RGB ( '',1.000000000000000000, 0.000000000000000000, 0.000000000000000000 ) ;
#98 = FACE_OUTER_BOUND ( 'NONE', #191, .T. ) ;
#99 = DIRECTION ( 'NONE',  ( 0.000000000000000000, -1.000000000000000000, -0.000000000000000000 ) ) ;
#100 = AXIS2_PLACEMENT_3D ( 'NONE', #270, #216, #173 ) ;
#101 =( CONVERSION_BASED_UNIT ( 'INCH', #139 ) LENGTH_UNIT ( ) NAMED_UNIT ( #211 ) );
#102 = ADVANCED_FACE ( 'NONE', ( #98 ), #1, .T. ) ;
#103 = DIRECTION ( 'NONE',  ( -4.453261087808557677E-17, 1.000000000000000000, -0.000000000000000000 ) ) ;
#104 = ORIENTED_EDGE ( 'NONE', *, *, #240, .F. ) ;
#105 = SURFACE_STYLE_USAGE ( .BOTH. , #277 ) ;
#106 = PRODUCT_RELATED_PRODUCT_CATEGORY ( 'part', '', ( #298 ) ) ;
#107 = FACE_OUTER_BOUND ( 'NONE', #41, .T. ) ;
#108 = APPLICATION_CONTEXT ( 'automotive_design' ) ;
#109 =( CONVERSION_BASED_UNIT ( 'INCH', #209 ) LENGTH_UNIT ( ) NAMED_UNIT ( #78 ) );
#110 = ORIENTED_EDGE ( 'NONE', *, *, #201, .F. ) ;
#111 = DIRECTION ( 'NONE',  ( 0.000000000000000000, 0.000000000000000000, -1.000000000000000000 ) ) ;
#112 = PRESENTATION_LAYER_ASSIGNMENT (  '', '', ( #154 ) ) ;
#113 = AXIS2_PLACEMENT_3D ( 'NONE', #125, #199, #228 ) ;
#114 = DIRECTION ( 'NONE',  ( 1.000000000000000000, 4.453261087808557677E-17, 0.000000000000000000 ) ) ;
#115 = SURFACE_STYLE_USAGE ( .BOTH. , #42 ) ;
#116 = MANIFOLD_SOLID_BREP ( 'Revolve - Tool Body (Straight Shanked)', #192 ) ;
#117 = CARTESIAN_POINT ( 'NONE',  ( 0.000000000000000000, 0.000000000000000000, 0.000000000000000000 ) ) ;
#118 = FILL_AREA_STYLE_COLOUR ( '', #229 ) ;
#119 =( NAMED_UNIT ( * ) PLANE_ANGLE_UNIT ( ) SI_UNIT ( $, .RADIAN. ) );
#120 = EDGE_CURVE ( 'NONE', #254, #235, #85, .T. ) ;
#121 = DIRECTION ( 'NONE',  ( 0.000000000000000000, 0.000000000000000000, -1.000000000000000000 ) ) ;
#122 = ORIENTED_EDGE ( 'NONE', *, *, #81, .T. ) ;
#123 = STYLED_ITEM ( 'NONE', ( #155 ), #11 ) ;
#124 = DIRECTION ( 'NONE',  ( -4.453261087808557677E-17, 1.000000000000000000, -0.000000000000000000 ) ) ;
#125 = CARTESIAN_POINT ( 'NONE',  ( -1.224646799147353207E-16, 5.000000000000000000, 0.000000000000000000 ) ) ;
#126 = SURFACE_STYLE_FILL_AREA ( #253 ) ;
#127 = ORIENTED_EDGE ( 'NONE', *, *, #201, .T. ) ;
#128 = CARTESIAN_POINT ( 'NONE',  ( 4.592425496802575451E-17, 0.000000000000000000, 0.3750000000000000555 ) ) ;
#129 = DIMENSIONAL_EXPONENTS ( 1.000000000000000000, 0.000000000000000000, 0.000000000000000000, 0.000000000000000000, 0.000000000000000000, 0.000000000000000000, 0.000000000000000000 ) ;
#130 = DIRECTION ( 'NONE',  ( -0.000000000000000000, -1.000000000000000000, -0.000000000000000000 ) ) ;
#131 =( NAMED_UNIT ( * ) SI_UNIT ( $, .STERADIAN. ) SOLID_ANGLE_UNIT ( ) );
#132 =( CONVERSION_BASED_UNIT ( 'INCH', #92 ) LENGTH_UNIT ( ) NAMED_UNIT ( #162 ) );
#133 = CIRCLE ( 'NONE', #9, 0.3750000000000000555 ) ;
#134 =( NAMED_UNIT ( * ) PLANE_ANGLE_UNIT ( ) SI_UNIT ( $, .RADIAN. ) );
#135 = ORIENTED_EDGE ( 'NONE', *, *, #46, .T. ) ;
#136 = EDGE_CURVE ( 'NONE', #147, #80, #166, .T. ) ;
#137 = FILL_AREA_STYLE ('',( #23 ) ) ;
#138 = DIRECTION ( 'NONE',  ( 0.000000000000000000, 0.000000000000000000, -1.000000000000000000 ) ) ;
#139 = LENGTH_MEASURE_WITH_UNIT ( LENGTH_MEASURE( 0.02539999999999999897 ), #218 );
#140 = PLANE ( 'NONE',  #100 ) ;
#141 = UNCERTAINTY_MEASURE_WITH_UNIT (LENGTH_MEASURE( 1.000000000000000082E-05 ), #175, 'distance_accuracy_value', 'NONE');
#142 = STYLED_ITEM ( 'NONE', ( #210 ), #3 ) ;
#143 = PLANE ( 'NONE',  #156 ) ;
#144 = CYLINDRICAL_SURFACE ( 'NONE', #73, 0.3750000000000001110 ) ;
#145 = DIRECTION ( 'NONE',  ( 1.000000000000000000, 0.000000000000000000, 0.000000000000000000 ) ) ;
#146 = LENGTH_MEASURE_WITH_UNIT ( LENGTH_MEASURE( 0.02539999999999999897 ), #276 );
#147 = VERTEX_POINT ( 'NONE', #76 ) ;
#148 = MECHANICAL_DESIGN_GEOMETRIC_PRESENTATION_REPRESENTATION (  '', ( #142 ), #4 ) ;
#149 = CARTESIAN_POINT ( 'NONE',  ( 0.000000000000000000, 0.000000000000000000, 0.000000000000000000 ) ) ;
#150 = SURFACE_STYLE_FILL_AREA ( #272 ) ;
#151 = ORIENTED_EDGE ( 'NONE', *, *, #136, .T. ) ;
#152 = FILL_AREA_STYLE_COLOUR ( '', #97 ) ;
#153 = VERTEX_POINT ( 'NONE', #10 ) ;
#154 = STYLED_ITEM ( 'NONE', ( #195 ), #102 ) ;
#155 = PRESENTATION_STYLE_ASSIGNMENT (( #115 ) ) ;
#156 = AXIS2_PLACEMENT_3D ( 'NONE', #193, #72, #168 ) ;
#157 = AXIS2_PLACEMENT_3D ( 'NONE', #214, #241, #145 ) ;
#158 = ADVANCED_FACE ( 'NONE', ( #177 ), #144, .T. ) ;
#159 = SURFACE_SIDE_STYLE ('',( #126 ) ) ;
#160 = FILL_AREA_STYLE ('',( #232 ) ) ;
#161 =( NAMED_UNIT ( * ) PLANE_ANGLE_UNIT ( ) SI_UNIT ( $, .RADIAN. ) );
#162 = DIMENSIONAL_EXPONENTS ( 1.000000000000000000, 0.000000000000000000, 0.000000000000000000, 0.000000000000000000, 0.000000000000000000, 0.000000000000000000, 0.000000000000000000 ) ;
#163 =( LENGTH_UNIT ( ) NAMED_UNIT ( * ) SI_UNIT ( $, .METRE. ) );
#164 =( LENGTH_UNIT ( ) NAMED_UNIT ( * ) SI_UNIT ( $, .METRE. ) );
#165 =( GEOMETRIC_REPRESENTATION_CONTEXT ( 3 ) GLOBAL_UNCERTAINTY_ASSIGNED_CONTEXT ( ( #83 ) ) GLOBAL_UNIT_ASSIGNED_CONTEXT ( ( #101, #6, #59 ) ) REPRESENTATION_CONTEXT ( 'NONE', 'WORKASPACE' ) );
#166 = CIRCLE ( 'NONE', #258, 0.3750000000000000555 ) ;
#167 = CARTESIAN_POINT ( 'NONE',  ( 4.592425496802575451E-17, 2.250000000000000000, 0.3750000000000000555 ) ) ;
#168 = DIRECTION ( 'NONE',  ( 0.000000000000000000, -0.000000000000000000, 1.000000000000000000 ) ) ;
#169 = UNCERTAINTY_MEASURE_WITH_UNIT (LENGTH_MEASURE( 1.000000000000000082E-05 ), #82, 'distance_accuracy_value', 'NONE');
#170 = CARTESIAN_POINT ( 'NONE',  ( -0.3750000000000000555, 2.250000000000000444, 0.000000000000000000 ) ) ;
#171 = PRESENTATION_LAYER_ASSIGNMENT (  '', '', ( #123 ) ) ;
#172 = VECTOR ( 'NONE', #225, 39.37007874015748143 ) ;
#173 = DIRECTION ( 'NONE',  ( -1.000000000000000000, -4.453261087808557677E-17, 0.000000000000000000 ) ) ;
#174 = DIRECTION ( 'NONE',  ( -1.000000000000000000, 0.000000000000000000, 0.000000000000000000 ) ) ;
#175 =( CONVERSION_BASED_UNIT ( 'INCH', #55 ) LENGTH_UNIT ( ) NAMED_UNIT ( #129 ) );
#176 = STYLED_ITEM ( 'NONE', ( #32 ), #116 ) ;
#177 = FACE_OUTER_BOUND ( 'NONE', #94, .T. ) ;
#178 = ORIENTED_EDGE ( 'NONE', *, *, #81, .F. ) ;
#179 = ORIENTED_EDGE ( 'NONE', *, *, #87, .T. ) ;
#180 = PRESENTATION_LAYER_ASSIGNMENT (  '', '', ( #142 ) ) ;
#181 = CARTESIAN_POINT ( 'NONE',  ( 0.000000000000000000, 2.250000000000000000, 0.000000000000000000 ) ) ;
#182 =( GEOMETRIC_REPRESENTATION_CONTEXT ( 3 ) GLOBAL_UNCERTAINTY_ASSIGNED_CONTEXT ( ( #222 ) ) GLOBAL_UNIT_ASSIGNED_CONTEXT ( ( #109, #134, #131 ) ) REPRESENTATION_CONTEXT ( 'NONE', 'WORKASPACE' ) );
#183 = ORIENTED_EDGE ( 'NONE', *, *, #255, .T. ) ;
#184 = DIRECTION ( 'NONE',  ( -4.453261087808557677E-17, 1.000000000000000000, -0.000000000000000000 ) ) ;
#185 = ORIENTED_EDGE ( 'NONE', *, *, #186, .F. ) ;
#186 = EDGE_CURVE ( 'NONE', #80, #153, #296, .T. ) ;
#187 = DIMENSIONAL_EXPONENTS ( 1.000000000000000000, 0.000000000000000000, 0.000000000000000000, 0.000000000000000000, 0.000000000000000000, 0.000000000000000000, 0.000000000000000000 ) ;
#188 =( LENGTH_UNIT ( ) NAMED_UNIT ( * ) SI_UNIT ( $, .METRE. ) );
#189 = LINE ( 'NONE', #44, #268 ) ;
#190 = CARTESIAN_POINT ( 'NONE',  ( 0.000000000000000000, 0.000000000000000000, -0.3750000000000000555 ) ) ;
#191 = EDGE_LOOP ( 'NONE', ( #20, #273 ) ) ;
#192 = CLOSED_SHELL ( 'NONE', ( #219, #51, #158, #301 ) ) ;
#193 = CARTESIAN_POINT ( 'NONE',  ( 0.000000000000000000, 2.250000000000000000, 0.000000000000000000 ) ) ;
#194 =( NAMED_UNIT ( * ) SI_UNIT ( $, .STERADIAN. ) SOLID_ANGLE_UNIT ( ) );
#195 = PRESENTATION_STYLE_ASSIGNMENT (( #22 ) ) ;
#196 = PRESENTATION_LAYER_ASSIGNMENT (  '', '', ( #95 ) ) ;
#197 = AXIS2_PLACEMENT_3D ( 'NONE', #234, #18, #86 ) ;
#198 = STYLED_ITEM ( 'NONE', ( #40 ), #231 ) ;
#199 = DIRECTION ( 'NONE',  ( -4.453261087808557677E-17, 1.000000000000000000, -0.000000000000000000 ) ) ;
#200 = CARTESIAN_POINT ( 'NONE',  ( 1.516480271171051896E-32, 2.250000000000000444, 0.000000000000000000 ) ) ;
#201 = EDGE_CURVE ( 'NONE', #281, #254, #309, .T. ) ;
#202 = ORIENTED_EDGE ( 'NONE', *, *, #87, .F. ) ;
#203 = AXIS2_PLACEMENT_3D ( 'NONE', #267, #53, #138 ) ;
#204 = CARTESIAN_POINT ( 'NONE',  ( -0.3750000000000002220, 5.000000000000000000, 0.000000000000000000 ) ) ;
#205 = AXIS2_PLACEMENT_3D ( 'NONE', #206, #69, #114 ) ;
#206 = CARTESIAN_POINT ( 'NONE',  ( 0.3750000000000000555, 5.000000000000000000, 0.000000000000000000 ) ) ;
#207 = ORIENTED_EDGE ( 'NONE', *, *, #294, .F. ) ;
#208 = VECTOR ( 'NONE', #84, 39.37007874015748143 ) ;
#209 = LENGTH_MEASURE_WITH_UNIT ( LENGTH_MEASURE( 0.02539999999999999897 ), #64 );
#210 = PRESENTATION_STYLE_ASSIGNMENT (( #286 ) ) ;
#211 = DIMENSIONAL_EXPONENTS ( 1.000000000000000000, 0.000000000000000000, 0.000000000000000000, 0.000000000000000000, 0.000000000000000000, 0.000000000000000000, 0.000000000000000000 ) ;
#212 = APPLICATION_CONTEXT ( 'automotive_design' ) ;
#213 = SURFACE_SIDE_STYLE ('',( #303 ) ) ;
#214 = CARTESIAN_POINT ( 'NONE',  ( 0.000000000000000000, 0.000000000000000000, 0.000000000000000000 ) ) ;
#215 = SURFACE_STYLE_FILL_AREA ( #70 ) ;
#216 = DIRECTION ( 'NONE',  ( -4.453261087808557677E-17, 1.000000000000000000, 0.000000000000000000 ) ) ;
#217 = AXIS2_PLACEMENT_3D ( 'NONE', #181, #252, #121 ) ;
#218 =( LENGTH_UNIT ( ) NAMED_UNIT ( * ) SI_UNIT ( $, .METRE. ) );
#219 = ADVANCED_FACE ( 'NONE', ( #34 ), #7, .T. ) ;
#220 = PRESENTATION_STYLE_ASSIGNMENT (( #75 ) ) ;
#221 =( NAMED_UNIT ( * ) PLANE_ANGLE_UNIT ( ) SI_UNIT ( $, .RADIAN. ) );
#222 = UNCERTAINTY_MEASURE_WITH_UNIT (LENGTH_MEASURE( 1.000000000000000082E-05 ), #109, 'distance_accuracy_value', 'NONE');
#223 = AXIS2_PLACEMENT_3D ( 'NONE', #117, #130, #233 ) ;
#224 = VECTOR ( 'NONE', #47, 39.37007874015748143 ) ;
#225 = DIRECTION ( 'NONE',  ( -0.000000000000000000, -1.000000000000000000, -0.000000000000000000 ) ) ;
#226 = DIRECTION ( 'NONE',  ( -1.000000000000000000, 0.000000000000000000, 0.000000000000000000 ) ) ;
#227 = UNCERTAINTY_MEASURE_WITH_UNIT (LENGTH_MEASURE( 1.000000000000000082E-05 ), #132, 'distance_accuracy_value', 'NONE');
#228 = DIRECTION ( 'NONE',  ( -1.000000000000000000, 0.000000000000000000, 0.000000000000000000 ) ) ;
#229 = COLOUR_RGB ( '',1.000000000000000000, 0.000000000000000000, 0.000000000000000000 ) ;
#230 = CARTESIAN_POINT ( 'NONE',  ( 0.000000000000000000, 2.250000000000000000, -0.3750000000000000555 ) ) ;
#231 = ADVANCED_FACE ( 'NONE', ( #297 ), #62, .T. ) ;
#232 = FILL_AREA_STYLE_COLOUR ( '', #77 ) ;
#233 = DIRECTION ( 'NONE',  ( 0.000000000000000000, 0.000000000000000000, -1.000000000000000000 ) ) ;
#234 = CARTESIAN_POINT ( 'NONE',  ( 0.000000000000000000, 0.000000000000000000, 0.000000000000000000 ) ) ;
#235 = VERTEX_POINT ( 'NONE', #128 ) ;
#236 = PRODUCT_DEFINITION ( 'UNKNOWN', '', #16, #50 ) ;
#237 = DIMENSIONAL_EXPONENTS ( 1.000000000000000000, 0.000000000000000000, 0.000000000000000000, 0.000000000000000000, 0.000000000000000000, 0.000000000000000000, 0.000000000000000000 ) ;
#238 = LINE ( 'NONE', #282, #224 ) ;
#239 =( NAMED_UNIT ( * ) SI_UNIT ( $, .STERADIAN. ) SOLID_ANGLE_UNIT ( ) );
#240 = EDGE_CURVE ( 'NONE', #235, #39, #243, .T. ) ;
#241 = DIRECTION ( 'NONE',  ( 0.000000000000000000, 0.000000000000000000, 1.000000000000000000 ) ) ;
#242 = SURFACE_STYLE_FILL_AREA ( #137 ) ;
#243 = CIRCLE ( 'NONE', #58, 0.3750000000000000555 ) ;
#244 = SURFACE_SIDE_STYLE ('',( #242 ) ) ;
#245 = FACE_OUTER_BOUND ( 'NONE', #308, .T. ) ;
#246 =( LENGTH_UNIT ( ) NAMED_UNIT ( * ) SI_UNIT ( $, .METRE. ) );
#247 = MECHANICAL_DESIGN_GEOMETRIC_PRESENTATION_REPRESENTATION (  '', ( #198 ), #66 ) ;
#248 = DIRECTION ( 'NONE',  ( -4.453261087808557677E-17, 1.000000000000000000, -0.000000000000000000 ) ) ;
#249 = CARTESIAN_POINT ( 'NONE',  ( -1.224646799147353207E-16, 5.000000000000000000, 0.000000000000000000 ) ) ;
#250 = DIRECTION ( 'NONE',  ( 0.000000000000000000, 0.000000000000000000, -1.000000000000000000 ) ) ;
#251 = AXIS2_PLACEMENT_3D ( 'NONE', #266, #49, #271 ) ;
#252 = DIRECTION ( 'NONE',  ( -0.000000000000000000, -1.000000000000000000, -0.000000000000000000 ) ) ;
#253 = FILL_AREA_STYLE ('',( #152 ) ) ;
#254 = VERTEX_POINT ( 'NONE', #167 ) ;
#255 = EDGE_CURVE ( 'NONE', #147, #61, #238, .T. ) ;
#256 = MECHANICAL_DESIGN_GEOMETRIC_PRESENTATION_REPRESENTATION (  '', ( #95 ), #295 ) ;
#257 = DIRECTION ( 'NONE',  ( -1.000000000000000000, 0.000000000000000000, 0.000000000000000000 ) ) ;
#258 = AXIS2_PLACEMENT_3D ( 'NONE', #200, #124, #226 ) ;
#259 = ORIENTED_EDGE ( 'NONE', *, *, #120, .T. ) ;
#260 = DIRECTION ( 'NONE',  ( -0.000000000000000000, -1.000000000000000000, -0.000000000000000000 ) ) ;
#261 = FACE_OUTER_BOUND ( 'NONE', #27, .T. ) ;
#262 = DIRECTION ( 'NONE',  ( -0.000000000000000000, -1.000000000000000000, -0.000000000000000000 ) ) ;
#263 =( NAMED_UNIT ( * ) PLANE_ANGLE_UNIT ( ) SI_UNIT ( $, .RADIAN. ) );
#264 = AXIS2_PLACEMENT_3D ( 'NONE', #299, #184, #257 ) ;
#265 = LENGTH_MEASURE_WITH_UNIT ( LENGTH_MEASURE( 0.02539999999999999897 ), #164 );
#266 = CARTESIAN_POINT ( 'NONE',  ( -1.224646799147353207E-16, 5.000000000000000000, 0.000000000000000000 ) ) ;
#267 = CARTESIAN_POINT ( 'NONE',  ( 0.000000000000000000, 2.250000000000000000, 0.000000000000000000 ) ) ;
#268 = VECTOR ( 'NONE', #38, 39.37007874015748143 ) ;
#269 = SHAPE_DEFINITION_REPRESENTATION ( #304, #283 ) ;
#270 = CARTESIAN_POINT ( 'NONE',  ( 3.718412684285598933E-34, 2.250000000000000000, 0.000000000000000000 ) ) ;
#271 = DIRECTION ( 'NONE',  ( -1.000000000000000000, 0.000000000000000000, 0.000000000000000000 ) ) ;
#272 = FILL_AREA_STYLE ('',( #60 ) ) ;
#273 = ORIENTED_EDGE ( 'NONE', *, *, #240, .T. ) ;
#274 = MECHANICAL_DESIGN_GEOMETRIC_PRESENTATION_REPRESENTATION (  '', ( #123 ), #30 ) ;
#275 = PRESENTATION_LAYER_ASSIGNMENT (  '', '', ( #198 ) ) ;
#276 =( LENGTH_UNIT ( ) NAMED_UNIT ( * ) SI_UNIT ( $, .METRE. ) );
#277 = SURFACE_SIDE_STYLE ('',( #150 ) ) ;
#278 = EDGE_LOOP ( 'NONE', ( #48, #300 ) ) ;
#279 = CARTESIAN_POINT ( 'NONE',  ( 0.000000000000000000, 0.000000000000000000, 0.000000000000000000 ) ) ;
#280 = ORIENTED_EDGE ( 'NONE', *, *, #306, .F. ) ;
#281 = VERTEX_POINT ( 'NONE', #230 ) ;
#282 = CARTESIAN_POINT ( 'NONE',  ( 0.3749999999999999445, 5.000000000000000000, 4.592425496802576068E-17 ) ) ;
#283 = ADVANCED_BREP_SHAPE_REPRESENTATION ( '03675', ( #11, #116, #157 ), #182 ) ;
#284 =( CONVERSION_BASED_UNIT ( 'INCH', #71 ) LENGTH_UNIT ( ) NAMED_UNIT ( #237 ) );
#285 = CLOSED_SHELL ( 'NONE', ( #3, #74, #231, #102 ) ) ;
#286 = SURFACE_STYLE_USAGE ( .BOTH. , #213 ) ;
#287 = DIMENSIONAL_EXPONENTS ( 1.000000000000000000, 0.000000000000000000, 0.000000000000000000, 0.000000000000000000, 0.000000000000000000, 0.000000000000000000, 0.000000000000000000 ) ;
#288 = EDGE_CURVE ( 'NONE', #39, #235, #133, .T. ) ;
#289 = UNCERTAINTY_MEASURE_WITH_UNIT (LENGTH_MEASURE( 1.000000000000000082E-05 ), #284, 'distance_accuracy_value', 'NONE');
#290 = SURFACE_SIDE_STYLE ('',( #292 ) ) ;
#291 = MECHANICAL_DESIGN_GEOMETRIC_PRESENTATION_REPRESENTATION (  '', ( #154 ), #165 ) ;
#292 = SURFACE_STYLE_FILL_AREA ( #25 ) ;
#293 = CARTESIAN_POINT ( 'NONE',  ( 1.516480271171051896E-32, 2.250000000000000444, 0.000000000000000000 ) ) ;
#294 = EDGE_CURVE ( 'NONE', #153, #61, #91, .T. ) ;
#295 =( GEOMETRIC_REPRESENTATION_CONTEXT ( 3 ) GLOBAL_UNCERTAINTY_ASSIGNED_CONTEXT ( ( #141 ) ) GLOBAL_UNIT_ASSIGNED_CONTEXT ( ( #175, #119, #56 ) ) REPRESENTATION_CONTEXT ( 'NONE', 'WORKASPACE' ) );
#296 = LINE ( 'NONE', #204, #208 ) ;
#297 = FACE_OUTER_BOUND ( 'NONE', #29, .T. ) ;
#298 = PRODUCT ( '03675', '03675', '', ( #2 ) ) ;
#299 = CARTESIAN_POINT ( 'NONE',  ( -1.224646799147353207E-16, 5.000000000000000000, 0.000000000000000000 ) ) ;
#300 = ORIENTED_EDGE ( 'NONE', *, *, #136, .F. ) ;
#301 = ADVANCED_FACE ( 'NONE', ( #107 ), #17, .F. ) ;
#302 = APPLICATION_PROTOCOL_DEFINITION ( 'draft international standard', 'automotive_design', 1998, #108 ) ;
#303 = SURFACE_STYLE_FILL_AREA ( #160 ) ;
#304 = PRODUCT_DEFINITION_SHAPE ( 'NONE', 'NONE',  #236 ) ;
#305 = EDGE_LOOP ( 'NONE', ( #135, #183, #207, #185 ) ) ;
#306 = EDGE_CURVE ( 'NONE', #281, #39, #189, .T. ) ;
#307 = APPLICATION_PROTOCOL_DEFINITION ( 'draft international standard', 'automotive_design', 1998, #212 ) ;
#308 = EDGE_LOOP ( 'NONE', ( #110, #202 ) ) ;
#309 = CIRCLE ( 'NONE', #217, 0.3750000000000000555 ) ;
ENDSEC;
END-ISO-10303-21;
