ISO-10303-21;
HEADER;
FILE_DESCRIPTION (( 'STEP AP214' ),
    '1' );
FILE_NAME ('17660.STEP',
    '2023-06-30T21:54:49',
    ( '' ),
    ( '' ),
    'SwSTEP 2.0',
    'SolidWorks 2023',
    '' );
FILE_SCHEMA (( 'AUTOMOTIVE_DESIGN' ));
ENDSEC;

DATA;
#1 =( CONVERSION_BASED_UNIT ( 'INCH', #114 ) LENGTH_UNIT ( ) NAMED_UNIT ( #221 ) );
#2 = APPLICATION_CONTEXT ( 'automotive_design' ) ;
#3 = EDGE_CURVE ( 'NONE', #302, #259, #279, .T. ) ;
#4 = EDGE_LOOP ( 'NONE', ( #183, #132 ) ) ;
#5 = ADVANCED_FACE ( 'NONE', ( #6 ), #120, .T. ) ;
#6 = FACE_OUTER_BOUND ( 'NONE', #162, .T. ) ;
#7 = DIRECTION ( 'NONE',  ( -1.000000000000000000, -1.740287556683080860E-16, 0.000000000000000000 ) ) ;
#8 = SURFACE_STYLE_FILL_AREA ( #340 ) ;
#9 = SURFACE_SIDE_STYLE ('',( #186 ) ) ;
#10 = ORIENTED_EDGE ( 'NONE', *, *, #197, .T. ) ;
#11 = DIRECTION ( 'NONE',  ( 0.000000000000000000, -0.000000000000000000, 1.000000000000000000 ) ) ;
#12 = CIRCLE ( 'NONE', #344, 0.3749999999999998335 ) ;
#13 = DIRECTION ( 'NONE',  ( -0.000000000000000000, -1.000000000000000000, -0.000000000000000000 ) ) ;
#14 =( GEOMETRIC_REPRESENTATION_CONTEXT ( 3 ) GLOBAL_UNCERTAINTY_ASSIGNED_CONTEXT ( ( #76 ) ) GLOBAL_UNIT_ASSIGNED_CONTEXT ( ( #219, #48, #137 ) ) REPRESENTATION_CONTEXT ( 'NONE', 'WORKASPACE' ) );
#15 = CARTESIAN_POINT ( 'NONE',  ( -1.224646799147352468E-16, 4.000000000000000000, 0.000000000000000000 ) ) ;
#16 = ORIENTED_EDGE ( 'NONE', *, *, #88, .T. ) ;
#17 = ORIENTED_EDGE ( 'NONE', *, *, #23, .F. ) ;
#18 = APPLICATION_CONTEXT ( 'automotive_design' ) ;
#19 = PRODUCT_DEFINITION ( 'UNKNOWN', '', #232, #158 ) ;
#20 = UNCERTAINTY_MEASURE_WITH_UNIT (LENGTH_MEASURE( 1.000000000000000082E-05 ), #310, 'distance_accuracy_value', 'NONE');
#21 = COLOUR_RGB ( '',1.000000000000000000, 0.000000000000000000, 0.000000000000000000 ) ;
#22 = MECHANICAL_DESIGN_GEOMETRIC_PRESENTATION_REPRESENTATION (  '', ( #346 ), #240 ) ;
#23 = EDGE_CURVE ( 'NONE', #266, #255, #30, .T. ) ;
#24 = SURFACE_STYLE_FILL_AREA ( #290 ) ;
#25 = CARTESIAN_POINT ( 'NONE',  ( -0.3750000000000002220, 4.000000000000000000, 0.000000000000000000 ) ) ;
#26 = ADVANCED_FACE ( 'NONE', ( #153 ), #234, .T. ) ;
#27 = COLOUR_RGB ( '',1.000000000000000000, 0.000000000000000000, 0.000000000000000000 ) ;
#28 = PRESENTATION_LAYER_ASSIGNMENT (  '', '', ( #128 ) ) ;
#29 = CARTESIAN_POINT ( 'NONE',  ( 0.3749999999999998335, 1.625000000000000000, 4.592425496802572986E-17 ) ) ;
#30 = LINE ( 'NONE', #145, #42 ) ;
#31 =( LENGTH_UNIT ( ) NAMED_UNIT ( * ) SI_UNIT ( $, .METRE. ) );
#32 = MECHANICAL_DESIGN_GEOMETRIC_PRESENTATION_REPRESENTATION (  '', ( #226 ), #55 ) ;
#33 = ORIENTED_EDGE ( 'NONE', *, *, #3, .F. ) ;
#34 = EDGE_LOOP ( 'NONE', ( #209, #62, #102, #347, #211 ) ) ;
#35 = AXIS2_PLACEMENT_3D ( 'NONE', #15, #215, #73 ) ;
#36 =( GEOMETRIC_REPRESENTATION_CONTEXT ( 3 ) GLOBAL_UNCERTAINTY_ASSIGNED_CONTEXT ( ( #104 ) ) GLOBAL_UNIT_ASSIGNED_CONTEXT ( ( #278, #180, #119 ) ) REPRESENTATION_CONTEXT ( 'NONE', 'WORKASPACE' ) );
#37 =( NAMED_UNIT ( * ) SI_UNIT ( $, .STERADIAN. ) SOLID_ANGLE_UNIT ( ) );
#38 = DIRECTION ( 'NONE',  ( -1.740287556683080860E-16, 1.000000000000000000, 0.000000000000000000 ) ) ;
#39 = ORIENTED_EDGE ( 'NONE', *, *, #257, .F. ) ;
#40 = DIRECTION ( 'NONE',  ( 1.000000000000000000, 1.740287556683080860E-16, 0.000000000000000000 ) ) ;
#41 = DIRECTION ( 'NONE',  ( 0.000000000000000000, 0.000000000000000000, 1.000000000000000000 ) ) ;
#42 = VECTOR ( 'NONE', #373, 39.37007874015748143 ) ;
#43 = SURFACE_STYLE_USAGE ( .BOTH. , #349 ) ;
#44 = CARTESIAN_POINT ( 'NONE',  ( 0.000000000000000000, 0.3750000000000001110, 0.000000000000000000 ) ) ;
#45 = PRODUCT_DEFINITION_SHAPE ( 'NONE', 'NONE',  #19 ) ;
#46 = CYLINDRICAL_SURFACE ( 'NONE', #204, 0.3749999999999999445 ) ;
#47 = ADVANCED_FACE ( 'NONE', ( #144 ), #371, .T. ) ;
#48 =( NAMED_UNIT ( * ) PLANE_ANGLE_UNIT ( ) SI_UNIT ( $, .RADIAN. ) );
#49 = DIMENSIONAL_EXPONENTS ( 1.000000000000000000, 0.000000000000000000, 0.000000000000000000, 0.000000000000000000, 0.000000000000000000, 0.000000000000000000, 0.000000000000000000 ) ;
#50 = DIRECTION ( 'NONE',  ( -1.000000000000000000, 0.000000000000000000, 0.000000000000000000 ) ) ;
#51 = MECHANICAL_DESIGN_GEOMETRIC_PRESENTATION_REPRESENTATION (  '', ( #223 ), #367 ) ;
#52 = CARTESIAN_POINT ( 'NONE',  ( -4.592425496802575451E-17, 0.3750000000000000555, 0.000000000000000000 ) ) ;
#53 = ADVANCED_BREP_SHAPE_REPRESENTATION ( '17660', ( #98, #91, #154 ), #36 ) ;
#54 = SURFACE_STYLE_USAGE ( .BOTH. , #337 ) ;
#55 =( GEOMETRIC_REPRESENTATION_CONTEXT ( 3 ) GLOBAL_UNCERTAINTY_ASSIGNED_CONTEXT ( ( #362 ) ) GLOBAL_UNIT_ASSIGNED_CONTEXT ( ( #1, #177, #112 ) ) REPRESENTATION_CONTEXT ( 'NONE', 'WORKASPACE' ) );
#56 =( NAMED_UNIT ( * ) SI_UNIT ( $, .STERADIAN. ) SOLID_ANGLE_UNIT ( ) );
#57 = STYLED_ITEM ( 'NONE', ( #343 ), #98 ) ;
#58 = COLOUR_RGB ( '',0.7921568627450980005, 0.8196078431372548767, 0.9333333333333333481 ) ;
#59 = EDGE_CURVE ( 'NONE', #65, #266, #12, .T. ) ;
#60 = DIRECTION ( 'NONE',  ( -1.740287556683080860E-16, 1.000000000000000000, -0.000000000000000000 ) ) ;
#61 = SURFACE_STYLE_FILL_AREA ( #236 ) ;
#62 = ORIENTED_EDGE ( 'NONE', *, *, #23, .T. ) ;
#63 = SURFACE_STYLE_USAGE ( .BOTH. , #276 ) ;
#64 = EDGE_LOOP ( 'NONE', ( #361, #92, #248, #321 ) ) ;
#65 = VERTEX_POINT ( 'NONE', #363 ) ;
#66 = FILL_AREA_STYLE_COLOUR ( '', #136 ) ;
#67 =( NAMED_UNIT ( * ) SI_UNIT ( $, .STERADIAN. ) SOLID_ANGLE_UNIT ( ) );
#68 = CARTESIAN_POINT ( 'NONE',  ( 0.000000000000000000, 1.625000000000000000, 0.000000000000000000 ) ) ;
#69 =( CONVERSION_BASED_UNIT ( 'INCH', #330 ) LENGTH_UNIT ( ) NAMED_UNIT ( #328 ) );
#70 = CARTESIAN_POINT ( 'NONE',  ( 0.000000000000000000, 1.625000000000000000, 0.000000000000000000 ) ) ;
#71 = STYLED_ITEM ( 'NONE', ( #214 ), #47 ) ;
#72 = VECTOR ( 'NONE', #230, 39.37007874015748143 ) ;
#73 = DIRECTION ( 'NONE',  ( -1.000000000000000000, 0.000000000000000000, 0.000000000000000000 ) ) ;
#74 =( LENGTH_UNIT ( ) NAMED_UNIT ( * ) SI_UNIT ( $, .METRE. ) );
#75 = EDGE_CURVE ( 'NONE', #118, #245, #322, .T. ) ;
#76 = UNCERTAINTY_MEASURE_WITH_UNIT (LENGTH_MEASURE( 1.000000000000000082E-05 ), #219, 'distance_accuracy_value', 'NONE');
#77 = DIMENSIONAL_EXPONENTS ( 1.000000000000000000, 0.000000000000000000, 0.000000000000000000, 0.000000000000000000, 0.000000000000000000, 0.000000000000000000, 0.000000000000000000 ) ;
#78 = DIRECTION ( 'NONE',  ( 1.000000000000000000, 0.000000000000000000, -1.224646799147353207E-16 ) ) ;
#79 = PRESENTATION_LAYER_ASSIGNMENT (  '', '', ( #226 ) ) ;
#80 =( CONVERSION_BASED_UNIT ( 'INCH', #225 ) LENGTH_UNIT ( ) NAMED_UNIT ( #49 ) );
#81 = CIRCLE ( 'NONE', #275, 0.3749999999999995559 ) ;
#82 = CARTESIAN_POINT ( 'NONE',  ( 0.000000000000000000, 0.000000000000000000, -0.3749999999999999445 ) ) ;
#83 = EDGE_CURVE ( 'NONE', #302, #326, #81, .T. ) ;
#84 = MECHANICAL_DESIGN_GEOMETRIC_PRESENTATION_REPRESENTATION (  '', ( #57 ), #307 ) ;
#85 = LENGTH_MEASURE_WITH_UNIT ( LENGTH_MEASURE( 0.02539999999999999897 ), #31 );
#86 = CARTESIAN_POINT ( 'NONE',  ( -1.224646799147352714E-16, 4.000000000000000000, 0.000000000000000000 ) ) ;
#87 = CIRCLE ( 'NONE', #222, 0.3750000000000001110 ) ;
#88 = EDGE_CURVE ( 'NONE', #259, #280, #87, .T. ) ;
#89 = AXIS2_PLACEMENT_3D ( 'NONE', #52, #110, #50 ) ;
#90 =( LENGTH_UNIT ( ) NAMED_UNIT ( * ) SI_UNIT ( $, .METRE. ) );
#91 = MANIFOLD_SOLID_BREP ( 'Revolve - Tool Body (Straight Shanked)', #200 ) ;
#92 = ORIENTED_EDGE ( 'NONE', *, *, #208, .T. ) ;
#93 = CIRCLE ( 'NONE', #179, 0.3750000000000001110 ) ;
#94 = DIRECTION ( 'NONE',  ( 1.000000000000000000, 0.000000000000000000, 0.000000000000000000 ) ) ;
#95 = CARTESIAN_POINT ( 'NONE',  ( 0.3749999999999999445, 4.000000000000000000, 0.000000000000000000 ) ) ;
#96 = VERTEX_POINT ( 'NONE', #238 ) ;
#97 = SPHERICAL_SURFACE ( 'NONE', #249, 0.3750000000000001110 ) ;
#98 = MANIFOLD_SOLID_BREP ( 'Revolve - Cutting Edge', #178 ) ;
#99 = EDGE_LOOP ( 'NONE', ( #115, #16 ) ) ;
#100 = CARTESIAN_POINT ( 'NONE',  ( 0.000000000000000000, 0.3750000000000001110, 0.000000000000000000 ) ) ;
#101 = ADVANCED_FACE ( 'NONE', ( #251 ), #148, .F. ) ;
#102 = ORIENTED_EDGE ( 'NONE', *, *, #173, .F. ) ;
#103 = DIRECTION ( 'NONE',  ( -0.000000000000000000, -1.000000000000000000, -0.000000000000000000 ) ) ;
#104 = UNCERTAINTY_MEASURE_WITH_UNIT (LENGTH_MEASURE( 1.000000000000000082E-05 ), #278, 'distance_accuracy_value', 'NONE');
#105 = DIRECTION ( 'NONE',  ( -0.000000000000000000, -1.000000000000000000, -0.000000000000000000 ) ) ;
#106 = DIMENSIONAL_EXPONENTS ( 1.000000000000000000, 0.000000000000000000, 0.000000000000000000, 0.000000000000000000, 0.000000000000000000, 0.000000000000000000, 0.000000000000000000 ) ;
#107 = AXIS2_PLACEMENT_3D ( 'NONE', #86, #269, #342 ) ;
#108 = DIRECTION ( 'NONE',  ( 0.000000000000000000, 0.000000000000000000, -1.000000000000000000 ) ) ;
#109 = AXIS2_PLACEMENT_3D ( 'NONE', #319, #277, #175 ) ;
#110 = DIRECTION ( 'NONE',  ( 0.000000000000000000, 0.000000000000000000, -1.000000000000000000 ) ) ;
#111 = SURFACE_STYLE_USAGE ( .BOTH. , #268 ) ;
#112 =( NAMED_UNIT ( * ) SI_UNIT ( $, .STERADIAN. ) SOLID_ANGLE_UNIT ( ) );
#113 = ADVANCED_FACE ( 'NONE', ( #121 ), #97, .T. ) ;
#114 = LENGTH_MEASURE_WITH_UNIT ( LENGTH_MEASURE( 0.02539999999999999897 ), #147 );
#115 = ORIENTED_EDGE ( 'NONE', *, *, #202, .T. ) ;
#116 = STYLED_ITEM ( 'NONE', ( #253 ), #113 ) ;
#117 = PRESENTATION_STYLE_ASSIGNMENT (( #54 ) ) ;
#118 = VERTEX_POINT ( 'NONE', #125 ) ;
#119 =( NAMED_UNIT ( * ) SI_UNIT ( $, .STERADIAN. ) SOLID_ANGLE_UNIT ( ) );
#120 = CYLINDRICAL_SURFACE ( 'NONE', #109, 0.3749999999999999445 ) ;
#121 = FACE_OUTER_BOUND ( 'NONE', #239, .T. ) ;
#122 = ORIENTED_EDGE ( 'NONE', *, *, #173, .T. ) ;
#123 = SURFACE_STYLE_USAGE ( .BOTH. , #9 ) ;
#124 = ORIENTED_EDGE ( 'NONE', *, *, #75, .T. ) ;
#125 = CARTESIAN_POINT ( 'NONE',  ( -0.3750000000000001110, 0.3750000000000001110, 4.592425496802575451E-17 ) ) ;
#126 = ORIENTED_EDGE ( 'NONE', *, *, #202, .F. ) ;
#127 = AXIS2_PLACEMENT_3D ( 'NONE', #68, #333, #11 ) ;
#128 = STYLED_ITEM ( 'NONE', ( #138 ), #309 ) ;
#129 = PRESENTATION_STYLE_ASSIGNMENT (( #123 ) ) ;
#130 = ORIENTED_EDGE ( 'NONE', *, *, #197, .F. ) ;
#131 = LINE ( 'NONE', #213, #318 ) ;
#132 = ORIENTED_EDGE ( 'NONE', *, *, #254, .F. ) ;
#133 =( LENGTH_UNIT ( ) NAMED_UNIT ( * ) SI_UNIT ( $, .METRE. ) );
#134 = UNCERTAINTY_MEASURE_WITH_UNIT (LENGTH_MEASURE( 1.000000000000000082E-05 ), #156, 'distance_accuracy_value', 'NONE');
#135 = CARTESIAN_POINT ( 'NONE',  ( 4.592425496802576068E-17, 0.3750000000000001110, 0.3750000000000001110 ) ) ;
#136 = COLOUR_RGB ( '',1.000000000000000000, 0.000000000000000000, 0.000000000000000000 ) ;
#137 =( NAMED_UNIT ( * ) SI_UNIT ( $, .STERADIAN. ) SOLID_ANGLE_UNIT ( ) );
#138 = PRESENTATION_STYLE_ASSIGNMENT (( #365 ) ) ;
#139 = CARTESIAN_POINT ( 'NONE',  ( 2.908536147974964206E-16, 1.625000000000000000, 0.000000000000000000 ) ) ;
#140 =( LENGTH_UNIT ( ) NAMED_UNIT ( * ) SI_UNIT ( $, .METRE. ) );
#141 = COLOUR_RGB ( '',1.000000000000000000, 0.000000000000000000, 0.000000000000000000 ) ;
#142 = PRODUCT ( '17660', '17660', '', ( #182 ) ) ;
#143 = CARTESIAN_POINT ( 'NONE',  ( 0.000000000000000000, 0.000000000000000000, 0.000000000000000000 ) ) ;
#144 = FACE_OUTER_BOUND ( 'NONE', #4, .T. ) ;
#145 = CARTESIAN_POINT ( 'NONE',  ( 4.592425496802573602E-17, 0.000000000000000000, 0.3749999999999999445 ) ) ;
#146 = CIRCLE ( 'NONE', #366, 0.3750000000000001110 ) ;
#147 =( LENGTH_UNIT ( ) NAMED_UNIT ( * ) SI_UNIT ( $, .METRE. ) );
#148 = PLANE ( 'NONE',  #323 ) ;
#149 = EDGE_LOOP ( 'NONE', ( #348, #273, #126, #130 ) ) ;
#150 = ORIENTED_EDGE ( 'NONE', *, *, #298, .F. ) ;
#151 = SHAPE_DEFINITION_REPRESENTATION ( #45, #53 ) ;
#152 = CIRCLE ( 'NONE', #35, 0.3750000000000001110 ) ;
#153 = FACE_OUTER_BOUND ( 'NONE', #149, .T. ) ;
#154 = AXIS2_PLACEMENT_3D ( 'NONE', #351, #241, #94 ) ;
#155 = CARTESIAN_POINT ( 'NONE',  ( -4.592425496802575451E-17, 0.3750000000000000555, 0.000000000000000000 ) ) ;
#156 =( CONVERSION_BASED_UNIT ( 'INCH', #85 ) LENGTH_UNIT ( ) NAMED_UNIT ( #263 ) );
#157 = ADVANCED_FACE ( 'NONE', ( #247 ), #353, .F. ) ;
#158 = PRODUCT_DEFINITION_CONTEXT ( 'detailed design', #2, 'design' ) ;
#159 = DIRECTION ( 'NONE',  ( -1.000000000000000000, 0.000000000000000000, 0.000000000000000000 ) ) ;
#160 = DIRECTION ( 'NONE',  ( -0.000000000000000000, -1.000000000000000000, -0.000000000000000000 ) ) ;
#161 = DIRECTION ( 'NONE',  ( 0.000000000000000000, 0.000000000000000000, -1.000000000000000000 ) ) ;
#162 = EDGE_LOOP ( 'NONE', ( #17, #207, #354, #187, #332 ) ) ;
#163 = EDGE_CURVE ( 'NONE', #255, #118, #368, .T. ) ;
#164 = MECHANICAL_DESIGN_GEOMETRIC_PRESENTATION_REPRESENTATION (  '', ( #116 ), #300 ) ;
#165 = LENGTH_MEASURE_WITH_UNIT ( LENGTH_MEASURE( 0.02539999999999999897 ), #133 );
#166 = FACE_OUTER_BOUND ( 'NONE', #34, .T. ) ;
#167 = PRESENTATION_LAYER_ASSIGNMENT (  '', '', ( #223 ) ) ;
#168 = FILL_AREA_STYLE_COLOUR ( '', #141 ) ;
#169 = DIRECTION ( 'NONE',  ( 0.000000000000000000, 0.000000000000000000, -1.000000000000000000 ) ) ;
#170 = CYLINDRICAL_SURFACE ( 'NONE', #270, 0.3749999999999998335 ) ;
#171 = AXIS2_PLACEMENT_3D ( 'NONE', #100, #160, #282 ) ;
#172 = DIRECTION ( 'NONE',  ( -1.000000000000000000, 0.000000000000000000, 0.000000000000000000 ) ) ;
#173 = EDGE_CURVE ( 'NONE', #301, #255, #146, .T. ) ;
#174 = AXIS2_PLACEMENT_3D ( 'NONE', #139, #196, #203 ) ;
#175 = DIRECTION ( 'NONE',  ( 0.000000000000000000, 0.000000000000000000, -1.000000000000000000 ) ) ;
#176 = PRESENTATION_LAYER_ASSIGNMENT (  '', '', ( #116 ) ) ;
#177 =( NAMED_UNIT ( * ) PLANE_ANGLE_UNIT ( ) SI_UNIT ( $, .RADIAN. ) );
#178 = CLOSED_SHELL ( 'NONE', ( #113, #309, #47, #5, #356 ) ) ;
#179 = AXIS2_PLACEMENT_3D ( 'NONE', #201, #105, #334 ) ;
#180 =( NAMED_UNIT ( * ) PLANE_ANGLE_UNIT ( ) SI_UNIT ( $, .RADIAN. ) );
#181 =( CONVERSION_BASED_UNIT ( 'INCH', #233 ) LENGTH_UNIT ( ) NAMED_UNIT ( #77 ) );
#182 = PRODUCT_CONTEXT ( 'NONE', #18, 'mechanical' ) ;
#183 = ORIENTED_EDGE ( 'NONE', *, *, #59, .F. ) ;
#184 = AXIS2_PLACEMENT_3D ( 'NONE', #155, #41, #303 ) ;
#185 = PRESENTATION_LAYER_ASSIGNMENT (  '', '', ( #346 ) ) ;
#186 = SURFACE_STYLE_FILL_AREA ( #244 ) ;
#187 = ORIENTED_EDGE ( 'NONE', *, *, #208, .F. ) ;
#188 = FILL_AREA_STYLE ('',( #327 ) ) ;
#189 = ORIENTED_EDGE ( 'NONE', *, *, #83, .T. ) ;
#190 = CARTESIAN_POINT ( 'NONE',  ( -4.592425496802575451E-17, 0.3750000000000000555, 0.000000000000000000 ) ) ;
#191 = DIRECTION ( 'NONE',  ( 1.224646799147353207E-16, -0.000000000000000000, 1.000000000000000000 ) ) ;
#192 = APPLICATION_PROTOCOL_DEFINITION ( 'draft international standard', 'automotive_design', 1998, #2 ) ;
#193 = DIRECTION ( 'NONE',  ( -1.740287556683080860E-16, 1.000000000000000000, -0.000000000000000000 ) ) ;
#194 = AXIS2_PLACEMENT_3D ( 'NONE', #312, #191, #78 ) ;
#195 = CARTESIAN_POINT ( 'NONE',  ( 0.3749999999999996669, 4.000000000000000000, 4.592425496802572370E-17 ) ) ;
#196 = DIRECTION ( 'NONE',  ( -1.740287556683080860E-16, 1.000000000000000000, -0.000000000000000000 ) ) ;
#197 = EDGE_CURVE ( 'NONE', #326, #280, #131, .T. ) ;
#198 = CARTESIAN_POINT ( 'NONE',  ( 2.908536147974964206E-16, 1.625000000000000000, 0.000000000000000000 ) ) ;
#199 = SURFACE_SIDE_STYLE ('',( #289 ) ) ;
#200 = CLOSED_SHELL ( 'NONE', ( #26, #101, #220, #157 ) ) ;
#201 = CARTESIAN_POINT ( 'NONE',  ( 0.000000000000000000, 0.3750000000000001110, 0.000000000000000000 ) ) ;
#202 = EDGE_CURVE ( 'NONE', #280, #259, #152, .T. ) ;
#203 = DIRECTION ( 'NONE',  ( -1.000000000000000000, 0.000000000000000000, 0.000000000000000000 ) ) ;
#204 = AXIS2_PLACEMENT_3D ( 'NONE', #143, #262, #108 ) ;
#205 = AXIS2_PLACEMENT_3D ( 'NONE', #44, #364, #169 ) ;
#206 =( LENGTH_UNIT ( ) NAMED_UNIT ( * ) SI_UNIT ( $, .METRE. ) );
#207 = ORIENTED_EDGE ( 'NONE', *, *, #254, .T. ) ;
#208 = EDGE_CURVE ( 'NONE', #118, #96, #335, .T. ) ;
#209 = ORIENTED_EDGE ( 'NONE', *, *, #59, .T. ) ;
#210 =( NAMED_UNIT ( * ) PLANE_ANGLE_UNIT ( ) SI_UNIT ( $, .RADIAN. ) );
#211 = ORIENTED_EDGE ( 'NONE', *, *, #296, .F. ) ;
#212 = ORIENTED_EDGE ( 'NONE', *, *, #88, .F. ) ;
#213 = CARTESIAN_POINT ( 'NONE',  ( -0.3749999999999999445, 4.000000000000000000, 0.000000000000000000 ) ) ;
#214 = PRESENTATION_STYLE_ASSIGNMENT (( #63 ) ) ;
#215 = DIRECTION ( 'NONE',  ( -1.740287556683080860E-16, 1.000000000000000000, -0.000000000000000000 ) ) ;
#216 = COLOUR_RGB ( '',0.7921568627450980005, 0.8196078431372548767, 0.9333333333333333481 ) ;
#217 = DIRECTION ( 'NONE',  ( 1.000000000000000000, 0.000000000000000000, 0.000000000000000000 ) ) ;
#218 = UNCERTAINTY_MEASURE_WITH_UNIT (LENGTH_MEASURE( 1.000000000000000082E-05 ), #69, 'distance_accuracy_value', 'NONE');
#219 =( CONVERSION_BASED_UNIT ( 'INCH', #360 ) LENGTH_UNIT ( ) NAMED_UNIT ( #265 ) );
#220 = ADVANCED_FACE ( 'NONE', ( #338 ), #170, .T. ) ;
#221 = DIMENSIONAL_EXPONENTS ( 1.000000000000000000, 0.000000000000000000, 0.000000000000000000, 0.000000000000000000, 0.000000000000000000, 0.000000000000000000, 0.000000000000000000 ) ;
#222 = AXIS2_PLACEMENT_3D ( 'NONE', #281, #250, #305 ) ;
#223 = STYLED_ITEM ( 'NONE', ( #117 ), #356 ) ;
#224 = VECTOR ( 'NONE', #60, 39.37007874015748143 ) ;
#225 = LENGTH_MEASURE_WITH_UNIT ( LENGTH_MEASURE( 0.02539999999999999897 ), #140 );
#226 = STYLED_ITEM ( 'NONE', ( #324 ), #91 ) ;
#227 = EDGE_CURVE ( 'NONE', #96, #301, #93, .T. ) ;
#228 = CARTESIAN_POINT ( 'NONE',  ( -0.3749999999999992784, 1.625000000000000000, 0.000000000000000000 ) ) ;
#229 =( NAMED_UNIT ( * ) PLANE_ANGLE_UNIT ( ) SI_UNIT ( $, .RADIAN. ) );
#230 = DIRECTION ( 'NONE',  ( -0.000000000000000000, -1.000000000000000000, -0.000000000000000000 ) ) ;
#231 = FILL_AREA_STYLE_COLOUR ( '', #237 ) ;
#232 = PRODUCT_DEFINITION_FORMATION_WITH_SPECIFIED_SOURCE ( 'ANY', '', #142, .NOT_KNOWN. ) ;
#233 = LENGTH_MEASURE_WITH_UNIT ( LENGTH_MEASURE( 0.02539999999999999897 ), #345 );
#234 = CYLINDRICAL_SURFACE ( 'NONE', #107, 0.3749999999999998335 ) ;
#235 = ORIENTED_EDGE ( 'NONE', *, *, #83, .F. ) ;
#236 = FILL_AREA_STYLE ('',( #274 ) ) ;
#237 = COLOUR_RGB ( '',1.000000000000000000, 0.000000000000000000, 0.000000000000000000 ) ;
#238 = CARTESIAN_POINT ( 'NONE',  ( 0.000000000000000000, 0.3750000000000001110, -0.3750000000000001110 ) ) ;
#239 = EDGE_LOOP ( 'NONE', ( #243, #124, #39, #122 ) ) ;
#240 =( GEOMETRIC_REPRESENTATION_CONTEXT ( 3 ) GLOBAL_UNCERTAINTY_ASSIGNED_CONTEXT ( ( #134 ) ) GLOBAL_UNIT_ASSIGNED_CONTEXT ( ( #156, #229, #56 ) ) REPRESENTATION_CONTEXT ( 'NONE', 'WORKASPACE' ) );
#241 = DIRECTION ( 'NONE',  ( 0.000000000000000000, 0.000000000000000000, 1.000000000000000000 ) ) ;
#242 = SURFACE_STYLE_FILL_AREA ( #320 ) ;
#243 = ORIENTED_EDGE ( 'NONE', *, *, #163, .T. ) ;
#244 = FILL_AREA_STYLE ('',( #66 ) ) ;
#245 = VERTEX_POINT ( 'NONE', #316 ) ;
#246 = LENGTH_MEASURE_WITH_UNIT ( LENGTH_MEASURE( 0.02539999999999999897 ), #90 );
#247 = FACE_OUTER_BOUND ( 'NONE', #99, .T. ) ;
#248 = ORIENTED_EDGE ( 'NONE', *, *, #227, .T. ) ;
#249 = AXIS2_PLACEMENT_3D ( 'NONE', #190, #304, #217 ) ;
#250 = DIRECTION ( 'NONE',  ( -1.740287556683080860E-16, 1.000000000000000000, -0.000000000000000000 ) ) ;
#251 = FACE_OUTER_BOUND ( 'NONE', #350, .T. ) ;
#252 = PRODUCT_RELATED_PRODUCT_CATEGORY ( 'part', '', ( #142 ) ) ;
#253 = PRESENTATION_STYLE_ASSIGNMENT (( #43 ) ) ;
#254 = EDGE_CURVE ( 'NONE', #266, #65, #314, .T. ) ;
#255 = VERTEX_POINT ( 'NONE', #135 ) ;
#256 = PRESENTATION_LAYER_ASSIGNMENT (  '', '', ( #57 ) ) ;
#257 = EDGE_CURVE ( 'NONE', #301, #245, #339, .T. ) ;
#258 = CARTESIAN_POINT ( 'NONE',  ( 0.3749999999999999445, 4.000000000000000000, 4.592425496802574219E-17 ) ) ;
#259 = VERTEX_POINT ( 'NONE', #258 ) ;
#260 = UNCERTAINTY_MEASURE_WITH_UNIT (LENGTH_MEASURE( 1.000000000000000082E-05 ), #181, 'distance_accuracy_value', 'NONE');
#261 = EDGE_LOOP ( 'NONE', ( #33, #189, #10, #212 ) ) ;
#262 = DIRECTION ( 'NONE',  ( -0.000000000000000000, -1.000000000000000000, -0.000000000000000000 ) ) ;
#263 = DIMENSIONAL_EXPONENTS ( 1.000000000000000000, 0.000000000000000000, 0.000000000000000000, 0.000000000000000000, 0.000000000000000000, 0.000000000000000000, 0.000000000000000000 ) ;
#264 = CARTESIAN_POINT ( 'NONE',  ( -1.224646799147352714E-16, 4.000000000000000000, 0.000000000000000000 ) ) ;
#265 = DIMENSIONAL_EXPONENTS ( 1.000000000000000000, 0.000000000000000000, 0.000000000000000000, 0.000000000000000000, 0.000000000000000000, 0.000000000000000000, 0.000000000000000000 ) ;
#266 = VERTEX_POINT ( 'NONE', #311 ) ;
#267 = LINE ( 'NONE', #82, #72 ) ;
#268 = SURFACE_SIDE_STYLE ('',( #61 ) ) ;
#269 = DIRECTION ( 'NONE',  ( -1.740287556683080860E-16, 1.000000000000000000, -0.000000000000000000 ) ) ;
#270 = AXIS2_PLACEMENT_3D ( 'NONE', #264, #336, #172 ) ;
#271 = CIRCLE ( 'NONE', #174, 0.3749999999999995559 ) ;
#272 = SURFACE_SIDE_STYLE ('',( #242 ) ) ;
#273 = ORIENTED_EDGE ( 'NONE', *, *, #3, .T. ) ;
#274 = FILL_AREA_STYLE_COLOUR ( '', #58 ) ;
#275 = AXIS2_PLACEMENT_3D ( 'NONE', #198, #287, #159 ) ;
#276 = SURFACE_SIDE_STYLE ('',( #8 ) ) ;
#277 = DIRECTION ( 'NONE',  ( -0.000000000000000000, -1.000000000000000000, -0.000000000000000000 ) ) ;
#278 =( CONVERSION_BASED_UNIT ( 'INCH', #246 ) LENGTH_UNIT ( ) NAMED_UNIT ( #106 ) );
#279 = LINE ( 'NONE', #195, #224 ) ;
#280 = VERTEX_POINT ( 'NONE', #25 ) ;
#281 = CARTESIAN_POINT ( 'NONE',  ( -1.224646799147352468E-16, 4.000000000000000000, 0.000000000000000000 ) ) ;
#282 = DIRECTION ( 'NONE',  ( 0.000000000000000000, 0.000000000000000000, -1.000000000000000000 ) ) ;
#283 = MECHANICAL_DESIGN_GEOMETRIC_PRESENTATION_REPRESENTATION (  '', ( #71 ), #14 ) ;
#284 =( NAMED_UNIT ( * ) SI_UNIT ( $, .STERADIAN. ) SOLID_ANGLE_UNIT ( ) );
#285 = AXIS2_PLACEMENT_3D ( 'NONE', #95, #286, #40 ) ;
#286 = DIRECTION ( 'NONE',  ( 1.740287556683080860E-16, -1.000000000000000000, 0.000000000000000000 ) ) ;
#287 = DIRECTION ( 'NONE',  ( -1.740287556683080860E-16, 1.000000000000000000, -0.000000000000000000 ) ) ;
#288 =( NAMED_UNIT ( * ) PLANE_ANGLE_UNIT ( ) SI_UNIT ( $, .RADIAN. ) );
#289 = SURFACE_STYLE_FILL_AREA ( #293 ) ;
#290 = FILL_AREA_STYLE ('',( #168 ) ) ;
#291 = UNCERTAINTY_MEASURE_WITH_UNIT (LENGTH_MEASURE( 1.000000000000000082E-05 ), #80, 'distance_accuracy_value', 'NONE');
#292 = DIRECTION ( 'NONE',  ( 0.000000000000000000, 0.000000000000000000, -1.000000000000000000 ) ) ;
#293 = FILL_AREA_STYLE ('',( #370 ) ) ;
#294 =( GEOMETRIC_REPRESENTATION_CONTEXT ( 3 ) GLOBAL_UNCERTAINTY_ASSIGNED_CONTEXT ( ( #291 ) ) GLOBAL_UNIT_ASSIGNED_CONTEXT ( ( #80, #369, #315 ) ) REPRESENTATION_CONTEXT ( 'NONE', 'WORKASPACE' ) );
#295 = CARTESIAN_POINT ( 'NONE',  ( 0.000000000000000000, 1.625000000000000000, 0.000000000000000000 ) ) ;
#296 = EDGE_CURVE ( 'NONE', #65, #96, #267, .T. ) ;
#297 = PRESENTATION_LAYER_ASSIGNMENT (  '', '', ( #71 ) ) ;
#298 = EDGE_CURVE ( 'NONE', #326, #302, #271, .T. ) ;
#299 = APPLICATION_PROTOCOL_DEFINITION ( 'draft international standard', 'automotive_design', 1998, #18 ) ;
#300 =( GEOMETRIC_REPRESENTATION_CONTEXT ( 3 ) GLOBAL_UNCERTAINTY_ASSIGNED_CONTEXT ( ( #20 ) ) GLOBAL_UNIT_ASSIGNED_CONTEXT ( ( #310, #210, #67 ) ) REPRESENTATION_CONTEXT ( 'NONE', 'WORKASPACE' ) );
#301 = VERTEX_POINT ( 'NONE', #317 ) ;
#302 = VERTEX_POINT ( 'NONE', #29 ) ;
#303 = DIRECTION ( 'NONE',  ( 1.000000000000000000, 0.000000000000000000, 0.000000000000000000 ) ) ;
#304 = DIRECTION ( 'NONE',  ( 0.000000000000000000, 0.000000000000000000, 1.000000000000000000 ) ) ;
#305 = DIRECTION ( 'NONE',  ( -1.000000000000000000, 0.000000000000000000, 0.000000000000000000 ) ) ;
#306 = CARTESIAN_POINT ( 'NONE',  ( 2.908536147974963713E-16, 1.625000000000000000, 0.000000000000000000 ) ) ;
#307 =( GEOMETRIC_REPRESENTATION_CONTEXT ( 3 ) GLOBAL_UNCERTAINTY_ASSIGNED_CONTEXT ( ( #218 ) ) GLOBAL_UNIT_ASSIGNED_CONTEXT ( ( #69, #288, #37 ) ) REPRESENTATION_CONTEXT ( 'NONE', 'WORKASPACE' ) );
#308 = MECHANICAL_DESIGN_GEOMETRIC_PRESENTATION_REPRESENTATION (  '', ( #128 ), #294 ) ;
#309 = ADVANCED_FACE ( 'NONE', ( #166 ), #46, .T. ) ;
#310 =( CONVERSION_BASED_UNIT ( 'INCH', #165 ) LENGTH_UNIT ( ) NAMED_UNIT ( #358 ) );
#311 = CARTESIAN_POINT ( 'NONE',  ( 4.592425496802572986E-17, 1.625000000000000000, 0.3749999999999998335 ) ) ;
#312 = CARTESIAN_POINT ( 'NONE',  ( -4.592425496802575451E-17, 0.3750000000000000555, 0.000000000000000000 ) ) ;
#313 = FACE_OUTER_BOUND ( 'NONE', #64, .T. ) ;
#314 = CIRCLE ( 'NONE', #352, 0.3749999999999998335 ) ;
#315 =( NAMED_UNIT ( * ) SI_UNIT ( $, .STERADIAN. ) SOLID_ANGLE_UNIT ( ) );
#316 = CARTESIAN_POINT ( 'NONE',  ( -2.296212748401287109E-17, -6.829619984160658046E-17, 0.000000000000000000 ) ) ;
#317 = CARTESIAN_POINT ( 'NONE',  ( 0.3750000000000001110, 0.3750000000000001110, 0.000000000000000000 ) ) ;
#318 = VECTOR ( 'NONE', #193, 39.37007874015748143 ) ;
#319 = CARTESIAN_POINT ( 'NONE',  ( 0.000000000000000000, 0.000000000000000000, 0.000000000000000000 ) ) ;
#320 = FILL_AREA_STYLE ('',( #357 ) ) ;
#321 = ORIENTED_EDGE ( 'NONE', *, *, #257, .T. ) ;
#322 = CIRCLE ( 'NONE', #194, 0.3750000000000001110 ) ;
#323 = AXIS2_PLACEMENT_3D ( 'NONE', #306, #38, #7 ) ;
#324 = PRESENTATION_STYLE_ASSIGNMENT (( #372 ) ) ;
#325 = SPHERICAL_SURFACE ( 'NONE', #184, 0.3750000000000001110 ) ;
#326 = VERTEX_POINT ( 'NONE', #228 ) ;
#327 = FILL_AREA_STYLE_COLOUR ( '', #27 ) ;
#328 = DIMENSIONAL_EXPONENTS ( 1.000000000000000000, 0.000000000000000000, 0.000000000000000000, 0.000000000000000000, 0.000000000000000000, 0.000000000000000000, 0.000000000000000000 ) ;
#329 = SURFACE_STYLE_FILL_AREA ( #188 ) ;
#330 = LENGTH_MEASURE_WITH_UNIT ( LENGTH_MEASURE( 0.02539999999999999897 ), #206 );
#331 = DIRECTION ( 'NONE',  ( -0.000000000000000000, -1.000000000000000000, -0.000000000000000000 ) ) ;
#332 = ORIENTED_EDGE ( 'NONE', *, *, #163, .F. ) ;
#333 = DIRECTION ( 'NONE',  ( 0.000000000000000000, 1.000000000000000000, 0.000000000000000000 ) ) ;
#334 = DIRECTION ( 'NONE',  ( 0.000000000000000000, 0.000000000000000000, -1.000000000000000000 ) ) ;
#335 = CIRCLE ( 'NONE', #205, 0.3750000000000001110 ) ;
#336 = DIRECTION ( 'NONE',  ( -1.740287556683080860E-16, 1.000000000000000000, -0.000000000000000000 ) ) ;
#337 = SURFACE_SIDE_STYLE ('',( #24 ) ) ;
#338 = FACE_OUTER_BOUND ( 'NONE', #261, .T. ) ;
#339 = CIRCLE ( 'NONE', #89, 0.3750000000000001110 ) ;
#340 = FILL_AREA_STYLE ('',( #231 ) ) ;
#341 =( NAMED_UNIT ( * ) PLANE_ANGLE_UNIT ( ) SI_UNIT ( $, .RADIAN. ) );
#342 = DIRECTION ( 'NONE',  ( -1.000000000000000000, 0.000000000000000000, 0.000000000000000000 ) ) ;
#343 = PRESENTATION_STYLE_ASSIGNMENT (( #111 ) ) ;
#344 = AXIS2_PLACEMENT_3D ( 'NONE', #70, #331, #161 ) ;
#345 =( LENGTH_UNIT ( ) NAMED_UNIT ( * ) SI_UNIT ( $, .METRE. ) );
#346 = STYLED_ITEM ( 'NONE', ( #129 ), #5 ) ;
#347 = ORIENTED_EDGE ( 'NONE', *, *, #227, .F. ) ;
#348 = ORIENTED_EDGE ( 'NONE', *, *, #298, .T. ) ;
#349 = SURFACE_SIDE_STYLE ('',( #329 ) ) ;
#350 = EDGE_LOOP ( 'NONE', ( #150, #235 ) ) ;
#351 = CARTESIAN_POINT ( 'NONE',  ( 0.000000000000000000, 0.000000000000000000, 0.000000000000000000 ) ) ;
#352 = AXIS2_PLACEMENT_3D ( 'NONE', #295, #103, #292 ) ;
#353 = PLANE ( 'NONE',  #285 ) ;
#354 = ORIENTED_EDGE ( 'NONE', *, *, #296, .T. ) ;
#355 = CARTESIAN_POINT ( 'NONE',  ( 0.000000000000000000, 0.3750000000000001110, 0.000000000000000000 ) ) ;
#356 = ADVANCED_FACE ( 'NONE', ( #313 ), #325, .T. ) ;
#357 = FILL_AREA_STYLE_COLOUR ( '', #216 ) ;
#358 = DIMENSIONAL_EXPONENTS ( 1.000000000000000000, 0.000000000000000000, 0.000000000000000000, 0.000000000000000000, 0.000000000000000000, 0.000000000000000000, 0.000000000000000000 ) ;
#359 = DIRECTION ( 'NONE',  ( 0.000000000000000000, 0.000000000000000000, -1.000000000000000000 ) ) ;
#360 = LENGTH_MEASURE_WITH_UNIT ( LENGTH_MEASURE( 0.02539999999999999897 ), #74 );
#361 = ORIENTED_EDGE ( 'NONE', *, *, #75, .F. ) ;
#362 = UNCERTAINTY_MEASURE_WITH_UNIT (LENGTH_MEASURE( 1.000000000000000082E-05 ), #1, 'distance_accuracy_value', 'NONE');
#363 = CARTESIAN_POINT ( 'NONE',  ( 0.000000000000000000, 1.625000000000000000, -0.3749999999999998335 ) ) ;
#364 = DIRECTION ( 'NONE',  ( -0.000000000000000000, -1.000000000000000000, -0.000000000000000000 ) ) ;
#365 = SURFACE_STYLE_USAGE ( .BOTH. , #199 ) ;
#366 = AXIS2_PLACEMENT_3D ( 'NONE', #355, #13, #359 ) ;
#367 =( GEOMETRIC_REPRESENTATION_CONTEXT ( 3 ) GLOBAL_UNCERTAINTY_ASSIGNED_CONTEXT ( ( #260 ) ) GLOBAL_UNIT_ASSIGNED_CONTEXT ( ( #181, #341, #284 ) ) REPRESENTATION_CONTEXT ( 'NONE', 'WORKASPACE' ) );
#368 = CIRCLE ( 'NONE', #171, 0.3750000000000001110 ) ;
#369 =( NAMED_UNIT ( * ) PLANE_ANGLE_UNIT ( ) SI_UNIT ( $, .RADIAN. ) );
#370 = FILL_AREA_STYLE_COLOUR ( '', #21 ) ;
#371 = PLANE ( 'NONE',  #127 ) ;
#372 = SURFACE_STYLE_USAGE ( .BOTH. , #272 ) ;
#373 = DIRECTION ( 'NONE',  ( -0.000000000000000000, -1.000000000000000000, -0.000000000000000000 ) ) ;
ENDSEC;
END-ISO-10303-21;
