ISO-10303-21;
HEADER;
FILE_DESCRIPTION (( 'STEP AP214' ),
    '1' );
FILE_NAME ('59827.STEP',
    '2023-07-12T13:06:46',
    ( '' ),
    ( '' ),
    'SwSTEP 2.0',
    'SolidWorks 2023',
    '' );
FILE_SCHEMA (( 'AUTOMOTIVE_DESIGN' ));
ENDSEC;

DATA;
#1 = CARTESIAN_POINT ( 'NONE',  ( -0.2500000000000000000, 0.1762109225472281437, 0.000000000000000000 ) ) ;
#2 =( LENGTH_UNIT ( ) NAMED_UNIT ( * ) SI_UNIT ( $, .METRE. ) );
#3 = DIMENSIONAL_EXPONENTS ( 1.000000000000000000, 0.000000000000000000, 0.000000000000000000, 0.000000000000000000, 0.000000000000000000, 0.000000000000000000, 0.000000000000000000 ) ;
#4 = ORIENTED_EDGE ( 'NONE', *, *, #124, .F. ) ;
#5 = DIRECTION ( 'NONE',  ( -1.206031236776656774E-16, 1.000000000000000000, -0.000000000000000000 ) ) ;
#6 = ORIENTED_EDGE ( 'NONE', *, *, #153, .T. ) ;
#7 = DIRECTION ( 'NONE',  ( -1.206031236776656774E-16, 1.000000000000000000, 0.000000000000000000 ) ) ;
#8 = FILL_AREA_STYLE_COLOUR ( '', #267 ) ;
#9 = ORIENTED_EDGE ( 'NONE', *, *, #153, .F. ) ;
#10 = DIRECTION ( 'NONE',  ( -1.000000000000000000, -1.206031236776656774E-16, 0.000000000000000000 ) ) ;
#11 = EDGE_CURVE ( 'NONE', #61, #239, #274, .T. ) ;
#12 = CYLINDRICAL_SURFACE ( 'NONE', #35, 0.2499999999999998890 ) ;
#13 = FILL_AREA_STYLE ('',( #246 ) ) ;
#14 = DIMENSIONAL_EXPONENTS ( 1.000000000000000000, 0.000000000000000000, 0.000000000000000000, 0.000000000000000000, 0.000000000000000000, 0.000000000000000000, 0.000000000000000000 ) ;
#15 = VECTOR ( 'NONE', #34, 39.37007874015748143 ) ;
#16 = CARTESIAN_POINT ( 'NONE',  ( 0.04000000000000000083, 0.000000000000000000, 4.898587196589413537E-18 ) ) ;
#17 = FILL_AREA_STYLE ('',( #94 ) ) ;
#18 = LINE ( 'NONE', #230, #98 ) ;
#19 = SURFACE_STYLE_USAGE ( .BOTH. , #187 ) ;
#20 = AXIS2_PLACEMENT_3D ( 'NONE', #273, #110, #128 ) ;
#21 = UNCERTAINTY_MEASURE_WITH_UNIT (LENGTH_MEASURE( 1.000000000000000082E-05 ), #107, 'distance_accuracy_value', 'NONE');
#22 = CARTESIAN_POINT ( 'NONE',  ( 1.449978133535231054E-18, 0.1762109225472281437, 0.000000000000000000 ) ) ;
#23 = UNCERTAINTY_MEASURE_WITH_UNIT (LENGTH_MEASURE( 1.000000000000000082E-05 ), #165, 'distance_accuracy_value', 'NONE');
#24 = CARTESIAN_POINT ( 'NONE',  ( 2.793254433903104166E-16, 0.1762109225472281715, 0.000000000000000000 ) ) ;
#25 =( NAMED_UNIT ( * ) PLANE_ANGLE_UNIT ( ) SI_UNIT ( $, .RADIAN. ) );
#26 = PRESENTATION_LAYER_ASSIGNMENT (  '', '', ( #188 ) ) ;
#27 = ADVANCED_FACE ( 'NONE', ( #184 ), #201, .T. ) ;
#28 = MANIFOLD_SOLID_BREP ( 'Revolve - Cutting Edge', #81 ) ;
#29 = ORIENTED_EDGE ( 'NONE', *, *, #124, .T. ) ;
#30 = PLANE ( 'NONE',  #236 ) ;
#31 = EDGE_LOOP ( 'NONE', ( #268, #100, #84, #54 ) ) ;
#32 = DIRECTION ( 'NONE',  ( -1.000000000000000000, 8.228650713446025827E-18, 0.000000000000000000 ) ) ;
#33 = FACE_OUTER_BOUND ( 'NONE', #145, .T. ) ;
#34 = DIRECTION ( 'NONE',  ( -1.206031236776656774E-16, 1.000000000000000000, -0.000000000000000000 ) ) ;
#35 = AXIS2_PLACEMENT_3D ( 'NONE', #125, #58, #238 ) ;
#36 = CARTESIAN_POINT ( 'NONE',  ( 2.708427702555831290E-36, 3.291460285378410388E-19, 0.000000000000000000 ) ) ;
#37 = DIRECTION ( 'NONE',  ( 1.000000000000000000, -8.228650713446025827E-18, 0.000000000000000000 ) ) ;
#38 = PRODUCT ( '59827', '59827', '', ( #297 ) ) ;
#39 = AXIS2_PLACEMENT_3D ( 'NONE', #242, #146, #32 ) ;
#40 = CYLINDRICAL_SURFACE ( 'NONE', #141, 0.2499999999999998890 ) ;
#41 = PRESENTATION_STYLE_ASSIGNMENT (( #159 ) ) ;
#42 = ADVANCED_FACE ( 'NONE', ( #50 ), #30, .T. ) ;
#43 = LINE ( 'NONE', #16, #139 ) ;
#44 = CARTESIAN_POINT ( 'NONE',  ( -6.123233995736772199E-17, 3.000000000000000444, 0.000000000000000000 ) ) ;
#45 = COLOUR_RGB ( '',1.000000000000000000, 0.000000000000000000, 0.000000000000000000 ) ;
#46 = COLOUR_RGB ( '',1.000000000000000000, 0.000000000000000000, 0.000000000000000000 ) ;
#47 = SURFACE_STYLE_FILL_AREA ( #52 ) ;
#48 = ADVANCED_FACE ( 'NONE', ( #102 ), #127, .F. ) ;
#49 = DIRECTION ( 'NONE',  ( -8.228650713446025827E-18, -1.000000000000000000, -0.000000000000000000 ) ) ;
#50 = FACE_OUTER_BOUND ( 'NONE', #103, .T. ) ;
#51 = STYLED_ITEM ( 'NONE', ( #108 ), #63 ) ;
#52 = FILL_AREA_STYLE ('',( #168 ) ) ;
#53 =( LENGTH_UNIT ( ) NAMED_UNIT ( * ) SI_UNIT ( $, .METRE. ) );
#54 = ORIENTED_EDGE ( 'NONE', *, *, #294, .T. ) ;
#55 = CARTESIAN_POINT ( 'NONE',  ( -0.2499999999999994449, 0.1762109225472281437, 0.000000000000000000 ) ) ;
#56 = LENGTH_MEASURE_WITH_UNIT ( LENGTH_MEASURE( 0.02539999999999999897 ), #212 );
#57 = AXIS2_PLACEMENT_3D ( 'NONE', #79, #171, #304 ) ;
#58 = DIRECTION ( 'NONE',  ( -1.206031236776656774E-16, 1.000000000000000000, -0.000000000000000000 ) ) ;
#59 = DIMENSIONAL_EXPONENTS ( 1.000000000000000000, 0.000000000000000000, 0.000000000000000000, 0.000000000000000000, 0.000000000000000000, 0.000000000000000000, 0.000000000000000000 ) ;
#60 =( NAMED_UNIT ( * ) SI_UNIT ( $, .STERADIAN. ) SOLID_ANGLE_UNIT ( ) );
#61 = VERTEX_POINT ( 'NONE', #220 ) ;
#62 = CARTESIAN_POINT ( 'NONE',  ( -0.04000000000000000083, 6.582920570756820777E-19, 0.000000000000000000 ) ) ;
#63 = ADVANCED_FACE ( 'NONE', ( #196 ), #147, .T. ) ;
#64 = SURFACE_SIDE_STYLE ('',( #67 ) ) ;
#65 = APPLICATION_PROTOCOL_DEFINITION ( 'draft international standard', 'automotive_design', 1998, #118 ) ;
#66 = LENGTH_MEASURE_WITH_UNIT ( LENGTH_MEASURE( 0.02539999999999999897 ), #225 );
#67 = SURFACE_STYLE_FILL_AREA ( #13 ) ;
#68 =( LENGTH_UNIT ( ) NAMED_UNIT ( * ) SI_UNIT ( $, .METRE. ) );
#69 = FILL_AREA_STYLE ('',( #92 ) ) ;
#70 = DIRECTION ( 'NONE',  ( -1.206031236776656774E-16, 1.000000000000000000, -0.000000000000000000 ) ) ;
#71 = AXIS2_PLACEMENT_3D ( 'NONE', #24, #169, #284 ) ;
#72 =( NAMED_UNIT ( * ) PLANE_ANGLE_UNIT ( ) SI_UNIT ( $, .RADIAN. ) );
#73 = STYLED_ITEM ( 'NONE', ( #254 ), #210 ) ;
#74 = APPLICATION_PROTOCOL_DEFINITION ( 'draft international standard', 'automotive_design', 1998, #257 ) ;
#75 = EDGE_CURVE ( 'NONE', #119, #121, #104, .T. ) ;
#76 = ORIENTED_EDGE ( 'NONE', *, *, #186, .T. ) ;
#77 = ADVANCED_FACE ( 'NONE', ( #33 ), #12, .T. ) ;
#78 =( GEOMETRIC_REPRESENTATION_CONTEXT ( 3 ) GLOBAL_UNCERTAINTY_ASSIGNED_CONTEXT ( ( #281 ) ) GLOBAL_UNIT_ASSIGNED_CONTEXT ( ( #182, #160, #276 ) ) REPRESENTATION_CONTEXT ( 'NONE', 'WORKASPACE' ) );
#79 = CARTESIAN_POINT ( 'NONE',  ( 2.793254433903104166E-16, 0.1762109225472281715, 0.000000000000000000 ) ) ;
#80 = ORIENTED_EDGE ( 'NONE', *, *, #282, .T. ) ;
#81 = CLOSED_SHELL ( 'NONE', ( #210, #42, #63, #27 ) ) ;
#82 = FILL_AREA_STYLE ('',( #8 ) ) ;
#83 = STYLED_ITEM ( 'NONE', ( #181 ), #231 ) ;
#84 = ORIENTED_EDGE ( 'NONE', *, *, #248, .T. ) ;
#85 = DIRECTION ( 'NONE',  ( 1.000000000000000000, 0.000000000000000000, 0.000000000000000000 ) ) ;
#86 =( CONVERSION_BASED_UNIT ( 'INCH', #66 ) LENGTH_UNIT ( ) NAMED_UNIT ( #240 ) );
#87 = CARTESIAN_POINT ( 'NONE',  ( 0.2500000000000000000, 0.1762109225472281993, 3.061616997868382402E-17 ) ) ;
#88 = PRODUCT_RELATED_PRODUCT_CATEGORY ( 'part', '', ( #38 ) ) ;
#89 = PRESENTATION_LAYER_ASSIGNMENT (  '', '', ( #73 ) ) ;
#90 = SURFACE_SIDE_STYLE ('',( #133 ) ) ;
#91 = FACE_OUTER_BOUND ( 'NONE', #265, .T. ) ;
#92 = FILL_AREA_STYLE_COLOUR ( '', #45 ) ;
#93 = LENGTH_MEASURE_WITH_UNIT ( LENGTH_MEASURE( 0.02539999999999999897 ), #68 );
#94 = FILL_AREA_STYLE_COLOUR ( '', #203 ) ;
#95 = CARTESIAN_POINT ( 'NONE',  ( 0.2500000000000000000, 3.000000000000000444, 0.000000000000000000 ) ) ;
#96 = UNCERTAINTY_MEASURE_WITH_UNIT (LENGTH_MEASURE( 1.000000000000000082E-05 ), #86, 'distance_accuracy_value', 'NONE');
#97 = AXIS2_PLACEMENT_3D ( 'NONE', #266, #7, #10 ) ;
#98 = VECTOR ( 'NONE', #114, 39.37007874015748143 ) ;
#99 = EDGE_CURVE ( 'NONE', #106, #126, #291, .T. ) ;
#100 = ORIENTED_EDGE ( 'NONE', *, *, #99, .F. ) ;
#101 = PRESENTATION_LAYER_ASSIGNMENT (  '', '', ( #251 ) ) ;
#102 = FACE_OUTER_BOUND ( 'NONE', #192, .T. ) ;
#103 = EDGE_LOOP ( 'NONE', ( #197, #170 ) ) ;
#104 = LINE ( 'NONE', #244, #15 ) ;
#105 = CARTESIAN_POINT ( 'NONE',  ( 0.000000000000000000, 0.000000000000000000, 0.000000000000000000 ) ) ;
#106 = VERTEX_POINT ( 'NONE', #62 ) ;
#107 =( CONVERSION_BASED_UNIT ( 'INCH', #223 ) LENGTH_UNIT ( ) NAMED_UNIT ( #235 ) );
#108 = PRESENTATION_STYLE_ASSIGNMENT (( #149 ) ) ;
#109 = LINE ( 'NONE', #208, #232 ) ;
#110 = DIRECTION ( 'NONE',  ( -8.228650713446025827E-18, -1.000000000000000000, -0.000000000000000000 ) ) ;
#111 = DIRECTION ( 'NONE',  ( 0.7660444431189792347, 0.6427876096865379196, 9.381338752702745572E-17 ) ) ;
#112 = AXIS2_PLACEMENT_3D ( 'NONE', #36, #193, #37 ) ;
#113 = DIRECTION ( 'NONE',  ( -8.228650713446025827E-18, -1.000000000000000000, 0.000000000000000000 ) ) ;
#114 = DIRECTION ( 'NONE',  ( -1.206031236776656774E-16, 1.000000000000000000, -0.000000000000000000 ) ) ;
#115 = DIRECTION ( 'NONE',  ( -1.000000000000000000, 0.000000000000000000, 0.000000000000000000 ) ) ;
#116 = AXIS2_PLACEMENT_3D ( 'NONE', #22, #49, #143 ) ;
#117 =( NAMED_UNIT ( * ) SI_UNIT ( $, .STERADIAN. ) SOLID_ANGLE_UNIT ( ) );
#118 = APPLICATION_CONTEXT ( 'automotive_design' ) ;
#119 = VERTEX_POINT ( 'NONE', #87 ) ;
#120 = EDGE_CURVE ( 'NONE', #126, #106, #277, .T. ) ;
#121 = VERTEX_POINT ( 'NONE', #275 ) ;
#122 = PRESENTATION_LAYER_ASSIGNMENT (  '', '', ( #183 ) ) ;
#123 = ORIENTED_EDGE ( 'NONE', *, *, #120, .T. ) ;
#124 = EDGE_CURVE ( 'NONE', #288, #121, #256, .T. ) ;
#125 = CARTESIAN_POINT ( 'NONE',  ( -6.123233995736772199E-17, 3.000000000000000444, 0.000000000000000000 ) ) ;
#126 = VERTEX_POINT ( 'NONE', #296 ) ;
#127 = PLANE ( 'NONE',  #97 ) ;
#128 = DIRECTION ( 'NONE',  ( 1.000000000000000000, 0.000000000000000000, 0.000000000000000000 ) ) ;
#129 = SURFACE_STYLE_FILL_AREA ( #82 ) ;
#130 = SURFACE_STYLE_USAGE ( .BOTH. , #90 ) ;
#131 = DIRECTION ( 'NONE',  ( -1.000000000000000000, 0.000000000000000000, 0.000000000000000000 ) ) ;
#132 = MECHANICAL_DESIGN_GEOMETRIC_PRESENTATION_REPRESENTATION (  '', ( #51 ), #209 ) ;
#133 = SURFACE_STYLE_FILL_AREA ( #69 ) ;
#134 = DIRECTION ( 'NONE',  ( 1.000000000000000000, 1.206031236776656774E-16, 0.000000000000000000 ) ) ;
#135 = PLANE ( 'NONE',  #180 ) ;
#136 = LENGTH_MEASURE_WITH_UNIT ( LENGTH_MEASURE( 0.02539999999999999897 ), #185 );
#137 =( GEOMETRIC_REPRESENTATION_CONTEXT ( 3 ) GLOBAL_UNCERTAINTY_ASSIGNED_CONTEXT ( ( #164 ) ) GLOBAL_UNIT_ASSIGNED_CONTEXT ( ( #258, #72, #308 ) ) REPRESENTATION_CONTEXT ( 'NONE', 'WORKASPACE' ) );
#138 = DIRECTION ( 'NONE',  ( -0.7660444431189792347, 0.6427876096865379196, 0.000000000000000000 ) ) ;
#139 = VECTOR ( 'NONE', #111, 39.37007874015748143 ) ;
#140 = EDGE_CURVE ( 'NONE', #121, #288, #217, .T. ) ;
#141 = AXIS2_PLACEMENT_3D ( 'NONE', #44, #70, #115 ) ;
#142 = PRODUCT_DEFINITION_CONTEXT ( 'detailed design', #118, 'design' ) ;
#143 = DIRECTION ( 'NONE',  ( 1.000000000000000000, 0.000000000000000000, 0.000000000000000000 ) ) ;
#144 = SURFACE_SIDE_STYLE ('',( #47 ) ) ;
#145 = EDGE_LOOP ( 'NONE', ( #194, #6, #148, #191 ) ) ;
#146 = DIRECTION ( 'NONE',  ( 8.228650713446025827E-18, 1.000000000000000000, 0.000000000000000000 ) ) ;
#147 = CONICAL_SURFACE ( 'NONE', #39, 0.04000000000000000083, 0.8726646259971666542 ) ;
#148 = ORIENTED_EDGE ( 'NONE', *, *, #172, .T. ) ;
#149 = SURFACE_STYLE_USAGE ( .BOTH. , #226 ) ;
#150 = VERTEX_POINT ( 'NONE', #55 ) ;
#151 = ORIENTED_EDGE ( 'NONE', *, *, #248, .F. ) ;
#152 = DIRECTION ( 'NONE',  ( 8.228650713446025827E-18, 1.000000000000000000, 0.000000000000000000 ) ) ;
#153 = EDGE_CURVE ( 'NONE', #119, #150, #299, .T. ) ;
#154 = CLOSED_SHELL ( 'NONE', ( #227, #48, #77, #162 ) ) ;
#155 = DIRECTION ( 'NONE',  ( 1.000000000000000000, -8.228650713446025827E-18, 0.000000000000000000 ) ) ;
#156 =( NAMED_UNIT ( * ) PLANE_ANGLE_UNIT ( ) SI_UNIT ( $, .RADIAN. ) );
#157 = CARTESIAN_POINT ( 'NONE',  ( 1.354213851277915645E-36, 1.645730142689205194E-19, 0.000000000000000000 ) ) ;
#158 = CARTESIAN_POINT ( 'NONE',  ( 2.708427702555831290E-36, 3.291460285378410388E-19, 0.000000000000000000 ) ) ;
#159 = SURFACE_STYLE_USAGE ( .BOTH. , #64 ) ;
#160 =( NAMED_UNIT ( * ) PLANE_ANGLE_UNIT ( ) SI_UNIT ( $, .RADIAN. ) );
#161 = SHAPE_DEFINITION_REPRESENTATION ( #300, #190 ) ;
#162 = ADVANCED_FACE ( 'NONE', ( #205 ), #135, .F. ) ;
#163 = MECHANICAL_DESIGN_GEOMETRIC_PRESENTATION_REPRESENTATION (  '', ( #183 ), #174 ) ;
#164 = UNCERTAINTY_MEASURE_WITH_UNIT (LENGTH_MEASURE( 1.000000000000000082E-05 ), #258, 'distance_accuracy_value', 'NONE');
#165 =( CONVERSION_BASED_UNIT ( 'INCH', #285 ) LENGTH_UNIT ( ) NAMED_UNIT ( #3 ) );
#166 = MECHANICAL_DESIGN_GEOMETRIC_PRESENTATION_REPRESENTATION (  '', ( #73 ), #78 ) ;
#167 = PRODUCT_DEFINITION_FORMATION_WITH_SPECIFIED_SOURCE ( 'ANY', '', #38, .NOT_KNOWN. ) ;
#168 = FILL_AREA_STYLE_COLOUR ( '', #200 ) ;
#169 = DIRECTION ( 'NONE',  ( -1.206031236776656774E-16, 1.000000000000000000, -0.000000000000000000 ) ) ;
#170 = ORIENTED_EDGE ( 'NONE', *, *, #11, .F. ) ;
#171 = DIRECTION ( 'NONE',  ( -1.206031236776656774E-16, 1.000000000000000000, -0.000000000000000000 ) ) ;
#172 = EDGE_CURVE ( 'NONE', #150, #288, #18, .T. ) ;
#173 = ORIENTED_EDGE ( 'NONE', *, *, #172, .F. ) ;
#174 =( GEOMETRIC_REPRESENTATION_CONTEXT ( 3 ) GLOBAL_UNCERTAINTY_ASSIGNED_CONTEXT ( ( #23 ) ) GLOBAL_UNIT_ASSIGNED_CONTEXT ( ( #165, #25, #117 ) ) REPRESENTATION_CONTEXT ( 'NONE', 'WORKASPACE' ) );
#175 =( LENGTH_UNIT ( ) NAMED_UNIT ( * ) SI_UNIT ( $, .METRE. ) );
#176 = ORIENTED_EDGE ( 'NONE', *, *, #75, .T. ) ;
#177 = CARTESIAN_POINT ( 'NONE',  ( 2.708427702555831290E-36, 3.291460285378410388E-19, 0.000000000000000000 ) ) ;
#178 =( NAMED_UNIT ( * ) PLANE_ANGLE_UNIT ( ) SI_UNIT ( $, .RADIAN. ) );
#179 = CARTESIAN_POINT ( 'NONE',  ( -6.123233995736772199E-17, 3.000000000000000444, 0.000000000000000000 ) ) ;
#180 = AXIS2_PLACEMENT_3D ( 'NONE', #95, #255, #134 ) ;
#181 = PRESENTATION_STYLE_ASSIGNMENT (( #298 ) ) ;
#182 =( CONVERSION_BASED_UNIT ( 'INCH', #93 ) LENGTH_UNIT ( ) NAMED_UNIT ( #59 ) );
#183 = STYLED_ITEM ( 'NONE', ( #215 ), #42 ) ;
#184 = FACE_OUTER_BOUND ( 'NONE', #243, .T. ) ;
#185 =( LENGTH_UNIT ( ) NAMED_UNIT ( * ) SI_UNIT ( $, .METRE. ) );
#186 = EDGE_CURVE ( 'NONE', #126, #61, #43, .T. ) ;
#187 = SURFACE_SIDE_STYLE ('',( #301 ) ) ;
#188 = STYLED_ITEM ( 'NONE', ( #229 ), #27 ) ;
#189 = AXIS2_PLACEMENT_3D ( 'NONE', #286, #5, #198 ) ;
#190 = ADVANCED_BREP_SHAPE_REPRESENTATION ( '59827', ( #28, #231, #309 ), #219 ) ;
#191 = ORIENTED_EDGE ( 'NONE', *, *, #140, .F. ) ;
#192 = EDGE_LOOP ( 'NONE', ( #221, #9 ) ) ;
#193 = DIRECTION ( 'NONE',  ( -8.228650713446025827E-18, -1.000000000000000000, -0.000000000000000000 ) ) ;
#194 = ORIENTED_EDGE ( 'NONE', *, *, #75, .F. ) ;
#195 = ORIENTED_EDGE ( 'NONE', *, *, #11, .T. ) ;
#196 = FACE_OUTER_BOUND ( 'NONE', #31, .T. ) ;
#197 = ORIENTED_EDGE ( 'NONE', *, *, #294, .F. ) ;
#198 = DIRECTION ( 'NONE',  ( -1.000000000000000000, 0.000000000000000000, 0.000000000000000000 ) ) ;
#199 = SURFACE_STYLE_FILL_AREA ( #17 ) ;
#200 = COLOUR_RGB ( '',1.000000000000000000, 0.000000000000000000, 0.000000000000000000 ) ;
#201 = PLANE ( 'NONE',  #245 ) ;
#202 = FILL_AREA_STYLE_COLOUR ( '', #46 ) ;
#203 = COLOUR_RGB ( '',0.7921568627450980005, 0.8196078431372548767, 0.9333333333333333481 ) ;
#204 = SURFACE_SIDE_STYLE ('',( #199 ) ) ;
#205 = FACE_OUTER_BOUND ( 'NONE', #214, .T. ) ;
#206 = AXIS2_PLACEMENT_3D ( 'NONE', #177, #272, #218 ) ;
#207 = DIRECTION ( 'NONE',  ( 8.228650713446025827E-18, 1.000000000000000000, 0.000000000000000000 ) ) ;
#208 = CARTESIAN_POINT ( 'NONE',  ( -0.04000000000000000083, 6.582920570756820777E-19, 0.000000000000000000 ) ) ;
#209 =( GEOMETRIC_REPRESENTATION_CONTEXT ( 3 ) GLOBAL_UNCERTAINTY_ASSIGNED_CONTEXT ( ( #21 ) ) GLOBAL_UNIT_ASSIGNED_CONTEXT ( ( #107, #270, #60 ) ) REPRESENTATION_CONTEXT ( 'NONE', 'WORKASPACE' ) );
#210 = ADVANCED_FACE ( 'NONE', ( #91 ), #305, .T. ) ;
#211 = AXIS2_PLACEMENT_3D ( 'NONE', #158, #207, #303 ) ;
#212 =( LENGTH_UNIT ( ) NAMED_UNIT ( * ) SI_UNIT ( $, .METRE. ) );
#213 =( GEOMETRIC_REPRESENTATION_CONTEXT ( 3 ) GLOBAL_UNCERTAINTY_ASSIGNED_CONTEXT ( ( #283 ) ) GLOBAL_UNIT_ASSIGNED_CONTEXT ( ( #253, #156, #249 ) ) REPRESENTATION_CONTEXT ( 'NONE', 'WORKASPACE' ) );
#214 = EDGE_LOOP ( 'NONE', ( #29, #295 ) ) ;
#215 = PRESENTATION_STYLE_ASSIGNMENT (( #234 ) ) ;
#216 = MECHANICAL_DESIGN_GEOMETRIC_PRESENTATION_REPRESENTATION (  '', ( #251 ), #137 ) ;
#217 = CIRCLE ( 'NONE', #269, 0.2500000000000000555 ) ;
#218 = DIRECTION ( 'NONE',  ( 1.000000000000000000, -8.228650713446025827E-18, 0.000000000000000000 ) ) ;
#219 =( GEOMETRIC_REPRESENTATION_CONTEXT ( 3 ) GLOBAL_UNCERTAINTY_ASSIGNED_CONTEXT ( ( #264 ) ) GLOBAL_UNIT_ASSIGNED_CONTEXT ( ( #260, #306, #262 ) ) REPRESENTATION_CONTEXT ( 'NONE', 'WORKASPACE' ) );
#220 = CARTESIAN_POINT ( 'NONE',  ( 0.2500000000000000000, 0.1762109225472281437, 3.061616997868382402E-17 ) ) ;
#221 = ORIENTED_EDGE ( 'NONE', *, *, #282, .F. ) ;
#222 = PRESENTATION_LAYER_ASSIGNMENT (  '', '', ( #51 ) ) ;
#223 = LENGTH_MEASURE_WITH_UNIT ( LENGTH_MEASURE( 0.02539999999999999897 ), #175 );
#224 = DIRECTION ( 'NONE',  ( 0.000000000000000000, 0.000000000000000000, 1.000000000000000000 ) ) ;
#225 =( LENGTH_UNIT ( ) NAMED_UNIT ( * ) SI_UNIT ( $, .METRE. ) );
#226 = SURFACE_SIDE_STYLE ('',( #129 ) ) ;
#227 = ADVANCED_FACE ( 'NONE', ( #250 ), #40, .T. ) ;
#228 = MECHANICAL_DESIGN_GEOMETRIC_PRESENTATION_REPRESENTATION (  '', ( #188 ), #233 ) ;
#229 = PRESENTATION_STYLE_ASSIGNMENT (( #130 ) ) ;
#230 = CARTESIAN_POINT ( 'NONE',  ( -0.2499999999999999722, 3.000000000000000444, 0.000000000000000000 ) ) ;
#231 = MANIFOLD_SOLID_BREP ( 'Revolve - Tool Body (Tipped Off)', #154 ) ;
#232 = VECTOR ( 'NONE', #138, 39.37007874015748143 ) ;
#233 =( GEOMETRIC_REPRESENTATION_CONTEXT ( 3 ) GLOBAL_UNCERTAINTY_ASSIGNED_CONTEXT ( ( #96 ) ) GLOBAL_UNIT_ASSIGNED_CONTEXT ( ( #86, #178, #252 ) ) REPRESENTATION_CONTEXT ( 'NONE', 'WORKASPACE' ) );
#234 = SURFACE_STYLE_USAGE ( .BOTH. , #144 ) ;
#235 = DIMENSIONAL_EXPONENTS ( 1.000000000000000000, 0.000000000000000000, 0.000000000000000000, 0.000000000000000000, 0.000000000000000000, 0.000000000000000000, 0.000000000000000000 ) ;
#236 = AXIS2_PLACEMENT_3D ( 'NONE', #293, #152, #290 ) ;
#237 = ORIENTED_EDGE ( 'NONE', *, *, #120, .F. ) ;
#238 = DIRECTION ( 'NONE',  ( -1.000000000000000000, 0.000000000000000000, 0.000000000000000000 ) ) ;
#239 = VERTEX_POINT ( 'NONE', #1 ) ;
#240 = DIMENSIONAL_EXPONENTS ( 1.000000000000000000, 0.000000000000000000, 0.000000000000000000, 0.000000000000000000, 0.000000000000000000, 0.000000000000000000, 0.000000000000000000 ) ;
#241 = PRESENTATION_LAYER_ASSIGNMENT (  '', '', ( #83 ) ) ;
#242 = CARTESIAN_POINT ( 'NONE',  ( 2.708427702555831290E-36, 3.291460285378410388E-19, 0.000000000000000000 ) ) ;
#243 = EDGE_LOOP ( 'NONE', ( #292, #123 ) ) ;
#244 = CARTESIAN_POINT ( 'NONE',  ( 0.2499999999999998335, 3.000000000000000444, 3.061616997868381785E-17 ) ) ;
#245 = AXIS2_PLACEMENT_3D ( 'NONE', #157, #113, #155 ) ;
#246 = FILL_AREA_STYLE_COLOUR ( '', #307 ) ;
#247 = DIRECTION ( 'NONE',  ( -1.206031236776656774E-16, 1.000000000000000000, -0.000000000000000000 ) ) ;
#248 = EDGE_CURVE ( 'NONE', #106, #239, #109, .T. ) ;
#249 =( NAMED_UNIT ( * ) SI_UNIT ( $, .STERADIAN. ) SOLID_ANGLE_UNIT ( ) );
#250 = FACE_OUTER_BOUND ( 'NONE', #271, .T. ) ;
#251 = STYLED_ITEM ( 'NONE', ( #41 ), #28 ) ;
#252 =( NAMED_UNIT ( * ) SI_UNIT ( $, .STERADIAN. ) SOLID_ANGLE_UNIT ( ) );
#253 =( CONVERSION_BASED_UNIT ( 'INCH', #136 ) LENGTH_UNIT ( ) NAMED_UNIT ( #278 ) );
#254 = PRESENTATION_STYLE_ASSIGNMENT (( #19 ) ) ;
#255 = DIRECTION ( 'NONE',  ( 1.206031236776656774E-16, -1.000000000000000000, 0.000000000000000000 ) ) ;
#256 = CIRCLE ( 'NONE', #189, 0.2500000000000000555 ) ;
#257 = APPLICATION_CONTEXT ( 'automotive_design' ) ;
#258 =( CONVERSION_BASED_UNIT ( 'INCH', #289 ) LENGTH_UNIT ( ) NAMED_UNIT ( #261 ) );
#259 = CARTESIAN_POINT ( 'NONE',  ( -0.2500000000000001110, 3.000000000000000444, 0.000000000000000000 ) ) ;
#260 =( CONVERSION_BASED_UNIT ( 'INCH', #56 ) LENGTH_UNIT ( ) NAMED_UNIT ( #14 ) );
#261 = DIMENSIONAL_EXPONENTS ( 1.000000000000000000, 0.000000000000000000, 0.000000000000000000, 0.000000000000000000, 0.000000000000000000, 0.000000000000000000, 0.000000000000000000 ) ;
#262 =( NAMED_UNIT ( * ) SI_UNIT ( $, .STERADIAN. ) SOLID_ANGLE_UNIT ( ) );
#263 = CIRCLE ( 'NONE', #116, 0.2500000000000000000 ) ;
#264 = UNCERTAINTY_MEASURE_WITH_UNIT (LENGTH_MEASURE( 1.000000000000000082E-05 ), #260, 'distance_accuracy_value', 'NONE');
#265 = EDGE_LOOP ( 'NONE', ( #237, #76, #195, #151 ) ) ;
#266 = CARTESIAN_POINT ( 'NONE',  ( 2.793254433903104166E-16, 0.1762109225472281437, 0.000000000000000000 ) ) ;
#267 = COLOUR_RGB ( '',1.000000000000000000, 0.000000000000000000, 0.000000000000000000 ) ;
#268 = ORIENTED_EDGE ( 'NONE', *, *, #186, .F. ) ;
#269 = AXIS2_PLACEMENT_3D ( 'NONE', #179, #247, #131 ) ;
#270 =( NAMED_UNIT ( * ) PLANE_ANGLE_UNIT ( ) SI_UNIT ( $, .RADIAN. ) );
#271 = EDGE_LOOP ( 'NONE', ( #80, #176, #4, #173 ) ) ;
#272 = DIRECTION ( 'NONE',  ( -8.228650713446025827E-18, -1.000000000000000000, -0.000000000000000000 ) ) ;
#273 = CARTESIAN_POINT ( 'NONE',  ( 1.449978133535231054E-18, 0.1762109225472281437, 0.000000000000000000 ) ) ;
#274 = CIRCLE ( 'NONE', #20, 0.2500000000000000000 ) ;
#275 = CARTESIAN_POINT ( 'NONE',  ( 0.2500000000000000000, 3.000000000000000444, 3.061616997868382402E-17 ) ) ;
#276 =( NAMED_UNIT ( * ) SI_UNIT ( $, .STERADIAN. ) SOLID_ANGLE_UNIT ( ) );
#277 = CIRCLE ( 'NONE', #112, 0.04000000000000000083 ) ;
#278 = DIMENSIONAL_EXPONENTS ( 1.000000000000000000, 0.000000000000000000, 0.000000000000000000, 0.000000000000000000, 0.000000000000000000, 0.000000000000000000, 0.000000000000000000 ) ;
#279 = PRODUCT_DEFINITION ( 'UNKNOWN', '', #167, #142 ) ;
#280 = MECHANICAL_DESIGN_GEOMETRIC_PRESENTATION_REPRESENTATION (  '', ( #83 ), #213 ) ;
#281 = UNCERTAINTY_MEASURE_WITH_UNIT (LENGTH_MEASURE( 1.000000000000000082E-05 ), #182, 'distance_accuracy_value', 'NONE');
#282 = EDGE_CURVE ( 'NONE', #150, #119, #287, .T. ) ;
#283 = UNCERTAINTY_MEASURE_WITH_UNIT (LENGTH_MEASURE( 1.000000000000000082E-05 ), #253, 'distance_accuracy_value', 'NONE');
#284 = DIRECTION ( 'NONE',  ( -1.000000000000000000, -1.365923996832133088E-16, 0.000000000000000000 ) ) ;
#285 = LENGTH_MEASURE_WITH_UNIT ( LENGTH_MEASURE( 0.02539999999999999897 ), #2 );
#286 = CARTESIAN_POINT ( 'NONE',  ( -6.123233995736772199E-17, 3.000000000000000444, 0.000000000000000000 ) ) ;
#287 = CIRCLE ( 'NONE', #71, 0.2499999999999997224 ) ;
#288 = VERTEX_POINT ( 'NONE', #259 ) ;
#289 = LENGTH_MEASURE_WITH_UNIT ( LENGTH_MEASURE( 0.02539999999999999897 ), #53 );
#290 = DIRECTION ( 'NONE',  ( -1.000000000000000000, 8.228650713446025827E-18, 0.000000000000000000 ) ) ;
#291 = CIRCLE ( 'NONE', #206, 0.04000000000000000083 ) ;
#292 = ORIENTED_EDGE ( 'NONE', *, *, #99, .T. ) ;
#293 = CARTESIAN_POINT ( 'NONE',  ( 1.449978133535231054E-18, 0.1762109225472281437, 0.000000000000000000 ) ) ;
#294 = EDGE_CURVE ( 'NONE', #239, #61, #263, .T. ) ;
#295 = ORIENTED_EDGE ( 'NONE', *, *, #140, .T. ) ;
#296 = CARTESIAN_POINT ( 'NONE',  ( 0.04000000000000000083, 0.000000000000000000, 1.775737858763662224E-17 ) ) ;
#297 = PRODUCT_CONTEXT ( 'NONE', #257, 'mechanical' ) ;
#298 = SURFACE_STYLE_USAGE ( .BOTH. , #204 ) ;
#299 = CIRCLE ( 'NONE', #57, 0.2499999999999997224 ) ;
#300 = PRODUCT_DEFINITION_SHAPE ( 'NONE', 'NONE',  #279 ) ;
#301 = SURFACE_STYLE_FILL_AREA ( #302 ) ;
#302 = FILL_AREA_STYLE ('',( #202 ) ) ;
#303 = DIRECTION ( 'NONE',  ( -1.000000000000000000, 8.228650713446025827E-18, 0.000000000000000000 ) ) ;
#304 = DIRECTION ( 'NONE',  ( -1.000000000000000000, -1.365923996832133088E-16, 0.000000000000000000 ) ) ;
#305 = CONICAL_SURFACE ( 'NONE', #211, 0.04000000000000000083, 0.8726646259971666542 ) ;
#306 =( NAMED_UNIT ( * ) PLANE_ANGLE_UNIT ( ) SI_UNIT ( $, .RADIAN. ) );
#307 = COLOUR_RGB ( '',0.7921568627450980005, 0.8196078431372548767, 0.9333333333333333481 ) ;
#308 =( NAMED_UNIT ( * ) SI_UNIT ( $, .STERADIAN. ) SOLID_ANGLE_UNIT ( ) );
#309 = AXIS2_PLACEMENT_3D ( 'NONE', #105, #224, #85 ) ;
ENDSEC;
END-ISO-10303-21;
