ISO-10303-21;
HEADER;
FILE_DESCRIPTION (( 'STEP AP214' ),
    '1' );
FILE_NAME ('59462.STEP',
    '2023-07-24T15:06:57',
    ( '' ),
    ( '' ),
    'SwSTEP 2.0',
    'SolidWorks 2023',
    '' );
FILE_SCHEMA (( 'AUTOMOTIVE_DESIGN' ));
ENDSEC;

DATA;
#1 = CARTESIAN_POINT ( 'NONE',  ( 0.000000000000000000, 0.5000000000000000000, -3.500000000000000000 ) ) ;
#2 = SURFACE_STYLE_FILL_AREA ( #314 ) ;
#3 = DIRECTION ( 'NONE',  ( -0.000000000000000000, -1.000000000000000000, -0.000000000000000000 ) ) ;
#4 = CARTESIAN_POINT ( 'NONE',  ( 0.000000000000000000, 0.000000000000000000, 0.000000000000000000 ) ) ;
#5 = FILL_AREA_STYLE ('',( #123 ) ) ;
#6 = MECHANICAL_DESIGN_GEOMETRIC_PRESENTATION_REPRESENTATION (  '', ( #113 ), #277 ) ;
#7 = FILL_AREA_STYLE_COLOUR ( '', #75 ) ;
#8 = DIRECTION ( 'NONE',  ( -0.000000000000000000, -1.000000000000000000, -0.000000000000000000 ) ) ;
#9 = LINE ( 'NONE', #287, #225 ) ;
#10 = DIRECTION ( 'NONE',  ( 0.000000000000000000, -0.000000000000000000, 1.000000000000000000 ) ) ;
#11 = DIRECTION ( 'NONE',  ( -0.000000000000000000, -1.000000000000000000, -0.000000000000000000 ) ) ;
#12 =( GEOMETRIC_REPRESENTATION_CONTEXT ( 3 ) GLOBAL_UNCERTAINTY_ASSIGNED_CONTEXT ( ( #86 ) ) GLOBAL_UNIT_ASSIGNED_CONTEXT ( ( #310, #115, #363 ) ) REPRESENTATION_CONTEXT ( 'NONE', 'WORKASPACE' ) );
#13 = FACE_OUTER_BOUND ( 'NONE', #362, .T. ) ;
#14 = PLANE ( 'NONE',  #357 ) ;
#15 = DIRECTION ( 'NONE',  ( -1.224646799147353454E-16, 0.000000000000000000, -1.000000000000000000 ) ) ;
#16 = ORIENTED_EDGE ( 'NONE', *, *, #327, .T. ) ;
#17 = DIRECTION ( 'NONE',  ( -2.697787857885250373E-16, 1.000000000000000000, -0.000000000000000000 ) ) ;
#18 = TOROIDAL_SURFACE ( 'NONE', #114, 3.500000000000000000, 0.5000000000000000000 ) ;
#19 = CIRCLE ( 'NONE', #279, 4.000000000000000000 ) ;
#20 = ORIENTED_EDGE ( 'NONE', *, *, #276, .T. ) ;
#21 = CARTESIAN_POINT ( 'NONE',  ( 4.000000000000000000, 11.99999999999999822, 4.898587196589418745E-16 ) ) ;
#22 = ORIENTED_EDGE ( 'NONE', *, *, #142, .T. ) ;
#23 = DIRECTION ( 'NONE',  ( -1.000000000000000000, -4.336808689942024146E-16, 0.000000000000000000 ) ) ;
#24 = ORIENTED_EDGE ( 'NONE', *, *, #267, .F. ) ;
#25 = SURFACE_SIDE_STYLE ('',( #141 ) ) ;
#26 = CIRCLE ( 'NONE', #284, 4.000000000000000000 ) ;
#27 = APPLICATION_PROTOCOL_DEFINITION ( 'draft international standard', 'automotive_design', 1998, #130 ) ;
#28 = VERTEX_POINT ( 'NONE', #138 ) ;
#29 =( NAMED_UNIT ( * ) PLANE_ANGLE_UNIT ( ) SI_UNIT ( $, .RADIAN. ) );
#30 = AXIS2_PLACEMENT_3D ( 'NONE', #215, #321, #213 ) ;
#31 = AXIS2_PLACEMENT_3D ( 'NONE', #366, #196, #23 ) ;
#32 = PRODUCT_RELATED_PRODUCT_CATEGORY ( 'part', '', ( #37 ) ) ;
#33 = CARTESIAN_POINT ( 'NONE',  ( 0.000000000000000000, 0.000000000000000000, -4.000000000000000000 ) ) ;
#34 = CARTESIAN_POINT ( 'NONE',  ( 4.898587196589412829E-16, 0.000000000000000000, 4.000000000000000000 ) ) ;
#35 = DIRECTION ( 'NONE',  ( -1.000000000000000000, 0.000000000000000000, 0.000000000000000000 ) ) ;
#36 = ADVANCED_FACE ( 'NONE', ( #249 ), #140, .F. ) ;
#37 = PRODUCT ( '59462', '59462', '', ( #70 ) ) ;
#38 = PRODUCT_DEFINITION ( 'UNKNOWN', '', #69, #328 ) ;
#39 = CIRCLE ( 'NONE', #89, 4.000000000000000000 ) ;
#40 = MECHANICAL_DESIGN_GEOMETRIC_PRESENTATION_REPRESENTATION (  '', ( #241 ), #81 ) ;
#41 = CARTESIAN_POINT ( 'NONE',  ( 0.000000000000000000, 12.00000000000000000, 0.000000000000000000 ) ) ;
#42 =( NAMED_UNIT ( * ) PLANE_ANGLE_UNIT ( ) SI_UNIT ( $, .RADIAN. ) );
#43 = UNCERTAINTY_MEASURE_WITH_UNIT (LENGTH_MEASURE( 1.000000000000000082E-05 ), #199, 'distance_accuracy_value', 'NONE');
#44 = CARTESIAN_POINT ( 'NONE',  ( 0.000000000000000000, 0.000000000000000000, 0.000000000000000000 ) ) ;
#45 = AXIS2_PLACEMENT_3D ( 'NONE', #282, #252, #370 ) ;
#46 = EDGE_LOOP ( 'NONE', ( #53, #22, #108, #341 ) ) ;
#47 = EDGE_LOOP ( 'NONE', ( #79, #82 ) ) ;
#48 = STYLED_ITEM ( 'NONE', ( #95 ), #58 ) ;
#49 = STYLED_ITEM ( 'NONE', ( #177 ), #295 ) ;
#50 = ORIENTED_EDGE ( 'NONE', *, *, #271, .T. ) ;
#51 = FACE_OUTER_BOUND ( 'NONE', #104, .T. ) ;
#52 = SURFACE_STYLE_USAGE ( .BOTH. , #212 ) ;
#53 = ORIENTED_EDGE ( 'NONE', *, *, #299, .T. ) ;
#54 = ORIENTED_EDGE ( 'NONE', *, *, #360, .T. ) ;
#55 = SURFACE_STYLE_USAGE ( .BOTH. , #313 ) ;
#56 = ORIENTED_EDGE ( 'NONE', *, *, #142, .F. ) ;
#57 = AXIS2_PLACEMENT_3D ( 'NONE', #235, #293, #65 ) ;
#58 = ADVANCED_FACE ( 'NONE', ( #223 ), #131, .T. ) ;
#59 = DIRECTION ( 'NONE',  ( -2.697787857885250373E-16, 1.000000000000000000, -0.000000000000000000 ) ) ;
#60 = COLOUR_RGB ( '',1.000000000000000000, 0.000000000000000000, 0.000000000000000000 ) ;
#61 = AXIS2_PLACEMENT_3D ( 'NONE', #1, #368, #226 ) ;
#62 = CYLINDRICAL_SURFACE ( 'NONE', #201, 4.000000000000000888 ) ;
#63 = DIRECTION ( 'NONE',  ( -2.697787857885250373E-16, 1.000000000000000000, -0.000000000000000000 ) ) ;
#64 = LINE ( 'NONE', #34, #356 ) ;
#65 = DIRECTION ( 'NONE',  ( 0.000000000000000000, 0.000000000000000000, -1.000000000000000000 ) ) ;
#66 = DIRECTION ( 'NONE',  ( -1.000000000000000000, 0.000000000000000000, 0.000000000000000000 ) ) ;
#67 = PRESENTATION_LAYER_ASSIGNMENT (  '', '', ( #297 ) ) ;
#68 =( GEOMETRIC_REPRESENTATION_CONTEXT ( 3 ) GLOBAL_UNCERTAINTY_ASSIGNED_CONTEXT ( ( #315 ) ) GLOBAL_UNIT_ASSIGNED_CONTEXT ( ( #143, #29, #198 ) ) REPRESENTATION_CONTEXT ( 'NONE', 'WORKASPACE' ) );
#69 = PRODUCT_DEFINITION_FORMATION_WITH_SPECIFIED_SOURCE ( 'ANY', '', #37, .NOT_KNOWN. ) ;
#70 = PRODUCT_CONTEXT ( 'NONE', #337, 'mechanical' ) ;
#71 = CYLINDRICAL_SURFACE ( 'NONE', #216, 4.000000000000000000 ) ;
#72 = DIRECTION ( 'NONE',  ( 0.000000000000000000, 0.000000000000000000, -1.000000000000000000 ) ) ;
#73 = DIRECTION ( 'NONE',  ( -2.697787857885250373E-16, 1.000000000000000000, -0.000000000000000000 ) ) ;
#74 = CARTESIAN_POINT ( 'NONE',  ( 0.000000000000000000, 0.5000000000000000000, 0.000000000000000000 ) ) ;
#75 = COLOUR_RGB ( '',1.000000000000000000, 0.000000000000000000, 0.000000000000000000 ) ;
#76 = EDGE_CURVE ( 'NONE', #165, #197, #39, .T. ) ;
#77 = DIRECTION ( 'NONE',  ( 2.697787857885250373E-16, -1.000000000000000000, 0.000000000000000000 ) ) ;
#78 = SURFACE_STYLE_FILL_AREA ( #127 ) ;
#79 = ORIENTED_EDGE ( 'NONE', *, *, #299, .F. ) ;
#80 = ORIENTED_EDGE ( 'NONE', *, *, #360, .F. ) ;
#81 =( GEOMETRIC_REPRESENTATION_CONTEXT ( 3 ) GLOBAL_UNCERTAINTY_ASSIGNED_CONTEXT ( ( #265 ) ) GLOBAL_UNIT_ASSIGNED_CONTEXT ( ( #185, #290, #182 ) ) REPRESENTATION_CONTEXT ( 'NONE', 'WORKASPACE' ) );
#82 = ORIENTED_EDGE ( 'NONE', *, *, #76, .F. ) ;
#83 = ORIENTED_EDGE ( 'NONE', *, *, #339, .T. ) ;
#84 = ORIENTED_EDGE ( 'NONE', *, *, #276, .F. ) ;
#85 =( NAMED_UNIT ( * ) PLANE_ANGLE_UNIT ( ) SI_UNIT ( $, .RADIAN. ) );
#86 = UNCERTAINTY_MEASURE_WITH_UNIT (LENGTH_MEASURE( 1.000000000000000082E-05 ), #310, 'distance_accuracy_value', 'NONE');
#87 = DIRECTION ( 'NONE',  ( -0.000000000000000000, -1.000000000000000000, -0.000000000000000000 ) ) ;
#88 = ADVANCED_FACE ( 'NONE', ( #233 ), #62, .T. ) ;
#89 = AXIS2_PLACEMENT_3D ( 'NONE', #324, #8, #259 ) ;
#90 = CIRCLE ( 'NONE', #61, 0.5000000000000000000 ) ;
#91 = ADVANCED_FACE ( 'NONE', ( #286 ), #351, .F. ) ;
#92 =( LENGTH_UNIT ( ) NAMED_UNIT ( * ) SI_UNIT ( .MILLI., .METRE. ) );
#93 = SURFACE_SIDE_STYLE ('',( #294 ) ) ;
#94 = SURFACE_STYLE_FILL_AREA ( #261 ) ;
#95 = PRESENTATION_STYLE_ASSIGNMENT (( #322 ) ) ;
#96 = UNCERTAINTY_MEASURE_WITH_UNIT (LENGTH_MEASURE( 1.000000000000000082E-05 ), #319, 'distance_accuracy_value', 'NONE');
#97 =( GEOMETRIC_REPRESENTATION_CONTEXT ( 3 ) GLOBAL_UNCERTAINTY_ASSIGNED_CONTEXT ( ( #343 ) ) GLOBAL_UNIT_ASSIGNED_CONTEXT ( ( #100, #229, #118 ) ) REPRESENTATION_CONTEXT ( 'NONE', 'WORKASPACE' ) );
#98 =( GEOMETRIC_REPRESENTATION_CONTEXT ( 3 ) GLOBAL_UNCERTAINTY_ASSIGNED_CONTEXT ( ( #43 ) ) GLOBAL_UNIT_ASSIGNED_CONTEXT ( ( #199, #85, #274 ) ) REPRESENTATION_CONTEXT ( 'NONE', 'WORKASPACE' ) );
#99 = DIRECTION ( 'NONE',  ( -0.000000000000000000, -1.000000000000000000, -0.000000000000000000 ) ) ;
#100 =( LENGTH_UNIT ( ) NAMED_UNIT ( * ) SI_UNIT ( .MILLI., .METRE. ) );
#101 = DIRECTION ( 'NONE',  ( 1.000000000000000000, 0.000000000000000000, 0.000000000000000000 ) ) ;
#102 = FACE_OUTER_BOUND ( 'NONE', #46, .T. ) ;
#103 =( LENGTH_UNIT ( ) NAMED_UNIT ( * ) SI_UNIT ( .MILLI., .METRE. ) );
#104 = EDGE_LOOP ( 'NONE', ( #194, #300, #221, #24 ) ) ;
#105 = CARTESIAN_POINT ( 'NONE',  ( 0.000000000000000000, 12.00000000000000000, -4.000000000000000000 ) ) ;
#106 = ORIENTED_EDGE ( 'NONE', *, *, #247, .F. ) ;
#107 = SURFACE_STYLE_USAGE ( .BOTH. , #359 ) ;
#108 = ORIENTED_EDGE ( 'NONE', *, *, #339, .F. ) ;
#109 = PRESENTATION_LAYER_ASSIGNMENT (  '', '', ( #48 ) ) ;
#110 = CIRCLE ( 'NONE', #184, 3.999999999999994227 ) ;
#111 = DIRECTION ( 'NONE',  ( 1.000000000000000000, 2.697787857885250373E-16, 0.000000000000000000 ) ) ;
#112 = FILL_AREA_STYLE ('',( #254 ) ) ;
#113 = STYLED_ITEM ( 'NONE', ( #220 ), #173 ) ;
#114 = AXIS2_PLACEMENT_3D ( 'NONE', #345, #87, #316 ) ;
#115 =( NAMED_UNIT ( * ) PLANE_ANGLE_UNIT ( ) SI_UNIT ( $, .RADIAN. ) );
#116 = CARTESIAN_POINT ( 'NONE',  ( 0.000000000000000000, 12.00000000000000000, 0.000000000000000000 ) ) ;
#117 = DIRECTION ( 'NONE',  ( -2.697787857885250373E-16, 1.000000000000000000, -0.000000000000000000 ) ) ;
#118 =( NAMED_UNIT ( * ) SI_UNIT ( $, .STERADIAN. ) SOLID_ANGLE_UNIT ( ) );
#119 = CIRCLE ( 'NONE', #31, 3.999999999999994227 ) ;
#120 = SURFACE_STYLE_FILL_AREA ( #161 ) ;
#121 = DIRECTION ( 'NONE',  ( -2.697787857885250373E-16, 1.000000000000000000, -0.000000000000000000 ) ) ;
#122 = EDGE_CURVE ( 'NONE', #197, #167, #187, .T. ) ;
#123 = FILL_AREA_STYLE_COLOUR ( '', #238 ) ;
#124 = FILL_AREA_STYLE_COLOUR ( '', #298 ) ;
#125 = PRESENTATION_LAYER_ASSIGNMENT (  '', '', ( #113 ) ) ;
#126 = CIRCLE ( 'NONE', #57, 4.000000000000000000 ) ;
#127 = FILL_AREA_STYLE ('',( #334 ) ) ;
#128 = CARTESIAN_POINT ( 'NONE',  ( 0.000000000000000000, 0.000000000000000000, 0.000000000000000000 ) ) ;
#129 = CARTESIAN_POINT ( 'NONE',  ( 0.000000000000000000, 0.5000000000000000000, -4.000000000000000000 ) ) ;
#130 = APPLICATION_CONTEXT ( 'automotive_design' ) ;
#131 = TOROIDAL_SURFACE ( 'NONE', #302, 3.500000000000000000, 0.5000000000000000000 ) ;
#132 = PRESENTATION_LAYER_ASSIGNMENT (  '', '', ( #291 ) ) ;
#133 = EDGE_LOOP ( 'NONE', ( #83, #163, #218, #307 ) ) ;
#134 = DIRECTION ( 'NONE',  ( -1.000000000000000000, 0.000000000000000000, 0.000000000000000000 ) ) ;
#135 = ORIENTED_EDGE ( 'NONE', *, *, #355, .T. ) ;
#136 = DIRECTION ( 'NONE',  ( -0.000000000000000000, -1.000000000000000000, -0.000000000000000000 ) ) ;
#137 = VERTEX_POINT ( 'NONE', #211 ) ;
#138 = CARTESIAN_POINT ( 'NONE',  ( 0.000000000000000000, 0.000000000000000000, -3.500000000000000000 ) ) ;
#139 = MECHANICAL_DESIGN_GEOMETRIC_PRESENTATION_REPRESENTATION (  '', ( #151 ), #98 ) ;
#140 = PLANE ( 'NONE',  #150 ) ;
#141 = SURFACE_STYLE_FILL_AREA ( #112 ) ;
#142 = EDGE_CURVE ( 'NONE', #165, #200, #64, .T. ) ;
#143 =( LENGTH_UNIT ( ) NAMED_UNIT ( * ) SI_UNIT ( .MILLI., .METRE. ) );
#144 = DIRECTION ( 'NONE',  ( 0.000000000000000000, -1.000000000000000000, -0.000000000000000000 ) ) ;
#145 = MECHANICAL_DESIGN_GEOMETRIC_PRESENTATION_REPRESENTATION (  '', ( #48 ), #97 ) ;
#146 = CARTESIAN_POINT ( 'NONE',  ( -7.470345474798853504E-15, 63.00000000000000000, 0.000000000000000000 ) ) ;
#147 = DIRECTION ( 'NONE',  ( -0.000000000000000000, -1.000000000000000000, -0.000000000000000000 ) ) ;
#148 = SURFACE_SIDE_STYLE ('',( #2 ) ) ;
#149 = CARTESIAN_POINT ( 'NONE',  ( 4.898587196589412829E-16, 12.00000000000000000, 4.000000000000000000 ) ) ;
#150 = AXIS2_PLACEMENT_3D ( 'NONE', #335, #77, #111 ) ;
#151 = STYLED_ITEM ( 'NONE', ( #244 ), #283 ) ;
#152 = AXIS2_PLACEMENT_3D ( 'NONE', #44, #266, #101 ) ;
#153 = DIRECTION ( 'NONE',  ( -0.000000000000000000, -1.000000000000000000, -0.000000000000000000 ) ) ;
#154 = SURFACE_SIDE_STYLE ('',( #320 ) ) ;
#155 = CARTESIAN_POINT ( 'NONE',  ( -7.470345474798853504E-15, 63.00000000000000000, 0.000000000000000000 ) ) ;
#156 = CARTESIAN_POINT ( 'NONE',  ( 4.286263797015736595E-16, 0.5000000000000000000, 3.500000000000000000 ) ) ;
#157 = FILL_AREA_STYLE_COLOUR ( '', #344 ) ;
#158 = MECHANICAL_DESIGN_GEOMETRIC_PRESENTATION_REPRESENTATION (  '', ( #297 ), #171 ) ;
#159 = AXIS2_PLACEMENT_3D ( 'NONE', #202, #250, #222 ) ;
#160 = EDGE_CURVE ( 'NONE', #273, #137, #178, .T. ) ;
#161 = FILL_AREA_STYLE ('',( #7 ) ) ;
#162 = DIRECTION ( 'NONE',  ( 1.000000000000000000, 0.000000000000000000, -1.224646799147353207E-16 ) ) ;
#163 = ORIENTED_EDGE ( 'NONE', *, *, #174, .T. ) ;
#164 =( NAMED_UNIT ( * ) SI_UNIT ( $, .STERADIAN. ) SOLID_ANGLE_UNIT ( ) );
#165 = VERTEX_POINT ( 'NONE', #149 ) ;
#166 = MANIFOLD_SOLID_BREP ( 'Revolve - Cutting Edge', #289 ) ;
#167 = VERTEX_POINT ( 'NONE', #129 ) ;
#168 = ORIENTED_EDGE ( 'NONE', *, *, #76, .T. ) ;
#169 = UNCERTAINTY_MEASURE_WITH_UNIT (LENGTH_MEASURE( 1.000000000000000082E-05 ), #92, 'distance_accuracy_value', 'NONE');
#170 = VERTEX_POINT ( 'NONE', #21 ) ;
#171 =( GEOMETRIC_REPRESENTATION_CONTEXT ( 3 ) GLOBAL_UNCERTAINTY_ASSIGNED_CONTEXT ( ( #169 ) ) GLOBAL_UNIT_ASSIGNED_CONTEXT ( ( #92, #264, #260 ) ) REPRESENTATION_CONTEXT ( 'NONE', 'WORKASPACE' ) );
#172 =( GEOMETRIC_REPRESENTATION_CONTEXT ( 3 ) GLOBAL_UNCERTAINTY_ASSIGNED_CONTEXT ( ( #96 ) ) GLOBAL_UNIT_ASSIGNED_CONTEXT ( ( #319, #251, #369 ) ) REPRESENTATION_CONTEXT ( 'NONE', 'WORKASPACE' ) );
#173 = ADVANCED_FACE ( 'NONE', ( #243 ), #71, .T. ) ;
#174 = EDGE_CURVE ( 'NONE', #200, #358, #329, .T. ) ;
#175 = PRESENTATION_STYLE_ASSIGNMENT (( #55 ) ) ;
#176 = SURFACE_STYLE_USAGE ( .BOTH. , #25 ) ;
#177 = PRESENTATION_STYLE_ASSIGNMENT (( #346 ) ) ;
#178 = CIRCLE ( 'NONE', #191, 4.000000000000007994 ) ;
#179 = DIRECTION ( 'NONE',  ( -1.000000000000000000, 0.000000000000000000, 0.000000000000000000 ) ) ;
#180 = COLOUR_RGB ( '',1.000000000000000000, 0.000000000000000000, 0.000000000000000000 ) ;
#181 = CARTESIAN_POINT ( 'NONE',  ( -7.470345474798853504E-15, 63.00000000000000000, 0.000000000000000000 ) ) ;
#182 =( NAMED_UNIT ( * ) SI_UNIT ( $, .STERADIAN. ) SOLID_ANGLE_UNIT ( ) );
#183 = APPLICATION_PROTOCOL_DEFINITION ( 'draft international standard', 'automotive_design', 1998, #337 ) ;
#184 = AXIS2_PLACEMENT_3D ( 'NONE', #285, #207, #188 ) ;
#185 =( LENGTH_UNIT ( ) NAMED_UNIT ( * ) SI_UNIT ( .MILLI., .METRE. ) );
#186 = DIRECTION ( 'NONE',  ( 0.000000000000000000, 0.000000000000000000, -1.000000000000000000 ) ) ;
#187 = LINE ( 'NONE', #33, #234 ) ;
#188 = DIRECTION ( 'NONE',  ( -1.000000000000000000, -4.336808689942024146E-16, 0.000000000000000000 ) ) ;
#189 = ADVANCED_FACE ( 'NONE', ( #13 ), #326, .T. ) ;
#190 = FACE_OUTER_BOUND ( 'NONE', #47, .T. ) ;
#191 = AXIS2_PLACEMENT_3D ( 'NONE', #155, #117, #66 ) ;
#192 = DIRECTION ( 'NONE',  ( 0.000000000000000000, 0.000000000000000000, -1.000000000000000000 ) ) ;
#193 = FILL_AREA_STYLE ('',( #280 ) ) ;
#194 = ORIENTED_EDGE ( 'NONE', *, *, #174, .F. ) ;
#195 = EDGE_LOOP ( 'NONE', ( #50, #245 ) ) ;
#196 = DIRECTION ( 'NONE',  ( -2.697787857885250373E-16, 1.000000000000000000, -0.000000000000000000 ) ) ;
#197 = VERTEX_POINT ( 'NONE', #105 ) ;
#198 =( NAMED_UNIT ( * ) SI_UNIT ( $, .STERADIAN. ) SOLID_ANGLE_UNIT ( ) );
#199 =( LENGTH_UNIT ( ) NAMED_UNIT ( * ) SI_UNIT ( .MILLI., .METRE. ) );
#200 = VERTEX_POINT ( 'NONE', #354 ) ;
#201 = AXIS2_PLACEMENT_3D ( 'NONE', #181, #73, #35 ) ;
#202 = CARTESIAN_POINT ( 'NONE',  ( 0.000000000000000000, 0.000000000000000000, 0.000000000000000000 ) ) ;
#203 = FILL_AREA_STYLE_COLOUR ( '', #318 ) ;
#204 = PLANE ( 'NONE',  #348 ) ;
#205 = CARTESIAN_POINT ( 'NONE',  ( 0.000000000000000000, 0.5000000000000000000, 0.000000000000000000 ) ) ;
#206 = PRESENTATION_LAYER_ASSIGNMENT (  '', '', ( #311 ) ) ;
#207 = DIRECTION ( 'NONE',  ( -2.697787857885250373E-16, 1.000000000000000000, -0.000000000000000000 ) ) ;
#208 = DIRECTION ( 'NONE',  ( 0.000000000000000000, 0.000000000000000000, -1.000000000000000000 ) ) ;
#209 = ADVANCED_FACE ( 'NONE', ( #102 ), #336, .T. ) ;
#210 =( NAMED_UNIT ( * ) SI_UNIT ( $, .STERADIAN. ) SOLID_ANGLE_UNIT ( ) );
#211 = CARTESIAN_POINT ( 'NONE',  ( -4.000000000000015987, 63.00000000000000000, 0.000000000000000000 ) ) ;
#212 = SURFACE_SIDE_STYLE ('',( #94 ) ) ;
#213 = DIRECTION ( 'NONE',  ( -1.000000000000000000, -2.697787857885250373E-16, 0.000000000000000000 ) ) ;
#214 = DIRECTION ( 'NONE',  ( 0.000000000000000000, 1.000000000000000000, 0.000000000000000000 ) ) ;
#215 = CARTESIAN_POINT ( 'NONE',  ( 6.288372600415925717E-15, 12.00000000000000000, 0.000000000000000000 ) ) ;
#216 = AXIS2_PLACEMENT_3D ( 'NONE', #269, #136, #192 ) ;
#217 = EDGE_LOOP ( 'NONE', ( #16, #242 ) ) ;
#218 = ORIENTED_EDGE ( 'NONE', *, *, #327, .F. ) ;
#219 = EDGE_LOOP ( 'NONE', ( #56, #168, #275, #333 ) ) ;
#220 = PRESENTATION_STYLE_ASSIGNMENT (( #107 ) ) ;
#221 = ORIENTED_EDGE ( 'NONE', *, *, #239, .T. ) ;
#222 = DIRECTION ( 'NONE',  ( 0.000000000000000000, 0.000000000000000000, -1.000000000000000000 ) ) ;
#223 = FACE_OUTER_BOUND ( 'NONE', #133, .T. ) ;
#224 = COLOUR_RGB ( '',1.000000000000000000, 0.000000000000000000, 0.000000000000000000 ) ;
#225 = VECTOR ( 'NONE', #121, 1000.000000000000000 ) ;
#226 = DIRECTION ( 'NONE',  ( 0.000000000000000000, 0.000000000000000000, 1.000000000000000000 ) ) ;
#227 = CARTESIAN_POINT ( 'NONE',  ( 4.000000000000000000, 63.00000000000000000, 4.898587196589418745E-16 ) ) ;
#228 = SURFACE_STYLE_USAGE ( .BOTH. , #93 ) ;
#229 =( NAMED_UNIT ( * ) PLANE_ANGLE_UNIT ( ) SI_UNIT ( $, .RADIAN. ) );
#230 = AXIS2_PLACEMENT_3D ( 'NONE', #236, #17, #134 ) ;
#231 =( LENGTH_UNIT ( ) NAMED_UNIT ( * ) SI_UNIT ( .MILLI., .METRE. ) );
#232 = CARTESIAN_POINT ( 'NONE',  ( 3.999999999999993339, 63.00000000000000000, 4.898587196589413815E-16 ) ) ;
#233 = FACE_OUTER_BOUND ( 'NONE', #272, .T. ) ;
#234 = VECTOR ( 'NONE', #256, 1000.000000000000000 ) ;
#235 = CARTESIAN_POINT ( 'NONE',  ( 0.000000000000000000, 0.5000000000000000000, 0.000000000000000000 ) ) ;
#236 = CARTESIAN_POINT ( 'NONE',  ( -7.470345474798853504E-15, 63.00000000000000000, 0.000000000000000000 ) ) ;
#237 = PRESENTATION_STYLE_ASSIGNMENT (( #263 ) ) ;
#238 = COLOUR_RGB ( '',0.7921568627450980005, 0.8196078431372548767, 0.9333333333333333481 ) ;
#239 = EDGE_CURVE ( 'NONE', #167, #28, #90, .T. ) ;
#240 = AXIS2_PLACEMENT_3D ( 'NONE', #156, #162, #15 ) ;
#241 = STYLED_ITEM ( 'NONE', ( #237 ), #312 ) ;
#242 = ORIENTED_EDGE ( 'NONE', *, *, #267, .T. ) ;
#243 = FACE_OUTER_BOUND ( 'NONE', #219, .T. ) ;
#244 = PRESENTATION_STYLE_ASSIGNMENT (( #52 ) ) ;
#245 = ORIENTED_EDGE ( 'NONE', *, *, #160, .T. ) ;
#246 = EDGE_LOOP ( 'NONE', ( #106, #84 ) ) ;
#247 = EDGE_CURVE ( 'NONE', #361, #170, #119, .T. ) ;
#248 = AXIS2_PLACEMENT_3D ( 'NONE', #146, #59, #179 ) ;
#249 = FACE_OUTER_BOUND ( 'NONE', #195, .T. ) ;
#250 = DIRECTION ( 'NONE',  ( -0.000000000000000000, -1.000000000000000000, -0.000000000000000000 ) ) ;
#251 =( NAMED_UNIT ( * ) PLANE_ANGLE_UNIT ( ) SI_UNIT ( $, .RADIAN. ) );
#252 = DIRECTION ( 'NONE',  ( -0.000000000000000000, -1.000000000000000000, -0.000000000000000000 ) ) ;
#253 = PRESENTATION_LAYER_ASSIGNMENT (  '', '', ( #49 ) ) ;
#254 = FILL_AREA_STYLE_COLOUR ( '', #180 ) ;
#255 = DIRECTION ( 'NONE',  ( 0.000000000000000000, 0.000000000000000000, -1.000000000000000000 ) ) ;
#256 = DIRECTION ( 'NONE',  ( -0.000000000000000000, -1.000000000000000000, -0.000000000000000000 ) ) ;
#257 = FACE_OUTER_BOUND ( 'NONE', #217, .T. ) ;
#258 = ADVANCED_FACE ( 'NONE', ( #51 ), #18, .T. ) ;
#259 = DIRECTION ( 'NONE',  ( 0.000000000000000000, 0.000000000000000000, -1.000000000000000000 ) ) ;
#260 =( NAMED_UNIT ( * ) SI_UNIT ( $, .STERADIAN. ) SOLID_ANGLE_UNIT ( ) );
#261 = FILL_AREA_STYLE ('',( #124 ) ) ;
#262 = CARTESIAN_POINT ( 'NONE',  ( 4.592425496802573972E-16, 0.000000000000000000, 3.500000000000000000 ) ) ;
#263 = SURFACE_STYLE_USAGE ( .BOTH. , #325 ) ;
#264 =( NAMED_UNIT ( * ) PLANE_ANGLE_UNIT ( ) SI_UNIT ( $, .RADIAN. ) );
#265 = UNCERTAINTY_MEASURE_WITH_UNIT (LENGTH_MEASURE( 1.000000000000000082E-05 ), #185, 'distance_accuracy_value', 'NONE');
#266 = DIRECTION ( 'NONE',  ( 0.000000000000000000, 0.000000000000000000, 1.000000000000000000 ) ) ;
#267 = EDGE_CURVE ( 'NONE', #358, #28, #365, .T. ) ;
#268 = MECHANICAL_DESIGN_GEOMETRIC_PRESENTATION_REPRESENTATION (  '', ( #49 ), #172 ) ;
#269 = CARTESIAN_POINT ( 'NONE',  ( 0.000000000000000000, 0.000000000000000000, 0.000000000000000000 ) ) ;
#270 =( NAMED_UNIT ( * ) PLANE_ANGLE_UNIT ( ) SI_UNIT ( $, .RADIAN. ) );
#271 = EDGE_CURVE ( 'NONE', #137, #273, #323, .T. ) ;
#272 = EDGE_LOOP ( 'NONE', ( #305, #20, #54, #309 ) ) ;
#273 = VERTEX_POINT ( 'NONE', #227 ) ;
#274 =( NAMED_UNIT ( * ) SI_UNIT ( $, .STERADIAN. ) SOLID_ANGLE_UNIT ( ) );
#275 = ORIENTED_EDGE ( 'NONE', *, *, #122, .T. ) ;
#276 = EDGE_CURVE ( 'NONE', #170, #361, #110, .T. ) ;
#277 =( GEOMETRIC_REPRESENTATION_CONTEXT ( 3 ) GLOBAL_UNCERTAINTY_ASSIGNED_CONTEXT ( ( #281 ) ) GLOBAL_UNIT_ASSIGNED_CONTEXT ( ( #103, #270, #164 ) ) REPRESENTATION_CONTEXT ( 'NONE', 'WORKASPACE' ) );
#278 = PRESENTATION_LAYER_ASSIGNMENT (  '', '', ( #151 ) ) ;
#279 = AXIS2_PLACEMENT_3D ( 'NONE', #74, #99, #208 ) ;
#280 = FILL_AREA_STYLE_COLOUR ( '', #224 ) ;
#281 = UNCERTAINTY_MEASURE_WITH_UNIT (LENGTH_MEASURE( 1.000000000000000082E-05 ), #103, 'distance_accuracy_value', 'NONE');
#282 = CARTESIAN_POINT ( 'NONE',  ( 0.000000000000000000, 0.000000000000000000, 0.000000000000000000 ) ) ;
#283 = MANIFOLD_SOLID_BREP ( 'Revolve - Tool Body (Straight Shanked)', #364 ) ;
#284 = AXIS2_PLACEMENT_3D ( 'NONE', #116, #11, #296 ) ;
#285 = CARTESIAN_POINT ( 'NONE',  ( 6.288372600415924140E-15, 11.99999999999999645, 0.000000000000000000 ) ) ;
#286 = FACE_OUTER_BOUND ( 'NONE', #246, .T. ) ;
#287 = CARTESIAN_POINT ( 'NONE',  ( -4.000000000000008882, 63.00000000000000000, 0.000000000000000000 ) ) ;
#288 = PRODUCT_DEFINITION_SHAPE ( 'NONE', 'NONE',  #38 ) ;
#289 = CLOSED_SHELL ( 'NONE', ( #209, #58, #295, #258, #173, #312 ) ) ;
#290 =( NAMED_UNIT ( * ) PLANE_ANGLE_UNIT ( ) SI_UNIT ( $, .RADIAN. ) );
#291 = STYLED_ITEM ( 'NONE', ( #175 ), #258 ) ;
#292 = UNCERTAINTY_MEASURE_WITH_UNIT (LENGTH_MEASURE( 1.000000000000000082E-05 ), #231, 'distance_accuracy_value', 'NONE');
#293 = DIRECTION ( 'NONE',  ( -0.000000000000000000, -1.000000000000000000, -0.000000000000000000 ) ) ;
#294 = SURFACE_STYLE_FILL_AREA ( #5 ) ;
#295 = ADVANCED_FACE ( 'NONE', ( #257 ), #204, .T. ) ;
#296 = DIRECTION ( 'NONE',  ( 0.000000000000000000, 0.000000000000000000, -1.000000000000000000 ) ) ;
#297 = STYLED_ITEM ( 'NONE', ( #347 ), #166 ) ;
#298 = COLOUR_RGB ( '',0.7921568627450980005, 0.8196078431372548767, 0.9333333333333333481 ) ;
#299 = EDGE_CURVE ( 'NONE', #197, #165, #26, .T. ) ;
#300 = ORIENTED_EDGE ( 'NONE', *, *, #317, .T. ) ;
#301 = ORIENTED_EDGE ( 'NONE', *, *, #271, .F. ) ;
#302 = AXIS2_PLACEMENT_3D ( 'NONE', #205, #147, #186 ) ;
#303 = MECHANICAL_DESIGN_GEOMETRIC_PRESENTATION_REPRESENTATION (  '', ( #291 ), #68 ) ;
#304 = VECTOR ( 'NONE', #63, 1000.000000000000000 ) ;
#305 = ORIENTED_EDGE ( 'NONE', *, *, #355, .F. ) ;
#306 = PRESENTATION_STYLE_ASSIGNMENT (( #176 ) ) ;
#307 = ORIENTED_EDGE ( 'NONE', *, *, #239, .F. ) ;
#308 = SURFACE_STYLE_FILL_AREA ( #342 ) ;
#309 = ORIENTED_EDGE ( 'NONE', *, *, #160, .F. ) ;
#310 =( LENGTH_UNIT ( ) NAMED_UNIT ( * ) SI_UNIT ( .MILLI., .METRE. ) );
#311 = STYLED_ITEM ( 'NONE', ( #306 ), #209 ) ;
#312 = ADVANCED_FACE ( 'NONE', ( #190 ), #14, .T. ) ;
#313 = SURFACE_SIDE_STYLE ('',( #308 ) ) ;
#314 = FILL_AREA_STYLE ('',( #157 ) ) ;
#315 = UNCERTAINTY_MEASURE_WITH_UNIT (LENGTH_MEASURE( 1.000000000000000082E-05 ), #143, 'distance_accuracy_value', 'NONE');
#316 = DIRECTION ( 'NONE',  ( 0.000000000000000000, 0.000000000000000000, -1.000000000000000000 ) ) ;
#317 = EDGE_CURVE ( 'NONE', #200, #167, #126, .T. ) ;
#318 = COLOUR_RGB ( '',1.000000000000000000, 0.000000000000000000, 0.000000000000000000 ) ;
#319 =( LENGTH_UNIT ( ) NAMED_UNIT ( * ) SI_UNIT ( .MILLI., .METRE. ) );
#320 = SURFACE_STYLE_FILL_AREA ( #193 ) ;
#321 = DIRECTION ( 'NONE',  ( -2.697787857885250373E-16, 1.000000000000000000, 0.000000000000000000 ) ) ;
#322 = SURFACE_STYLE_USAGE ( .BOTH. , #154 ) ;
#323 = CIRCLE ( 'NONE', #248, 4.000000000000007994 ) ;
#324 = CARTESIAN_POINT ( 'NONE',  ( 0.000000000000000000, 12.00000000000000000, 0.000000000000000000 ) ) ;
#325 = SURFACE_SIDE_STYLE ('',( #120 ) ) ;
#326 = CYLINDRICAL_SURFACE ( 'NONE', #230, 4.000000000000000888 ) ;
#327 = EDGE_CURVE ( 'NONE', #28, #358, #338, .T. ) ;
#328 = PRODUCT_DEFINITION_CONTEXT ( 'detailed design', #130, 'design' ) ;
#329 = CIRCLE ( 'NONE', #240, 0.5000000000000000000 ) ;
#330 = PRESENTATION_LAYER_ASSIGNMENT (  '', '', ( #241 ) ) ;
#331 = ADVANCED_BREP_SHAPE_REPRESENTATION ( '59462', ( #166, #283, #152 ), #349 ) ;
#332 = SHAPE_DEFINITION_REPRESENTATION ( #288, #331 ) ;
#333 = ORIENTED_EDGE ( 'NONE', *, *, #317, .F. ) ;
#334 = FILL_AREA_STYLE_COLOUR ( '', #60 ) ;
#335 = CARTESIAN_POINT ( 'NONE',  ( 4.000000000000000000, 63.00000000000000000, 0.000000000000000000 ) ) ;
#336 = CYLINDRICAL_SURFACE ( 'NONE', #159, 4.000000000000000000 ) ;
#337 = APPLICATION_CONTEXT ( 'automotive_design' ) ;
#338 = CIRCLE ( 'NONE', #340, 3.500000000000000000 ) ;
#339 = EDGE_CURVE ( 'NONE', #167, #200, #19, .T. ) ;
#340 = AXIS2_PLACEMENT_3D ( 'NONE', #128, #153, #72 ) ;
#341 = ORIENTED_EDGE ( 'NONE', *, *, #122, .F. ) ;
#342 = FILL_AREA_STYLE ('',( #203 ) ) ;
#343 = UNCERTAINTY_MEASURE_WITH_UNIT (LENGTH_MEASURE( 1.000000000000000082E-05 ), #100, 'distance_accuracy_value', 'NONE');
#344 = COLOUR_RGB ( '',1.000000000000000000, 0.000000000000000000, 0.000000000000000000 ) ;
#345 = CARTESIAN_POINT ( 'NONE',  ( 0.000000000000000000, 0.5000000000000000000, 0.000000000000000000 ) ) ;
#346 = SURFACE_STYLE_USAGE ( .BOTH. , #148 ) ;
#347 = PRESENTATION_STYLE_ASSIGNMENT (( #228 ) ) ;
#348 = AXIS2_PLACEMENT_3D ( 'NONE', #4, #144, #255 ) ;
#349 =( GEOMETRIC_REPRESENTATION_CONTEXT ( 3 ) GLOBAL_UNCERTAINTY_ASSIGNED_CONTEXT ( ( #292 ) ) GLOBAL_UNIT_ASSIGNED_CONTEXT ( ( #231, #42, #210 ) ) REPRESENTATION_CONTEXT ( 'NONE', 'WORKASPACE' ) );
#350 = CARTESIAN_POINT ( 'NONE',  ( -3.999999999999988010, 11.99999999999999467, 0.000000000000000000 ) ) ;
#351 = PLANE ( 'NONE',  #30 ) ;
#352 = MECHANICAL_DESIGN_GEOMETRIC_PRESENTATION_REPRESENTATION (  '', ( #311 ), #12 ) ;
#353 = LINE ( 'NONE', #232, #304 ) ;
#354 = CARTESIAN_POINT ( 'NONE',  ( 4.898587196589412829E-16, 0.5000000000000000000, 4.000000000000000000 ) ) ;
#355 = EDGE_CURVE ( 'NONE', #170, #273, #353, .T. ) ;
#356 = VECTOR ( 'NONE', #3, 1000.000000000000000 ) ;
#357 = AXIS2_PLACEMENT_3D ( 'NONE', #41, #214, #10 ) ;
#358 = VERTEX_POINT ( 'NONE', #262 ) ;
#359 = SURFACE_SIDE_STYLE ('',( #78 ) ) ;
#360 = EDGE_CURVE ( 'NONE', #361, #137, #9, .T. ) ;
#361 = VERTEX_POINT ( 'NONE', #350 ) ;
#362 = EDGE_LOOP ( 'NONE', ( #367, #135, #301, #80 ) ) ;
#363 =( NAMED_UNIT ( * ) SI_UNIT ( $, .STERADIAN. ) SOLID_ANGLE_UNIT ( ) );
#364 = CLOSED_SHELL ( 'NONE', ( #189, #91, #88, #36 ) ) ;
#365 = CIRCLE ( 'NONE', #45, 3.500000000000000000 ) ;
#366 = CARTESIAN_POINT ( 'NONE',  ( 6.288372600415924140E-15, 11.99999999999999645, 0.000000000000000000 ) ) ;
#367 = ORIENTED_EDGE ( 'NONE', *, *, #247, .T. ) ;
#368 = DIRECTION ( 'NONE',  ( -1.000000000000000000, 0.000000000000000000, 0.000000000000000000 ) ) ;
#369 =( NAMED_UNIT ( * ) SI_UNIT ( $, .STERADIAN. ) SOLID_ANGLE_UNIT ( ) );
#370 = DIRECTION ( 'NONE',  ( 0.000000000000000000, 0.000000000000000000, -1.000000000000000000 ) ) ;
ENDSEC;
END-ISO-10303-21;
