ISO-10303-21;
HEADER;
FILE_DESCRIPTION (( 'STEP AP214' ),
    '1' );
FILE_NAME ('83420.STEP',
    '2023-06-30T23:15:40',
    ( '' ),
    ( '' ),
    'SwSTEP 2.0',
    'SolidWorks 2023',
    '' );
FILE_SCHEMA (( 'AUTOMOTIVE_DESIGN' ));
ENDSEC;

DATA;
#1 = FACE_OUTER_BOUND ( 'NONE', #137, .T. ) ;
#2 = PRODUCT ( '83420', '83420', '', ( #52 ) ) ;
#3 = LENGTH_MEASURE_WITH_UNIT ( LENGTH_MEASURE( 0.02539999999999999897 ), #354 );
#4 = DIRECTION ( 'NONE',  ( -1.203601583490754160E-16, 1.000000000000000000, -0.000000000000000000 ) ) ;
#5 = DIRECTION ( 'NONE',  ( -1.203601583490754160E-16, 1.000000000000000000, -0.000000000000000000 ) ) ;
#6 = CARTESIAN_POINT ( 'NONE',  ( 0.000000000000000000, 0.7500000000000001110, -0.1874999999999999167 ) ) ;
#7 = EDGE_CURVE ( 'NONE', #200, #47, #73, .T. ) ;
#8 = DIRECTION ( 'NONE',  ( -1.000000000000000000, 0.000000000000000000, 0.000000000000000000 ) ) ;
#9 = FILL_AREA_STYLE_COLOUR ( '', #366 ) ;
#10 = CARTESIAN_POINT ( 'NONE',  ( 6.123233995736772199E-17, 2.500000000000000000, 0.000000000000000000 ) ) ;
#11 =( NAMED_UNIT ( * ) PLANE_ANGLE_UNIT ( ) SI_UNIT ( $, .RADIAN. ) );
#12 =( CONVERSION_BASED_UNIT ( 'INCH', #335 ) LENGTH_UNIT ( ) NAMED_UNIT ( #370 ) );
#13 = CARTESIAN_POINT ( 'NONE',  ( 0.000000000000000000, 0.1875000000000000278, -0.1874999999999999722 ) ) ;
#14 = FACE_OUTER_BOUND ( 'NONE', #347, .T. ) ;
#15 = STYLED_ITEM ( 'NONE', ( #166 ), #298 ) ;
#16 = DIRECTION ( 'NONE',  ( 1.000000000000000000, 0.000000000000000000, 0.000000000000000000 ) ) ;
#17 = MECHANICAL_DESIGN_GEOMETRIC_PRESENTATION_REPRESENTATION (  '', ( #292 ), #139 ) ;
#18 = CARTESIAN_POINT ( 'NONE',  ( 0.000000000000000000, 0.000000000000000000, 0.000000000000000000 ) ) ;
#19 = ORIENTED_EDGE ( 'NONE', *, *, #25, .T. ) ;
#20 = DIMENSIONAL_EXPONENTS ( 1.000000000000000000, 0.000000000000000000, 0.000000000000000000, 0.000000000000000000, 0.000000000000000000, 0.000000000000000000, 0.000000000000000000 ) ;
#21 = AXIS2_PLACEMENT_3D ( 'NONE', #172, #109, #106 ) ;
#22 = EDGE_LOOP ( 'NONE', ( #54, #345, #103, #51 ) ) ;
#23 = DIRECTION ( 'NONE',  ( -1.000000000000000000, 0.000000000000000000, 0.000000000000000000 ) ) ;
#24 = ORIENTED_EDGE ( 'NONE', *, *, #267, .F. ) ;
#25 = EDGE_CURVE ( 'NONE', #259, #257, #63, .T. ) ;
#26 = DIRECTION ( 'NONE',  ( 1.224646799147353207E-16, -0.000000000000000000, 1.000000000000000000 ) ) ;
#27 = LINE ( 'NONE', #237, #297 ) ;
#28 =( LENGTH_UNIT ( ) NAMED_UNIT ( * ) SI_UNIT ( $, .METRE. ) );
#29 = AXIS2_PLACEMENT_3D ( 'NONE', #117, #262, #270 ) ;
#30 = STYLED_ITEM ( 'NONE', ( #120 ), #331 ) ;
#31 = PLANE ( 'NONE',  #29 ) ;
#32 = LENGTH_MEASURE_WITH_UNIT ( LENGTH_MEASURE( 0.02539999999999999897 ), #208 );
#33 =( NAMED_UNIT ( * ) SI_UNIT ( $, .STERADIAN. ) SOLID_ANGLE_UNIT ( ) );
#34 = CARTESIAN_POINT ( 'NONE',  ( 6.123233995736772199E-17, 2.500000000000000000, 0.000000000000000000 ) ) ;
#35 = AXIS2_PLACEMENT_3D ( 'NONE', #112, #122, #177 ) ;
#36 = UNCERTAINTY_MEASURE_WITH_UNIT (LENGTH_MEASURE( 1.000000000000000082E-05 ), #85, 'distance_accuracy_value', 'NONE');
#37 =( CONVERSION_BASED_UNIT ( 'INCH', #301 ) LENGTH_UNIT ( ) NAMED_UNIT ( #348 ) );
#38 = CIRCLE ( 'NONE', #241, 0.1874999999999998335 ) ;
#39 = CIRCLE ( 'NONE', #201, 0.1874999999999999722 ) ;
#40 = SURFACE_STYLE_FILL_AREA ( #129 ) ;
#41 =( CONVERSION_BASED_UNIT ( 'INCH', #88 ) LENGTH_UNIT ( ) NAMED_UNIT ( #261 ) );
#42 = FACE_OUTER_BOUND ( 'NONE', #107, .T. ) ;
#43 = AXIS2_PLACEMENT_3D ( 'NONE', #187, #60, #149 ) ;
#44 = AXIS2_PLACEMENT_3D ( 'NONE', #358, #158, #305 ) ;
#45 = COLOUR_RGB ( '',1.000000000000000000, 0.000000000000000000, 0.000000000000000000 ) ;
#46 =( NAMED_UNIT ( * ) PLANE_ANGLE_UNIT ( ) SI_UNIT ( $, .RADIAN. ) );
#47 = VERTEX_POINT ( 'NONE', #153 ) ;
#48 = CARTESIAN_POINT ( 'NONE',  ( -2.296212748401286801E-17, 0.1874999999999999722, 0.000000000000000000 ) ) ;
#49 = ORIENTED_EDGE ( 'NONE', *, *, #267, .T. ) ;
#50 =( CONVERSION_BASED_UNIT ( 'INCH', #248 ) LENGTH_UNIT ( ) NAMED_UNIT ( #100 ) );
#51 = ORIENTED_EDGE ( 'NONE', *, *, #121, .F. ) ;
#52 = PRODUCT_CONTEXT ( 'NONE', #181, 'mechanical' ) ;
#53 = AXIS2_PLACEMENT_3D ( 'NONE', #18, #198, #253 ) ;
#54 = ORIENTED_EDGE ( 'NONE', *, *, #239, .F. ) ;
#55 = ADVANCED_FACE ( 'NONE', ( #325 ), #62, .T. ) ;
#56 = ORIENTED_EDGE ( 'NONE', *, *, #167, .F. ) ;
#57 = FACE_OUTER_BOUND ( 'NONE', #78, .T. ) ;
#58 = COLOUR_RGB ( '',0.7921568627450980005, 0.8196078431372548767, 0.9333333333333333481 ) ;
#59 = SURFACE_STYLE_FILL_AREA ( #260 ) ;
#60 = DIRECTION ( 'NONE',  ( -0.000000000000000000, -1.000000000000000000, -0.000000000000000000 ) ) ;
#61 = FILL_AREA_STYLE ('',( #211 ) ) ;
#62 = CYLINDRICAL_SURFACE ( 'NONE', #336, 0.1874999999999997502 ) ;
#63 = LINE ( 'NONE', #156, #132 ) ;
#64 = PRODUCT_RELATED_PRODUCT_CATEGORY ( 'part', '', ( #2 ) ) ;
#65 = FACE_OUTER_BOUND ( 'NONE', #193, .T. ) ;
#66 = SPHERICAL_SURFACE ( 'NONE', #235, 0.1874999999999999722 ) ;
#67 = FILL_AREA_STYLE_COLOUR ( '', #45 ) ;
#68 = COLOUR_RGB ( '',1.000000000000000000, 0.000000000000000000, 0.000000000000000000 ) ;
#69 = PRESENTATION_STYLE_ASSIGNMENT (( #300 ) ) ;
#70 = CARTESIAN_POINT ( 'NONE',  ( 0.000000000000000000, 0.000000000000000000, 0.000000000000000000 ) ) ;
#71 = CARTESIAN_POINT ( 'NONE',  ( -1.148106374200643401E-17, 0.000000000000000000, 0.000000000000000000 ) ) ;
#72 = EDGE_LOOP ( 'NONE', ( #311, #175 ) ) ;
#73 = CIRCLE ( 'NONE', #154, 0.1874999999999996392 ) ;
#74 = MECHANICAL_DESIGN_GEOMETRIC_PRESENTATION_REPRESENTATION (  '', ( #186 ), #271 ) ;
#75 =( NAMED_UNIT ( * ) SI_UNIT ( $, .STERADIAN. ) SOLID_ANGLE_UNIT ( ) );
#76 = CARTESIAN_POINT ( 'NONE',  ( 0.1874999999999999722, 0.1875000000000000278, 0.000000000000000000 ) ) ;
#77 = APPLICATION_PROTOCOL_DEFINITION ( 'draft international standard', 'automotive_design', 1998, #181 ) ;
#78 = EDGE_LOOP ( 'NONE', ( #141, #223 ) ) ;
#79 =( GEOMETRIC_REPRESENTATION_CONTEXT ( 3 ) GLOBAL_UNCERTAINTY_ASSIGNED_CONTEXT ( ( #162 ) ) GLOBAL_UNIT_ASSIGNED_CONTEXT ( ( #80, #233, #33 ) ) REPRESENTATION_CONTEXT ( 'NONE', 'WORKASPACE' ) );
#80 =( CONVERSION_BASED_UNIT ( 'INCH', #268 ) LENGTH_UNIT ( ) NAMED_UNIT ( #20 ) );
#81 = ORIENTED_EDGE ( 'NONE', *, *, #344, .F. ) ;
#82 = CARTESIAN_POINT ( 'NONE',  ( 0.1874999999999999167, 0.7499999999999998890, 2.296212748401285260E-17 ) ) ;
#83 = FACE_OUTER_BOUND ( 'NONE', #372, .T. ) ;
#84 = DIRECTION ( 'NONE',  ( -0.000000000000000000, -1.000000000000000000, -0.000000000000000000 ) ) ;
#85 =( CONVERSION_BASED_UNIT ( 'INCH', #32 ) LENGTH_UNIT ( ) NAMED_UNIT ( #285 ) );
#86 = AXIS2_PLACEMENT_3D ( 'NONE', #70, #169, #138 ) ;
#87 = CARTESIAN_POINT ( 'NONE',  ( -2.296212748401286801E-17, 0.1874999999999999722, 0.000000000000000000 ) ) ;
#88 = LENGTH_MEASURE_WITH_UNIT ( LENGTH_MEASURE( 0.02539999999999999897 ), #174 );
#89 = DIRECTION ( 'NONE',  ( -1.203601583490754160E-16, 1.000000000000000000, -0.000000000000000000 ) ) ;
#90 = ADVANCED_FACE ( 'NONE', ( #57 ), #31, .F. ) ;
#91 = MECHANICAL_DESIGN_GEOMETRIC_PRESENTATION_REPRESENTATION (  '', ( #157 ), #210 ) ;
#92 = UNCERTAINTY_MEASURE_WITH_UNIT (LENGTH_MEASURE( 1.000000000000000082E-05 ), #113, 'distance_accuracy_value', 'NONE');
#93 = FILL_AREA_STYLE_COLOUR ( '', #104 ) ;
#94 = SURFACE_SIDE_STYLE ('',( #330 ) ) ;
#95 = UNCERTAINTY_MEASURE_WITH_UNIT (LENGTH_MEASURE( 1.000000000000000082E-05 ), #37, 'distance_accuracy_value', 'NONE');
#96 = DIRECTION ( 'NONE',  ( 0.000000000000000000, 1.000000000000000000, 0.000000000000000000 ) ) ;
#97 = AXIS2_PLACEMENT_3D ( 'NONE', #258, #219, #199 ) ;
#98 =( GEOMETRIC_REPRESENTATION_CONTEXT ( 3 ) GLOBAL_UNCERTAINTY_ASSIGNED_CONTEXT ( ( #123 ) ) GLOBAL_UNIT_ASSIGNED_CONTEXT ( ( #41, #217, #124 ) ) REPRESENTATION_CONTEXT ( 'NONE', 'WORKASPACE' ) );
#99 =( NAMED_UNIT ( * ) PLANE_ANGLE_UNIT ( ) SI_UNIT ( $, .RADIAN. ) );
#100 = DIMENSIONAL_EXPONENTS ( 1.000000000000000000, 0.000000000000000000, 0.000000000000000000, 0.000000000000000000, 0.000000000000000000, 0.000000000000000000, 0.000000000000000000 ) ;
#101 = CARTESIAN_POINT ( 'NONE',  ( 2.296212748401286493E-17, 0.7500000000000001110, 0.1874999999999999167 ) ) ;
#102 =( LENGTH_UNIT ( ) NAMED_UNIT ( * ) SI_UNIT ( $, .METRE. ) );
#103 = ORIENTED_EDGE ( 'NONE', *, *, #148, .T. ) ;
#104 = COLOUR_RGB ( '',1.000000000000000000, 0.000000000000000000, 0.000000000000000000 ) ;
#105 = AXIS2_PLACEMENT_3D ( 'NONE', #87, #26, #184 ) ;
#106 = DIRECTION ( 'NONE',  ( -1.000000000000000000, 0.000000000000000000, 0.000000000000000000 ) ) ;
#107 = EDGE_LOOP ( 'NONE', ( #255, #19, #228, #24, #251 ) ) ;
#108 =( NAMED_UNIT ( * ) PLANE_ANGLE_UNIT ( ) SI_UNIT ( $, .RADIAN. ) );
#109 = DIRECTION ( 'NONE',  ( -1.203601583490754160E-16, 1.000000000000000000, -0.000000000000000000 ) ) ;
#110 = ORIENTED_EDGE ( 'NONE', *, *, #180, .F. ) ;
#111 = MECHANICAL_DESIGN_GEOMETRIC_PRESENTATION_REPRESENTATION (  '', ( #371 ), #79 ) ;
#112 = CARTESIAN_POINT ( 'NONE',  ( 0.000000000000000000, 0.1875000000000000278, 0.000000000000000000 ) ) ;
#113 =( CONVERSION_BASED_UNIT ( 'INCH', #3 ) LENGTH_UNIT ( ) NAMED_UNIT ( #279 ) );
#114 = DIRECTION ( 'NONE',  ( -1.203601583490754160E-16, 1.000000000000000000, -0.000000000000000000 ) ) ;
#115 = EDGE_CURVE ( 'NONE', #288, #257, #365, .T. ) ;
#116 = DIRECTION ( 'NONE',  ( 0.000000000000000000, 0.000000000000000000, -1.000000000000000000 ) ) ;
#117 = CARTESIAN_POINT ( 'NONE',  ( 0.1874999999999999167, 2.500000000000000000, 0.000000000000000000 ) ) ;
#118 = CIRCLE ( 'NONE', #44, 0.1874999999999998335 ) ;
#119 = SURFACE_STYLE_USAGE ( .BOTH. , #212 ) ;
#120 = PRESENTATION_STYLE_ASSIGNMENT (( #231 ) ) ;
#121 = EDGE_CURVE ( 'NONE', #313, #170, #38, .T. ) ;
#122 = DIRECTION ( 'NONE',  ( -0.000000000000000000, -1.000000000000000000, -0.000000000000000000 ) ) ;
#123 = UNCERTAINTY_MEASURE_WITH_UNIT (LENGTH_MEASURE( 1.000000000000000082E-05 ), #41, 'distance_accuracy_value', 'NONE');
#124 =( NAMED_UNIT ( * ) SI_UNIT ( $, .STERADIAN. ) SOLID_ANGLE_UNIT ( ) );
#125 =( NAMED_UNIT ( * ) SI_UNIT ( $, .STERADIAN. ) SOLID_ANGLE_UNIT ( ) );
#126 =( LENGTH_UNIT ( ) NAMED_UNIT ( * ) SI_UNIT ( $, .METRE. ) );
#127 = CIRCLE ( 'NONE', #341, 0.1874999999999999722 ) ;
#128 = FILL_AREA_STYLE ('',( #67 ) ) ;
#129 = FILL_AREA_STYLE ('',( #93 ) ) ;
#130 = FACE_OUTER_BOUND ( 'NONE', #72, .T. ) ;
#131 = LINE ( 'NONE', #334, #329 ) ;
#132 = VECTOR ( 'NONE', #273, 39.37007874015748143 ) ;
#133 = FILL_AREA_STYLE ('',( #192 ) ) ;
#134 = PRODUCT_DEFINITION ( 'UNKNOWN', '', #194, #332 ) ;
#135 = VERTEX_POINT ( 'NONE', #6 ) ;
#136 =( CONVERSION_BASED_UNIT ( 'INCH', #256 ) LENGTH_UNIT ( ) NAMED_UNIT ( #250 ) );
#137 = EDGE_LOOP ( 'NONE', ( #317, #369, #315, #164 ) ) ;
#138 = DIRECTION ( 'NONE',  ( 1.000000000000000000, 0.000000000000000000, 0.000000000000000000 ) ) ;
#139 =( GEOMETRIC_REPRESENTATION_CONTEXT ( 3 ) GLOBAL_UNCERTAINTY_ASSIGNED_CONTEXT ( ( #304 ) ) GLOBAL_UNIT_ASSIGNED_CONTEXT ( ( #12, #99, #125 ) ) REPRESENTATION_CONTEXT ( 'NONE', 'WORKASPACE' ) );
#140 = CARTESIAN_POINT ( 'NONE',  ( -2.296212748401286801E-17, 0.1874999999999999722, 0.000000000000000000 ) ) ;
#141 = ORIENTED_EDGE ( 'NONE', *, *, #227, .T. ) ;
#142 = DIRECTION ( 'NONE',  ( -0.000000000000000000, -1.000000000000000000, -0.000000000000000000 ) ) ;
#143 = ORIENTED_EDGE ( 'NONE', *, *, #274, .F. ) ;
#144 =( NAMED_UNIT ( * ) PLANE_ANGLE_UNIT ( ) SI_UNIT ( $, .RADIAN. ) );
#145 = DIRECTION ( 'NONE',  ( -0.000000000000000000, -1.000000000000000000, -0.000000000000000000 ) ) ;
#146 = AXIS2_PLACEMENT_3D ( 'NONE', #151, #353, #294 ) ;
#147 = COLOUR_RGB ( '',0.7921568627450980005, 0.8196078431372548767, 0.9333333333333333481 ) ;
#148 = EDGE_CURVE ( 'NONE', #47, #170, #27, .T. ) ;
#149 = DIRECTION ( 'NONE',  ( 0.000000000000000000, 0.000000000000000000, -1.000000000000000000 ) ) ;
#150 = FILL_AREA_STYLE ('',( #9 ) ) ;
#151 = CARTESIAN_POINT ( 'NONE',  ( 0.000000000000000000, 0.7500000000000001110, 0.000000000000000000 ) ) ;
#152 =( NAMED_UNIT ( * ) SI_UNIT ( $, .STERADIAN. ) SOLID_ANGLE_UNIT ( ) );
#153 = CARTESIAN_POINT ( 'NONE',  ( -0.1874999999999993616, 0.7499999999999998890, 0.000000000000000000 ) ) ;
#154 = AXIS2_PLACEMENT_3D ( 'NONE', #327, #114, #290 ) ;
#155 = MECHANICAL_DESIGN_GEOMETRIC_PRESENTATION_REPRESENTATION (  '', ( #15 ), #229 ) ;
#156 = CARTESIAN_POINT ( 'NONE',  ( 2.296212748401286493E-17, 0.000000000000000000, 0.1874999999999999445 ) ) ;
#157 = STYLED_ITEM ( 'NONE', ( #69 ), #368 ) ;
#158 = DIRECTION ( 'NONE',  ( -1.203601583490754160E-16, 1.000000000000000000, -0.000000000000000000 ) ) ;
#159 = MECHANICAL_DESIGN_GEOMETRIC_PRESENTATION_REPRESENTATION (  '', ( #277 ), #98 ) ;
#160 = EDGE_CURVE ( 'NONE', #135, #259, #254, .T. ) ;
#161 =( GEOMETRIC_REPRESENTATION_CONTEXT ( 3 ) GLOBAL_UNCERTAINTY_ASSIGNED_CONTEXT ( ( #338 ) ) GLOBAL_UNIT_ASSIGNED_CONTEXT ( ( #50, #108, #75 ) ) REPRESENTATION_CONTEXT ( 'NONE', 'WORKASPACE' ) );
#162 = UNCERTAINTY_MEASURE_WITH_UNIT (LENGTH_MEASURE( 1.000000000000000082E-05 ), #80, 'distance_accuracy_value', 'NONE');
#163 = CARTESIAN_POINT ( 'NONE',  ( 0.000000000000000000, 0.000000000000000000, -0.1874999999999999445 ) ) ;
#164 = ORIENTED_EDGE ( 'NONE', *, *, #115, .T. ) ;
#165 = APPLICATION_CONTEXT ( 'automotive_design' ) ;
#166 = PRESENTATION_STYLE_ASSIGNMENT (( #226 ) ) ;
#167 = EDGE_CURVE ( 'NONE', #259, #135, #349, .T. ) ;
#168 = VERTEX_POINT ( 'NONE', #324 ) ;
#169 = DIRECTION ( 'NONE',  ( 0.000000000000000000, 0.000000000000000000, 1.000000000000000000 ) ) ;
#170 = VERTEX_POINT ( 'NONE', #183 ) ;
#171 = PRESENTATION_LAYER_ASSIGNMENT (  '', '', ( #186 ) ) ;
#172 = CARTESIAN_POINT ( 'NONE',  ( 2.718626170682497370E-16, 0.7499999999999998890, 0.000000000000000000 ) ) ;
#173 = ORIENTED_EDGE ( 'NONE', *, *, #239, .T. ) ;
#174 =( LENGTH_UNIT ( ) NAMED_UNIT ( * ) SI_UNIT ( $, .METRE. ) );
#175 = ORIENTED_EDGE ( 'NONE', *, *, #7, .F. ) ;
#176 = SURFACE_STYLE_FILL_AREA ( #150 ) ;
#177 = DIRECTION ( 'NONE',  ( 0.000000000000000000, 0.000000000000000000, -1.000000000000000000 ) ) ;
#178 = PRESENTATION_STYLE_ASSIGNMENT (( #352 ) ) ;
#179 = FILL_AREA_STYLE ('',( #234 ) ) ;
#180 = EDGE_CURVE ( 'NONE', #257, #168, #185, .T. ) ;
#181 = APPLICATION_CONTEXT ( 'automotive_design' ) ;
#182 = SURFACE_SIDE_STYLE ('',( #319 ) ) ;
#183 = CARTESIAN_POINT ( 'NONE',  ( -0.1874999999999997780, 2.500000000000000000, 0.000000000000000000 ) ) ;
#184 = DIRECTION ( 'NONE',  ( 1.000000000000000000, 0.000000000000000000, -1.224646799147353207E-16 ) ) ;
#185 = CIRCLE ( 'NONE', #263, 0.1874999999999999722 ) ;
#186 = STYLED_ITEM ( 'NONE', ( #230 ), #205 ) ;
#187 = CARTESIAN_POINT ( 'NONE',  ( 0.000000000000000000, 0.7500000000000001110, 0.000000000000000000 ) ) ;
#188 =( LENGTH_UNIT ( ) NAMED_UNIT ( * ) SI_UNIT ( $, .METRE. ) );
#189 = CARTESIAN_POINT ( 'NONE',  ( -2.296212748401286801E-17, 0.1874999999999999722, 0.000000000000000000 ) ) ;
#190 = PRESENTATION_LAYER_ASSIGNMENT (  '', '', ( #292 ) ) ;
#191 = ADVANCED_FACE ( 'NONE', ( #236 ), #266, .T. ) ;
#192 = FILL_AREA_STYLE_COLOUR ( '', #68 ) ;
#193 = EDGE_LOOP ( 'NONE', ( #282, #56 ) ) ;
#194 = PRODUCT_DEFINITION_FORMATION_WITH_SPECIFIED_SOURCE ( 'ANY', '', #2, .NOT_KNOWN. ) ;
#195 = CIRCLE ( 'NONE', #105, 0.1874999999999999722 ) ;
#196 = SURFACE_STYLE_FILL_AREA ( #133 ) ;
#197 = ORIENTED_EDGE ( 'NONE', *, *, #167, .T. ) ;
#198 = DIRECTION ( 'NONE',  ( -0.000000000000000000, -1.000000000000000000, -0.000000000000000000 ) ) ;
#199 = DIRECTION ( 'NONE',  ( 0.000000000000000000, 0.000000000000000000, -1.000000000000000000 ) ) ;
#200 = VERTEX_POINT ( 'NONE', #82 ) ;
#201 = AXIS2_PLACEMENT_3D ( 'NONE', #140, #316, #23 ) ;
#202 = VECTOR ( 'NONE', #359, 39.37007874015748143 ) ;
#203 = SURFACE_SIDE_STYLE ('',( #59 ) ) ;
#204 = ORIENTED_EDGE ( 'NONE', *, *, #25, .F. ) ;
#205 = ADVANCED_FACE ( 'NONE', ( #83 ), #66, .T. ) ;
#206 = CARTESIAN_POINT ( 'NONE',  ( 0.000000000000000000, 0.1875000000000000278, 0.000000000000000000 ) ) ;
#207 = FILL_AREA_STYLE_COLOUR ( '', #147 ) ;
#208 =( LENGTH_UNIT ( ) NAMED_UNIT ( * ) SI_UNIT ( $, .METRE. ) );
#209 = CLOSED_SHELL ( 'NONE', ( #298, #314, #368, #252, #205 ) ) ;
#210 =( GEOMETRIC_REPRESENTATION_CONTEXT ( 3 ) GLOBAL_UNCERTAINTY_ASSIGNED_CONTEXT ( ( #95 ) ) GLOBAL_UNIT_ASSIGNED_CONTEXT ( ( #37, #11, #238 ) ) REPRESENTATION_CONTEXT ( 'NONE', 'WORKASPACE' ) );
#211 = FILL_AREA_STYLE_COLOUR ( '', #58 ) ;
#212 = SURFACE_SIDE_STYLE ('',( #293 ) ) ;
#213 = LINE ( 'NONE', #163, #202 ) ;
#214 = AXIS2_PLACEMENT_3D ( 'NONE', #287, #84, #116 ) ;
#215 = AXIS2_PLACEMENT_3D ( 'NONE', #363, #96, #326 ) ;
#216 =( NAMED_UNIT ( * ) SI_UNIT ( $, .STERADIAN. ) SOLID_ANGLE_UNIT ( ) );
#217 =( NAMED_UNIT ( * ) PLANE_ANGLE_UNIT ( ) SI_UNIT ( $, .RADIAN. ) );
#218 = DIRECTION ( 'NONE',  ( -1.203601583490754160E-16, 1.000000000000000000, -0.000000000000000000 ) ) ;
#219 = DIRECTION ( 'NONE',  ( -0.000000000000000000, -1.000000000000000000, -0.000000000000000000 ) ) ;
#220 = ORIENTED_EDGE ( 'NONE', *, *, #361, .T. ) ;
#221 = CARTESIAN_POINT ( 'NONE',  ( 2.296212748401286801E-17, 0.1875000000000000278, 0.1874999999999999722 ) ) ;
#222 = PRODUCT_DEFINITION_SHAPE ( 'NONE', 'NONE',  #134 ) ;
#223 = ORIENTED_EDGE ( 'NONE', *, *, #121, .T. ) ;
#224 = DIRECTION ( 'NONE',  ( 0.000000000000000000, 0.000000000000000000, 1.000000000000000000 ) ) ;
#225 = ORIENTED_EDGE ( 'NONE', *, *, #283, .T. ) ;
#226 = SURFACE_STYLE_USAGE ( .BOTH. , #312 ) ;
#227 = EDGE_CURVE ( 'NONE', #170, #313, #118, .T. ) ;
#228 = ORIENTED_EDGE ( 'NONE', *, *, #115, .F. ) ;
#229 =( GEOMETRIC_REPRESENTATION_CONTEXT ( 3 ) GLOBAL_UNCERTAINTY_ASSIGNED_CONTEXT ( ( #240 ) ) GLOBAL_UNIT_ASSIGNED_CONTEXT ( ( #136, #46, #249 ) ) REPRESENTATION_CONTEXT ( 'NONE', 'WORKASPACE' ) );
#230 = PRESENTATION_STYLE_ASSIGNMENT (( #119 ) ) ;
#231 = SURFACE_STYLE_USAGE ( .BOTH. , #203 ) ;
#232 = DIRECTION ( 'NONE',  ( 0.000000000000000000, 0.000000000000000000, -1.000000000000000000 ) ) ;
#233 =( NAMED_UNIT ( * ) PLANE_ANGLE_UNIT ( ) SI_UNIT ( $, .RADIAN. ) );
#234 = FILL_AREA_STYLE_COLOUR ( '', #309 ) ;
#235 = AXIS2_PLACEMENT_3D ( 'NONE', #189, #245, #16 ) ;
#236 = FACE_OUTER_BOUND ( 'NONE', #280, .T. ) ;
#237 = CARTESIAN_POINT ( 'NONE',  ( -0.1874999999999996669, 2.500000000000000000, 0.000000000000000000 ) ) ;
#238 =( NAMED_UNIT ( * ) SI_UNIT ( $, .STERADIAN. ) SOLID_ANGLE_UNIT ( ) );
#239 = EDGE_CURVE ( 'NONE', #200, #313, #131, .T. ) ;
#240 = UNCERTAINTY_MEASURE_WITH_UNIT (LENGTH_MEASURE( 1.000000000000000082E-05 ), #136, 'distance_accuracy_value', 'NONE');
#241 = AXIS2_PLACEMENT_3D ( 'NONE', #34, #4, #269 ) ;
#242 =( GEOMETRIC_REPRESENTATION_CONTEXT ( 3 ) GLOBAL_UNCERTAINTY_ASSIGNED_CONTEXT ( ( #92 ) ) GLOBAL_UNIT_ASSIGNED_CONTEXT ( ( #113, #144, #152 ) ) REPRESENTATION_CONTEXT ( 'NONE', 'WORKASPACE' ) );
#243 = SURFACE_SIDE_STYLE ('',( #40 ) ) ;
#244 = ADVANCED_FACE ( 'NONE', ( #130 ), #364, .F. ) ;
#245 = DIRECTION ( 'NONE',  ( 0.000000000000000000, 0.000000000000000000, 1.000000000000000000 ) ) ;
#246 = APPLICATION_PROTOCOL_DEFINITION ( 'draft international standard', 'automotive_design', 1998, #165 ) ;
#247 = ORIENTED_EDGE ( 'NONE', *, *, #308, .T. ) ;
#248 = LENGTH_MEASURE_WITH_UNIT ( LENGTH_MEASURE( 0.02539999999999999897 ), #102 );
#249 =( NAMED_UNIT ( * ) SI_UNIT ( $, .STERADIAN. ) SOLID_ANGLE_UNIT ( ) );
#250 = DIMENSIONAL_EXPONENTS ( 1.000000000000000000, 0.000000000000000000, 0.000000000000000000, 0.000000000000000000, 0.000000000000000000, 0.000000000000000000, 0.000000000000000000 ) ;
#251 = ORIENTED_EDGE ( 'NONE', *, *, #361, .F. ) ;
#252 = ADVANCED_FACE ( 'NONE', ( #14 ), #367, .T. ) ;
#253 = DIRECTION ( 'NONE',  ( 0.000000000000000000, 0.000000000000000000, -1.000000000000000000 ) ) ;
#254 = CIRCLE ( 'NONE', #146, 0.1874999999999999167 ) ;
#255 = ORIENTED_EDGE ( 'NONE', *, *, #160, .T. ) ;
#256 = LENGTH_MEASURE_WITH_UNIT ( LENGTH_MEASURE( 0.02539999999999999897 ), #284 );
#257 = VERTEX_POINT ( 'NONE', #221 ) ;
#258 = CARTESIAN_POINT ( 'NONE',  ( 0.000000000000000000, 0.1875000000000000278, 0.000000000000000000 ) ) ;
#259 = VERTEX_POINT ( 'NONE', #101 ) ;
#260 = FILL_AREA_STYLE ('',( #207 ) ) ;
#261 = DIMENSIONAL_EXPONENTS ( 1.000000000000000000, 0.000000000000000000, 0.000000000000000000, 0.000000000000000000, 0.000000000000000000, 0.000000000000000000, 0.000000000000000000 ) ;
#262 = DIRECTION ( 'NONE',  ( 1.203601583490754160E-16, -1.000000000000000000, 0.000000000000000000 ) ) ;
#263 = AXIS2_PLACEMENT_3D ( 'NONE', #206, #145, #232 ) ;
#264 = AXIS2_PLACEMENT_3D ( 'NONE', #303, #306, #275 ) ;
#265 = PRESENTATION_LAYER_ASSIGNMENT (  '', '', ( #157 ) ) ;
#266 = CYLINDRICAL_SURFACE ( 'NONE', #291, 0.1874999999999997502 ) ;
#267 = EDGE_CURVE ( 'NONE', #340, #288, #127, .T. ) ;
#268 = LENGTH_MEASURE_WITH_UNIT ( LENGTH_MEASURE( 0.02539999999999999897 ), #28 );
#269 = DIRECTION ( 'NONE',  ( -1.000000000000000000, 0.000000000000000000, 0.000000000000000000 ) ) ;
#270 = DIRECTION ( 'NONE',  ( 1.000000000000000000, 1.203601583490754160E-16, 0.000000000000000000 ) ) ;
#271 =( GEOMETRIC_REPRESENTATION_CONTEXT ( 3 ) GLOBAL_UNCERTAINTY_ASSIGNED_CONTEXT ( ( #36 ) ) GLOBAL_UNIT_ASSIGNED_CONTEXT ( ( #85, #357, #216 ) ) REPRESENTATION_CONTEXT ( 'NONE', 'WORKASPACE' ) );
#272 = PRESENTATION_STYLE_ASSIGNMENT (( #295 ) ) ;
#273 = DIRECTION ( 'NONE',  ( -0.000000000000000000, -1.000000000000000000, -0.000000000000000000 ) ) ;
#274 = EDGE_CURVE ( 'NONE', #168, #340, #337, .T. ) ;
#275 = DIRECTION ( 'NONE',  ( -1.000000000000000000, -1.203601583490754160E-16, 0.000000000000000000 ) ) ;
#276 = ADVANCED_BREP_SHAPE_REPRESENTATION ( '83420', ( #333, #331, #86 ), #161 ) ;
#277 = STYLED_ITEM ( 'NONE', ( #272 ), #333 ) ;
#278 = PLANE ( 'NONE',  #215 ) ;
#279 = DIMENSIONAL_EXPONENTS ( 1.000000000000000000, 0.000000000000000000, 0.000000000000000000, 0.000000000000000000, 0.000000000000000000, 0.000000000000000000, 0.000000000000000000 ) ;
#280 = EDGE_LOOP ( 'NONE', ( #225, #173, #320, #350 ) ) ;
#281 = SHAPE_DEFINITION_REPRESENTATION ( #222, #276 ) ;
#282 = ORIENTED_EDGE ( 'NONE', *, *, #160, .F. ) ;
#283 = EDGE_CURVE ( 'NONE', #47, #200, #356, .T. ) ;
#284 =( LENGTH_UNIT ( ) NAMED_UNIT ( * ) SI_UNIT ( $, .METRE. ) );
#285 = DIMENSIONAL_EXPONENTS ( 1.000000000000000000, 0.000000000000000000, 0.000000000000000000, 0.000000000000000000, 0.000000000000000000, 0.000000000000000000, 0.000000000000000000 ) ;
#286 = VERTEX_POINT ( 'NONE', #71 ) ;
#287 = CARTESIAN_POINT ( 'NONE',  ( 0.000000000000000000, 0.000000000000000000, 0.000000000000000000 ) ) ;
#288 = VERTEX_POINT ( 'NONE', #76 ) ;
#289 = SURFACE_SIDE_STYLE ('',( #176 ) ) ;
#290 = DIRECTION ( 'NONE',  ( -1.000000000000000000, 0.000000000000000000, 0.000000000000000000 ) ) ;
#291 = AXIS2_PLACEMENT_3D ( 'NONE', #10, #5, #8 ) ;
#292 = STYLED_ITEM ( 'NONE', ( #302 ), #252 ) ;
#293 = SURFACE_STYLE_FILL_AREA ( #179 ) ;
#294 = DIRECTION ( 'NONE',  ( 0.000000000000000000, 0.000000000000000000, -1.000000000000000000 ) ) ;
#295 = SURFACE_STYLE_USAGE ( .BOTH. , #182 ) ;
#296 = DIRECTION ( 'NONE',  ( -1.000000000000000000, 0.000000000000000000, 0.000000000000000000 ) ) ;
#297 = VECTOR ( 'NONE', #89, 39.37007874015748143 ) ;
#298 = ADVANCED_FACE ( 'NONE', ( #1 ), #373, .T. ) ;
#299 = PRESENTATION_LAYER_ASSIGNMENT (  '', '', ( #371 ) ) ;
#300 = SURFACE_STYLE_USAGE ( .BOTH. , #94 ) ;
#301 = LENGTH_MEASURE_WITH_UNIT ( LENGTH_MEASURE( 0.02539999999999999897 ), #188 );
#302 = PRESENTATION_STYLE_ASSIGNMENT (( #362 ) ) ;
#303 = CARTESIAN_POINT ( 'NONE',  ( 2.718626170682497370E-16, 0.7500000000000001110, 0.000000000000000000 ) ) ;
#304 = UNCERTAINTY_MEASURE_WITH_UNIT (LENGTH_MEASURE( 1.000000000000000082E-05 ), #12, 'distance_accuracy_value', 'NONE');
#305 = DIRECTION ( 'NONE',  ( -1.000000000000000000, 0.000000000000000000, 0.000000000000000000 ) ) ;
#306 = DIRECTION ( 'NONE',  ( -1.203601583490754160E-16, 1.000000000000000000, 0.000000000000000000 ) ) ;
#307 = CARTESIAN_POINT ( 'NONE',  ( 0.1874999999999999167, 2.500000000000000000, 2.296212748401285260E-17 ) ) ;
#308 = EDGE_CURVE ( 'NONE', #288, #286, #39, .T. ) ;
#309 = COLOUR_RGB ( '',1.000000000000000000, 0.000000000000000000, 0.000000000000000000 ) ;
#310 = PRESENTATION_LAYER_ASSIGNMENT (  '', '', ( #30 ) ) ;
#311 = ORIENTED_EDGE ( 'NONE', *, *, #283, .F. ) ;
#312 = SURFACE_SIDE_STYLE ('',( #196 ) ) ;
#313 = VERTEX_POINT ( 'NONE', #307 ) ;
#314 = ADVANCED_FACE ( 'NONE', ( #42 ), #321, .T. ) ;
#315 = ORIENTED_EDGE ( 'NONE', *, *, #308, .F. ) ;
#316 = DIRECTION ( 'NONE',  ( 0.000000000000000000, 0.000000000000000000, -1.000000000000000000 ) ) ;
#317 = ORIENTED_EDGE ( 'NONE', *, *, #180, .T. ) ;
#318 = PRESENTATION_LAYER_ASSIGNMENT (  '', '', ( #15 ) ) ;
#319 = SURFACE_STYLE_FILL_AREA ( #61 ) ;
#320 = ORIENTED_EDGE ( 'NONE', *, *, #227, .F. ) ;
#321 = CYLINDRICAL_SURFACE ( 'NONE', #214, 0.1874999999999999445 ) ;
#322 = CARTESIAN_POINT ( 'NONE',  ( 6.123233995736772199E-17, 2.500000000000000000, 0.000000000000000000 ) ) ;
#323 = PRESENTATION_LAYER_ASSIGNMENT (  '', '', ( #277 ) ) ;
#324 = CARTESIAN_POINT ( 'NONE',  ( -0.1874999999999999722, 0.1875000000000000278, 2.296212748401286493E-17 ) ) ;
#325 = FACE_OUTER_BOUND ( 'NONE', #22, .T. ) ;
#326 = DIRECTION ( 'NONE',  ( 0.000000000000000000, -0.000000000000000000, 1.000000000000000000 ) ) ;
#327 = CARTESIAN_POINT ( 'NONE',  ( 2.718626170682497370E-16, 0.7499999999999998890, 0.000000000000000000 ) ) ;
#328 = CLOSED_SHELL ( 'NONE', ( #191, #244, #55, #90 ) ) ;
#329 = VECTOR ( 'NONE', #218, 39.37007874015748143 ) ;
#330 = SURFACE_STYLE_FILL_AREA ( #128 ) ;
#331 = MANIFOLD_SOLID_BREP ( 'Revolve - Tool Body (Straight Shanked)', #328 ) ;
#332 = PRODUCT_DEFINITION_CONTEXT ( 'detailed design', #165, 'design' ) ;
#333 = MANIFOLD_SOLID_BREP ( 'Revolve - Cutting Edge', #209 ) ;
#334 = CARTESIAN_POINT ( 'NONE',  ( 0.1874999999999998057, 2.500000000000000000, 2.296212748401284336E-17 ) ) ;
#335 = LENGTH_MEASURE_WITH_UNIT ( LENGTH_MEASURE( 0.02539999999999999897 ), #126 );
#336 = AXIS2_PLACEMENT_3D ( 'NONE', #322, #355, #296 ) ;
#337 = CIRCLE ( 'NONE', #97, 0.1874999999999999722 ) ;
#338 = UNCERTAINTY_MEASURE_WITH_UNIT (LENGTH_MEASURE( 1.000000000000000082E-05 ), #50, 'distance_accuracy_value', 'NONE');
#339 = DIRECTION ( 'NONE',  ( 0.000000000000000000, 0.000000000000000000, -1.000000000000000000 ) ) ;
#340 = VERTEX_POINT ( 'NONE', #13 ) ;
#341 = AXIS2_PLACEMENT_3D ( 'NONE', #342, #142, #339 ) ;
#342 = CARTESIAN_POINT ( 'NONE',  ( 0.000000000000000000, 0.1875000000000000278, 0.000000000000000000 ) ) ;
#343 = ORIENTED_EDGE ( 'NONE', *, *, #274, .T. ) ;
#344 = EDGE_CURVE ( 'NONE', #168, #286, #195, .T. ) ;
#345 = ORIENTED_EDGE ( 'NONE', *, *, #7, .T. ) ;
#346 = DIRECTION ( 'NONE',  ( 1.000000000000000000, 0.000000000000000000, 0.000000000000000000 ) ) ;
#347 = EDGE_LOOP ( 'NONE', ( #204, #197, #220, #143, #110 ) ) ;
#348 = DIMENSIONAL_EXPONENTS ( 1.000000000000000000, 0.000000000000000000, 0.000000000000000000, 0.000000000000000000, 0.000000000000000000, 0.000000000000000000, 0.000000000000000000 ) ;
#349 = CIRCLE ( 'NONE', #43, 0.1874999999999999167 ) ;
#350 = ORIENTED_EDGE ( 'NONE', *, *, #148, .F. ) ;
#351 = MECHANICAL_DESIGN_GEOMETRIC_PRESENTATION_REPRESENTATION (  '', ( #30 ), #242 ) ;
#352 = SURFACE_STYLE_USAGE ( .BOTH. , #289 ) ;
#353 = DIRECTION ( 'NONE',  ( -0.000000000000000000, -1.000000000000000000, -0.000000000000000000 ) ) ;
#354 =( LENGTH_UNIT ( ) NAMED_UNIT ( * ) SI_UNIT ( $, .METRE. ) );
#355 = DIRECTION ( 'NONE',  ( -1.203601583490754160E-16, 1.000000000000000000, -0.000000000000000000 ) ) ;
#356 = CIRCLE ( 'NONE', #21, 0.1874999999999996392 ) ;
#357 =( NAMED_UNIT ( * ) PLANE_ANGLE_UNIT ( ) SI_UNIT ( $, .RADIAN. ) );
#358 = CARTESIAN_POINT ( 'NONE',  ( 6.123233995736772199E-17, 2.500000000000000000, 0.000000000000000000 ) ) ;
#359 = DIRECTION ( 'NONE',  ( -0.000000000000000000, -1.000000000000000000, -0.000000000000000000 ) ) ;
#360 = AXIS2_PLACEMENT_3D ( 'NONE', #48, #224, #346 ) ;
#361 = EDGE_CURVE ( 'NONE', #135, #340, #213, .T. ) ;
#362 = SURFACE_STYLE_USAGE ( .BOTH. , #243 ) ;
#363 = CARTESIAN_POINT ( 'NONE',  ( 0.000000000000000000, 0.7500000000000001110, 0.000000000000000000 ) ) ;
#364 = PLANE ( 'NONE',  #264 ) ;
#365 = CIRCLE ( 'NONE', #35, 0.1874999999999999722 ) ;
#366 = COLOUR_RGB ( '',1.000000000000000000, 0.000000000000000000, 0.000000000000000000 ) ;
#367 = CYLINDRICAL_SURFACE ( 'NONE', #53, 0.1874999999999999445 ) ;
#368 = ADVANCED_FACE ( 'NONE', ( #65 ), #278, .T. ) ;
#369 = ORIENTED_EDGE ( 'NONE', *, *, #344, .T. ) ;
#370 = DIMENSIONAL_EXPONENTS ( 1.000000000000000000, 0.000000000000000000, 0.000000000000000000, 0.000000000000000000, 0.000000000000000000, 0.000000000000000000, 0.000000000000000000 ) ;
#371 = STYLED_ITEM ( 'NONE', ( #178 ), #314 ) ;
#372 = EDGE_LOOP ( 'NONE', ( #81, #343, #49, #247 ) ) ;
#373 = SPHERICAL_SURFACE ( 'NONE', #360, 0.1874999999999999722 ) ;
ENDSEC;
END-ISO-10303-21;
