ISO-10303-21;
HEADER;
FILE_DESCRIPTION (( 'STEP AP214' ),
    '1' );
FILE_NAME ('Micro_SFBM-010-3X.STEP',
    '2021-09-03T16:38:00',
    ( '' ),
    ( '' ),
    'SwSTEP 2.0',
    'SolidWorks 2020',
    '' );
FILE_SCHEMA (( 'AUTOMOTIVE_DESIGN' ));
ENDSEC;

DATA;
#1 = AXIS2_PLACEMENT_3D ( 'NONE', #126, #11, #214 ) ;
#2 = PRESENTATION_STYLE_ASSIGNMENT (( #111 ) ) ;
#3 = VERTEX_POINT ( 'NONE', #305 ) ;
#4 = CARTESIAN_POINT ( 'NONE',  ( 0.0000000000000000000, 0.0000000000000000000, 2.244094000000000033 ) ) ;
#5 = SURFACE_STYLE_FILL_AREA ( #347 ) ;
#6 = PRODUCT_DEFINITION_CONTEXT ( 'detailed design', #294, 'design' ) ;
#7 = ORIENTED_EDGE ( 'NONE', *, *, #300, .T. ) ;
#8 = DIRECTION ( 'NONE',  ( 0.7071067811865358044, 8.659560562354788645E-17, -0.7071067811865590080 ) ) ;
#9 = ORIENTED_EDGE ( 'NONE', *, *, #98, .T. ) ;
#10 = ORIENTED_EDGE ( 'NONE', *, *, #174, .T. ) ;
#11 = DIRECTION ( 'NONE',  ( -0.0000000000000000000, -0.0000000000000000000, -1.000000000000000000 ) ) ;
#12 = DIRECTION ( 'NONE',  ( -0.0000000000000000000, -0.0000000000000000000, -1.000000000000000000 ) ) ;
#13 = CARTESIAN_POINT ( 'NONE',  ( 0.0000000000000000000, 0.0000000000000000000, 2.229093999999999465 ) ) ;
#14 = DIRECTION ( 'NONE',  ( 0.0000000000000000000, 0.0000000000000000000, 1.000000000000000000 ) ) ;
#15 = AXIS2_PLACEMENT_3D ( 'NONE', #264, #363, #95 ) ;
#16 = VERTEX_POINT ( 'NONE', #267 ) ;
#17 = CARTESIAN_POINT ( 'NONE',  ( -0.1031100000000002570, 0.0000000000000000000, 2.244094000000000033 ) ) ;
#18 = CARTESIAN_POINT ( 'NONE',  ( -0.1181100000000000066, 0.0000000000000000000, 2.229093999999999465 ) ) ;
#19 = DIRECTION ( 'NONE',  ( -0.0000000000000000000, -0.0000000000000000000, -1.000000000000000000 ) ) ;
#20 = PRESENTATION_LAYER_ASSIGNMENT (  '', '', ( #167 ) ) ;
#21 = DIRECTION ( 'NONE',  ( 1.000000000000000000, 0.0000000000000000000, 0.0000000000000000000 ) ) ;
#22 = CARTESIAN_POINT ( 'NONE',  ( 0.01870100000000001275, 0.0000000000000000000, 0.1299210000000000087 ) ) ;
#23 = CYLINDRICAL_SURFACE ( 'NONE', #209, 0.1181100000000000066 ) ;
#24 = VERTEX_POINT ( 'NONE', #334 ) ;
#25 = ADVANCED_FACE ( 'NONE', ( #60 ), #93, .T. ) ;
#26 = FACE_OUTER_BOUND ( 'NONE', #256, .T. ) ;
#27 = VERTEX_POINT ( 'NONE', #18 ) ;
#28 =( GEOMETRIC_REPRESENTATION_CONTEXT ( 3 ) GLOBAL_UNCERTAINTY_ASSIGNED_CONTEXT ( ( #140 ) ) GLOBAL_UNIT_ASSIGNED_CONTEXT ( ( #223, #352, #229 ) ) REPRESENTATION_CONTEXT ( 'NONE', 'WORKASPACE' ) );
#29 = DIRECTION ( 'NONE',  ( -1.000000000000000000, 0.0000000000000000000, 0.0000000000000000000 ) ) ;
#30 = DIRECTION ( 'NONE',  ( 1.000000000000000000, 0.0000000000000000000, 0.0000000000000000000 ) ) ;
#31 = EDGE_CURVE ( 'NONE', #24, #16, #350, .T. ) ;
#32 = AXIS2_PLACEMENT_3D ( 'NONE', #239, #14, #65 ) ;
#33 = AXIS2_PLACEMENT_3D ( 'NONE', #22, #173, #243 ) ;
#34 = CYLINDRICAL_SURFACE ( 'NONE', #247, 0.01870100000000000928 ) ;
#35 = ORIENTED_EDGE ( 'NONE', *, *, #200, .T. ) ;
#36 = ORIENTED_EDGE ( 'NONE', *, *, #236, .T. ) ;
#37 = CONICAL_SURFACE ( 'NONE', #314, 0.01968303149999999294, 0.1745329251994334474 ) ;
#38 = FACE_OUTER_BOUND ( 'NONE', #160, .T. ) ;
#39 = DIRECTION ( 'NONE',  ( -1.000000000000000000, 0.0000000000000000000, 0.0000000000000000000 ) ) ;
#40 = DIRECTION ( 'NONE',  ( -1.000000000000000000, 0.0000000000000000000, 0.0000000000000000000 ) ) ;
#41 = CARTESIAN_POINT ( 'NONE',  ( 0.1031100000000002570, 1.354581824536888722E-17, 2.244094000000000033 ) ) ;
#42 = ORIENTED_EDGE ( 'NONE', *, *, #377, .T. ) ;
#43 = AXIS2_PLACEMENT_3D ( 'NONE', #89, #268, #208 ) ;
#44 = LINE ( 'NONE', #128, #295 ) ;
#45 = CARTESIAN_POINT ( 'NONE',  ( -0.1181100000000000066, 0.0000000000000000000, 2.244094000000000033 ) ) ;
#46 =( NAMED_UNIT ( * ) SI_UNIT ( $, .STERADIAN. ) SOLID_ANGLE_UNIT ( ) );
#47 = DIRECTION ( 'NONE',  ( -1.000000000000000000, 0.0000000000000000000, 0.0000000000000000000 ) ) ;
#48 = VECTOR ( 'NONE', #159, 39.37007874015748143 ) ;
#49 = ADVANCED_BREP_SHAPE_REPRESENTATION ( 'Micro_SFBM-010-3X', ( #113, #276 ), #28 ) ;
#50 = CARTESIAN_POINT ( 'NONE',  ( 0.0000000000000000000, 0.0000000000000000000, 2.244094000000000033 ) ) ;
#51 = ORIENTED_EDGE ( 'NONE', *, *, #56, .T. ) ;
#52 = CYLINDRICAL_SURFACE ( 'NONE', #306, 0.01968303149999999294 ) ;
#53 = ORIENTED_EDGE ( 'NONE', *, *, #164, .F. ) ;
#54 = CIRCLE ( 'NONE', #1, 0.1181100000000000066 ) ;
#55 = EDGE_CURVE ( 'NONE', #96, #27, #149, .T. ) ;
#56 = EDGE_CURVE ( 'NONE', #99, #321, #54, .T. ) ;
#57 = VECTOR ( 'NONE', #155, 39.37007874015748143 ) ;
#58 = ORIENTED_EDGE ( 'NONE', *, *, #71, .F. ) ;
#59 = EDGE_LOOP ( 'NONE', ( #204, #58, #279, #115 ) ) ;
#60 = FACE_OUTER_BOUND ( 'NONE', #319, .T. ) ;
#61 = CIRCLE ( 'NONE', #100, 0.01968303149999999294 ) ;
#62 = CARTESIAN_POINT ( 'NONE',  ( 0.0000000000000000000, 0.0000000000000000000, 2.244094000000000033 ) ) ;
#63 = DIRECTION ( 'NONE',  ( -0.0000000000000000000, -0.0000000000000000000, -1.000000000000000000 ) ) ;
#64 = EDGE_CURVE ( 'NONE', #16, #109, #152, .T. ) ;
#65 = DIRECTION ( 'NONE',  ( 1.000000000000000000, 0.0000000000000000000, -0.0000000000000000000 ) ) ;
#66 = EDGE_LOOP ( 'NONE', ( #199, #379, #235, #170 ) ) ;
#67 = PRODUCT_DEFINITION ( 'UNKNOWN', '', #112, #6 ) ;
#68 = DIRECTION ( 'NONE',  ( 1.000000000000000000, 0.0000000000000000000, -0.0000000000000000000 ) ) ;
#69 = VECTOR ( 'NONE', #151, 39.37007874015748143 ) ;
#70 = AXIS2_PLACEMENT_3D ( 'NONE', #13, #103, #205 ) ;
#71 = EDGE_CURVE ( 'NONE', #96, #260, #141, .T. ) ;
#72 = LINE ( 'NONE', #45, #57 ) ;
#73 = LENGTH_MEASURE_WITH_UNIT ( LENGTH_MEASURE( 0.02539999999999999897 ), #248 );
#74 = CARTESIAN_POINT ( 'NONE',  ( 0.0000000000000000000, 0.0000000000000000000, 0.1299209999999999809 ) ) ;
#75 =( CONVERSION_BASED_UNIT ( 'INCH', #73 ) LENGTH_UNIT ( ) NAMED_UNIT ( #324 ) );
#76 = ADVANCED_FACE ( 'NONE', ( #38 ), #207, .F. ) ;
#77 = COLOUR_RGB ( '',0.7921568627450980005, 0.8196078431372548767, 0.9333333333333333481 ) ;
#78 = CARTESIAN_POINT ( 'NONE',  ( 0.0000000000000000000, 0.0000000000000000000, 0.0000000000000000000 ) ) ;
#79 = VERTEX_POINT ( 'NONE', #125 ) ;
#80 = CARTESIAN_POINT ( 'NONE',  ( 0.0000000000000000000, 0.0000000000000000000, 2.244094000000000033 ) ) ;
#81 = VERTEX_POINT ( 'NONE', #303 ) ;
#82 = CIRCLE ( 'NONE', #326, 0.1181100000000000066 ) ;
#83 = ORIENTED_EDGE ( 'NONE', *, *, #31, .T. ) ;
#84 = CIRCLE ( 'NONE', #189, 0.01968303149999999294 ) ;
#85 = VECTOR ( 'NONE', #8, 39.37007874015748854 ) ;
#86 = FACE_OUTER_BOUND ( 'NONE', #106, .T. ) ;
#87 = ORIENTED_EDGE ( 'NONE', *, *, #64, .F. ) ;
#88 = EDGE_CURVE ( 'NONE', #79, #81, #178, .T. ) ;
#89 = CARTESIAN_POINT ( 'NONE',  ( 0.0000000000000000000, 0.0000000000000000000, 0.05118099999999999733 ) ) ;
#90 = ORIENTED_EDGE ( 'NONE', *, *, #241, .T. ) ;
#91 = CARTESIAN_POINT ( 'NONE',  ( 0.0000000000000000000, 0.0000000000000000000, 0.0000000000000000000 ) ) ;
#92 = CONICAL_SURFACE ( 'NONE', #313, 0.1031100000000002570, 0.7853981633974318477 ) ;
#93 = PLANE ( 'NONE',  #127 ) ;
#94 = LINE ( 'NONE', #263, #315 ) ;
#95 = DIRECTION ( 'NONE',  ( -1.000000000000000000, 0.0000000000000000000, 0.0000000000000000000 ) ) ;
#96 = VERTEX_POINT ( 'NONE', #17 ) ;
#97 = CARTESIAN_POINT ( 'NONE',  ( 0.0000000000000000000, 0.0000000000000000000, 0.05118099999999999733 ) ) ;
#98 = EDGE_CURVE ( 'NONE', #79, #109, #61, .T. ) ;
#99 = VERTEX_POINT ( 'NONE', #245 ) ;
#100 = AXIS2_PLACEMENT_3D ( 'NONE', #331, #271, #40 ) ;
#101 = AXIS2_PLACEMENT_3D ( 'NONE', #249, #12, #358 ) ;
#102 = DIRECTION ( 'NONE',  ( -0.0000000000000000000, -0.0000000000000000000, -1.000000000000000000 ) ) ;
#103 = DIRECTION ( 'NONE',  ( 0.0000000000000000000, 0.0000000000000000000, -1.000000000000000000 ) ) ;
#104 = ADVANCED_FACE ( 'NONE', ( #369 ), #37, .T. ) ;
#105 = FILL_AREA_STYLE_COLOUR ( '', #275 ) ;
#106 = EDGE_LOOP ( 'NONE', ( #83, #145, #296, #201 ) ) ;
#107 = DIRECTION ( 'NONE',  ( 1.000000000000000000, 0.0000000000000000000, 0.0000000000000000000 ) ) ;
#108 = ORIENTED_EDGE ( 'NONE', *, *, #272, .T. ) ;
#109 = VERTEX_POINT ( 'NONE', #224 ) ;
#110 = FILL_AREA_STYLE_COLOUR ( '', #77 ) ;
#111 = SURFACE_STYLE_USAGE ( .BOTH. , #162 ) ;
#112 = PRODUCT_DEFINITION_FORMATION_WITH_SPECIFIED_SOURCE ( 'ANY', '', #156, .NOT_KNOWN. ) ;
#113 = MANIFOLD_SOLID_BREP ( 'Cut-Revolve1', #215 ) ;
#114 = VERTEX_POINT ( 'NONE', #226 ) ;
#115 = ORIENTED_EDGE ( 'NONE', *, *, #181, .F. ) ;
#116 = CIRCLE ( 'NONE', #124, 0.01870100000000000581 ) ;
#117 = EDGE_LOOP ( 'NONE', ( #87, #108, #172, #144 ) ) ;
#118 = EDGE_CURVE ( 'NONE', #242, #99, #131, .T. ) ;
#119 = DIRECTION ( 'NONE',  ( 1.000000000000000000, 0.0000000000000000000, 0.0000000000000000000 ) ) ;
#120 = EDGE_CURVE ( 'NONE', #24, #79, #220, .T. ) ;
#121 = DIRECTION ( 'NONE',  ( -0.0000000000000000000, -0.0000000000000000000, -1.000000000000000000 ) ) ;
#122 = ORIENTED_EDGE ( 'NONE', *, *, #300, .F. ) ;
#123 = FACE_BOUND ( 'NONE', #359, .T. ) ;
#124 = AXIS2_PLACEMENT_3D ( 'NONE', #367, #158, #360 ) ;
#125 = CARTESIAN_POINT ( 'NONE',  ( -0.01968303149999999294, 0.0000000000000000000, 0.05118099999999999733 ) ) ;
#126 = CARTESIAN_POINT ( 'NONE',  ( 0.0000000000000000000, 0.0000000000000000000, 0.1299209999999999809 ) ) ;
#127 = AXIS2_PLACEMENT_3D ( 'NONE', #62, #304, #68 ) ;
#128 = CARTESIAN_POINT ( 'NONE',  ( 0.01870100000000000928, 2.290211979085466103E-18, 0.0000000000000000000 ) ) ;
#129 = AXIS2_PLACEMENT_3D ( 'NONE', #80, #277, #21 ) ;
#130 = DIRECTION ( 'NONE',  ( -1.000000000000000000, 0.0000000000000000000, 0.0000000000000000000 ) ) ;
#131 = LINE ( 'NONE', #188, #197 ) ;
#132 = DIRECTION ( 'NONE',  ( -0.0000000000000000000, -0.0000000000000000000, -1.000000000000000000 ) ) ;
#133 = ADVANCED_FACE ( 'NONE', ( #273 ), #23, .T. ) ;
#134 = CARTESIAN_POINT ( 'NONE',  ( 0.0000000000000000000, 0.0000000000000000000, 2.229093999999999465 ) ) ;
#135 =( NAMED_UNIT ( * ) PLANE_ANGLE_UNIT ( ) SI_UNIT ( $, .RADIAN. ) );
#136 = EDGE_LOOP ( 'NONE', ( #286, #192, #270, #328 ) ) ;
#137 = CARTESIAN_POINT ( 'NONE',  ( 0.0000000000000000000, 0.0000000000000000000, 0.0000000000000000000 ) ) ;
#138 = ORIENTED_EDGE ( 'NONE', *, *, #272, .F. ) ;
#139 = CYLINDRICAL_SURFACE ( 'NONE', #255, 0.01870100000000000928 ) ;
#140 = UNCERTAINTY_MEASURE_WITH_UNIT (LENGTH_MEASURE( 1.000000000000000082E-05 ), #223, 'distance_accuracy_value', 'NONE');
#141 = CIRCLE ( 'NONE', #177, 0.1031100000000002570 ) ;
#142 = CIRCLE ( 'NONE', #190, 0.01870100000000001275 ) ;
#143 = ORIENTED_EDGE ( 'NONE', *, *, #174, .F. ) ;
#144 = ORIENTED_EDGE ( 'NONE', *, *, #312, .F. ) ;
#145 = ORIENTED_EDGE ( 'NONE', *, *, #64, .T. ) ;
#146 = CARTESIAN_POINT ( 'NONE',  ( 0.0000000000000000000, 0.0000000000000000000, 0.1299210000000000087 ) ) ;
#147 = DIRECTION ( 'NONE',  ( -1.000000000000000000, 0.0000000000000000000, 0.0000000000000000000 ) ) ;
#148 = CARTESIAN_POINT ( 'NONE',  ( 0.01870100000000001275, 2.290211979085466873E-18, 0.1299210000000000087 ) ) ;
#149 = LINE ( 'NONE', #333, #166 ) ;
#150 = AXIS2_PLACEMENT_3D ( 'NONE', #332, #266, #47 ) ;
#151 = DIRECTION ( 'NONE',  ( -0.0000000000000000000, -0.0000000000000000000, -1.000000000000000000 ) ) ;
#152 = LINE ( 'NONE', #175, #364 ) ;
#153 = DIRECTION ( 'NONE',  ( -0.0000000000000000000, -0.0000000000000000000, -1.000000000000000000 ) ) ;
#154 = EDGE_CURVE ( 'NONE', #260, #96, #253, .T. ) ;
#155 = DIRECTION ( 'NONE',  ( -0.0000000000000000000, -0.0000000000000000000, -1.000000000000000000 ) ) ;
#156 = PRODUCT ( 'Micro_SFBM-010-3X', 'Micro_SFBM-010-3X', '', ( #198 ) ) ;
#157 = CARTESIAN_POINT ( 'NONE',  ( -0.01968303149999999294, 0.0000000000000000000, 0.05118099999999999733 ) ) ;
#158 = DIRECTION ( 'NONE',  ( -0.0000000000000000000, -0.0000000000000000000, -1.000000000000000000 ) ) ;
#159 = DIRECTION ( 'NONE',  ( -0.0000000000000000000, -0.0000000000000000000, -1.000000000000000000 ) ) ;
#160 = EDGE_LOOP ( 'NONE', ( #90, #10 ) ) ;
#161 = DIRECTION ( 'NONE',  ( -1.000000000000000000, 0.0000000000000000000, 0.0000000000000000000 ) ) ;
#162 = SURFACE_SIDE_STYLE ('',( #5 ) ) ;
#163 = EDGE_LOOP ( 'NONE', ( #36, #353, #252, #348 ) ) ;
#164 = EDGE_CURVE ( 'NONE', #114, #24, #316, .T. ) ;
#165 = CARTESIAN_POINT ( 'NONE',  ( -0.01870100000000000928, 0.0000000000000000000, 0.0000000000000000000 ) ) ;
#166 = VECTOR ( 'NONE', #269, 39.37007874015748854 ) ;
#167 = STYLED_ITEM ( 'NONE', ( #2 ), #49 ) ;
#168 = ADVANCED_FACE ( 'NONE', ( #345 ), #92, .T. ) ;
#169 = CARTESIAN_POINT ( 'NONE',  ( 0.0000000000000000000, 0.0000000000000000000, 0.0000000000000000000 ) ) ;
#170 = ORIENTED_EDGE ( 'NONE', *, *, #55, .F. ) ;
#171 = DIRECTION ( 'NONE',  ( -0.0000000000000000000, -0.0000000000000000000, -1.000000000000000000 ) ) ;
#172 = ORIENTED_EDGE ( 'NONE', *, *, #120, .T. ) ;
#173 = DIRECTION ( 'NONE',  ( -0.0000000000000000000, 0.0000000000000000000, -1.000000000000000000 ) ) ;
#174 = EDGE_CURVE ( 'NONE', #3, #81, #84, .T. ) ;
#175 = CARTESIAN_POINT ( 'NONE',  ( 0.01968303149999999294, 2.410476152399151743E-18, 0.05118099999999999733 ) ) ;
#176 = LENGTH_MEASURE_WITH_UNIT ( LENGTH_MEASURE( 0.02539999999999999897 ), #329 );
#177 = AXIS2_PLACEMENT_3D ( 'NONE', #368, #299, #119 ) ;
#178 = LINE ( 'NONE', #182, #69 ) ;
#179 = CYLINDRICAL_SURFACE ( 'NONE', #225, 0.01968303149999999294 ) ;
#180 = ORIENTED_EDGE ( 'NONE', *, *, #88, .F. ) ;
#181 = EDGE_CURVE ( 'NONE', #242, #27, #244, .T. ) ;
#182 = CARTESIAN_POINT ( 'NONE',  ( -0.01968303149999999294, 0.0000000000000000000, 0.0000000000000000000 ) ) ;
#183 = AXIS2_PLACEMENT_3D ( 'NONE', #91, #121, #240 ) ;
#184 = ORIENTED_EDGE ( 'NONE', *, *, #330, .T. ) ;
#185 = DIRECTION ( 'NONE',  ( -0.0000000000000000000, -0.0000000000000000000, -1.000000000000000000 ) ) ;
#186 = ADVANCED_FACE ( 'NONE', ( #342 ), #52, .T. ) ;
#187 = DIRECTION ( 'NONE',  ( -0.0000000000000000000, -0.0000000000000000000, -1.000000000000000000 ) ) ;
#188 = CARTESIAN_POINT ( 'NONE',  ( 0.1181100000000000066, 1.446430334472939084E-17, 2.244094000000000033 ) ) ;
#189 = AXIS2_PLACEMENT_3D ( 'NONE', #309, #281, #29 ) ;
#190 = AXIS2_PLACEMENT_3D ( 'NONE', #146, #63, #147 ) ;
#191 = DIRECTION ( 'NONE',  ( 0.0000000000000000000, 0.0000000000000000000, -1.000000000000000000 ) ) ;
#192 = ORIENTED_EDGE ( 'NONE', *, *, #181, .T. ) ;
#193 = DIRECTION ( 'NONE',  ( 0.0000000000000000000, 0.0000000000000000000, -1.000000000000000000 ) ) ;
#194 = ORIENTED_EDGE ( 'NONE', *, *, #241, .F. ) ;
#195 = ADVANCED_FACE ( 'NONE', ( #26 ), #139, .T. ) ;
#196 = FACE_OUTER_BOUND ( 'NONE', #355, .T. ) ;
#197 = VECTOR ( 'NONE', #102, 39.37007874015748143 ) ;
#198 = PRODUCT_CONTEXT ( 'NONE', #346, 'mechanical' ) ;
#199 = ORIENTED_EDGE ( 'NONE', *, *, #154, .F. ) ;
#200 = EDGE_CURVE ( 'NONE', #283, #16, #44, .T. ) ;
#201 = ORIENTED_EDGE ( 'NONE', *, *, #120, .F. ) ;
#202 = ADVANCED_FACE ( 'NONE', ( #196 ), #34, .T. ) ;
#203 = PLANE ( 'NONE',  #33 ) ;
#204 = ORIENTED_EDGE ( 'NONE', *, *, #211, .F. ) ;
#205 = DIRECTION ( 'NONE',  ( 1.000000000000000000, 0.0000000000000000000, 0.0000000000000000000 ) ) ;
#206 = DIMENSIONAL_EXPONENTS ( 1.000000000000000000, 0.0000000000000000000, 0.0000000000000000000, 0.0000000000000000000, 0.0000000000000000000, 0.0000000000000000000, 0.0000000000000000000 ) ;
#207 = PLANE ( 'NONE',  #32 ) ;
#208 = DIRECTION ( 'NONE',  ( -1.000000000000000000, 0.0000000000000000000, 0.0000000000000000000 ) ) ;
#209 = AXIS2_PLACEMENT_3D ( 'NONE', #374, #185, #320 ) ;
#210 = PRODUCT_DEFINITION_SHAPE ( 'NONE', 'NONE',  #67 ) ;
#211 = EDGE_CURVE ( 'NONE', #260, #242, #323, .T. ) ;
#212 = FACE_OUTER_BOUND ( 'NONE', #136, .T. ) ;
#213 = DIRECTION ( 'NONE',  ( -1.000000000000000000, 0.0000000000000000000, 0.0000000000000000000 ) ) ;
#214 = DIRECTION ( 'NONE',  ( -1.000000000000000000, 0.0000000000000000000, 0.0000000000000000000 ) ) ;
#215 = CLOSED_SHELL ( 'NONE', ( #280, #202, #307, #219, #133, #357, #25, #168, #322, #104, #195, #186, #76 ) ) ;
#216 = DIRECTION ( 'NONE',  ( -0.0000000000000000000, -0.0000000000000000000, -1.000000000000000000 ) ) ;
#217 =( GEOMETRIC_REPRESENTATION_CONTEXT ( 3 ) GLOBAL_UNCERTAINTY_ASSIGNED_CONTEXT ( ( #234 ) ) GLOBAL_UNIT_ASSIGNED_CONTEXT ( ( #378, #135, #258 ) ) REPRESENTATION_CONTEXT ( 'NONE', 'WORKASPACE' ) );
#218 = ORIENTED_EDGE ( 'NONE', *, *, #71, .T. ) ;
#219 = ADVANCED_FACE ( 'NONE', ( #290 ), #259, .T. ) ;
#220 = LINE ( 'NONE', #157, #246 ) ;
#221 = FACE_OUTER_BOUND ( 'NONE', #297, .T. ) ;
#222 = FILL_AREA_STYLE ('',( #105 ) ) ;
#223 =( CONVERSION_BASED_UNIT ( 'INCH', #176 ) LENGTH_UNIT ( ) NAMED_UNIT ( #206 ) );
#224 = CARTESIAN_POINT ( 'NONE',  ( 0.01968303149999999294, 2.410476152399151743E-18, 0.05118099999999999733 ) ) ;
#225 = AXIS2_PLACEMENT_3D ( 'NONE', #338, #187, #373 ) ;
#226 = CARTESIAN_POINT ( 'NONE',  ( -0.01870100000000001275, 0.0000000000000000000, 0.1299210000000000087 ) ) ;
#227 = ORIENTED_EDGE ( 'NONE', *, *, #330, .F. ) ;
#228 = DIRECTION ( 'NONE',  ( -1.000000000000000000, 0.0000000000000000000, 0.0000000000000000000 ) ) ;
#229 =( NAMED_UNIT ( * ) SI_UNIT ( $, .STERADIAN. ) SOLID_ANGLE_UNIT ( ) );
#230 = APPLICATION_PROTOCOL_DEFINITION ( 'draft international standard', 'automotive_design', 1998, #346 ) ;
#231 = STYLED_ITEM ( 'NONE', ( #311 ), #113 ) ;
#232 = MECHANICAL_DESIGN_GEOMETRIC_PRESENTATION_REPRESENTATION (  '', ( #167 ), #217 ) ;
#233 = ORIENTED_EDGE ( 'NONE', *, *, #265, .T. ) ;
#234 = UNCERTAINTY_MEASURE_WITH_UNIT (LENGTH_MEASURE( 1.000000000000000082E-05 ), #378, 'distance_accuracy_value', 'NONE');
#235 = ORIENTED_EDGE ( 'NONE', *, *, #236, .F. ) ;
#236 = EDGE_CURVE ( 'NONE', #27, #242, #356, .T. ) ;
#237 = AXIS2_PLACEMENT_3D ( 'NONE', #4, #351, #213 ) ;
#238 = ORIENTED_EDGE ( 'NONE', *, *, #377, .F. ) ;
#239 = CARTESIAN_POINT ( 'NONE',  ( 0.0000000000000000000, 0.0000000000000000000, 0.0000000000000000000 ) ) ;
#240 = DIRECTION ( 'NONE',  ( -1.000000000000000000, 0.0000000000000000000, 0.0000000000000000000 ) ) ;
#241 = EDGE_CURVE ( 'NONE', #81, #3, #288, .T. ) ;
#242 = VERTEX_POINT ( 'NONE', #302 ) ;
#243 = DIRECTION ( 'NONE',  ( -1.000000000000000000, 0.0000000000000000000, 0.0000000000000000000 ) ) ;
#244 = CIRCLE ( 'NONE', #366, 0.1181100000000000066 ) ;
#245 = CARTESIAN_POINT ( 'NONE',  ( 0.1181100000000000066, 1.446430334472939084E-17, 0.1299209999999999809 ) ) ;
#246 = VECTOR ( 'NONE', #250, 39.37007874015748854 ) ;
#247 = AXIS2_PLACEMENT_3D ( 'NONE', #169, #171, #228 ) ;
#248 =( LENGTH_UNIT ( ) NAMED_UNIT ( * ) SI_UNIT ( $, .METRE. ) );
#249 = CARTESIAN_POINT ( 'NONE',  ( 0.0000000000000000000, 0.0000000000000000000, 0.1299210000000000087 ) ) ;
#250 = DIRECTION ( 'NONE',  ( -0.1736481776669308030, 0.0000000000000000000, -0.9848077530122077983 ) ) ;
#251 = DIRECTION ( 'NONE',  ( -1.000000000000000000, 0.0000000000000000000, 0.0000000000000000000 ) ) ;
#252 = ORIENTED_EDGE ( 'NONE', *, *, #265, .F. ) ;
#253 = CIRCLE ( 'NONE', #129, 0.1031100000000002570 ) ;
#254 = SURFACE_SIDE_STYLE ('',( #284 ) ) ;
#255 = AXIS2_PLACEMENT_3D ( 'NONE', #137, #19, #257 ) ;
#256 = EDGE_LOOP ( 'NONE', ( #262, #42, #370, #138 ) ) ;
#257 = DIRECTION ( 'NONE',  ( -1.000000000000000000, 0.0000000000000000000, 0.0000000000000000000 ) ) ;
#258 =( NAMED_UNIT ( * ) SI_UNIT ( $, .STERADIAN. ) SOLID_ANGLE_UNIT ( ) );
#259 = CONICAL_SURFACE ( 'NONE', #237, 0.1031100000000002570, 0.7853981633974318477 ) ;
#260 = VERTEX_POINT ( 'NONE', #41 ) ;
#261 = CARTESIAN_POINT ( 'NONE',  ( 0.1031100000000002570, 1.262733314600838667E-17, 2.244094000000000033 ) ) ;
#262 = ORIENTED_EDGE ( 'NONE', *, *, #200, .F. ) ;
#263 = CARTESIAN_POINT ( 'NONE',  ( 0.01968303149999999294, 2.410476152399151743E-18, 0.0000000000000000000 ) ) ;
#264 = CARTESIAN_POINT ( 'NONE',  ( 0.0000000000000000000, 0.0000000000000000000, 0.05675037739224183392 ) ) ;
#265 = EDGE_CURVE ( 'NONE', #321, #99, #82, .T. ) ;
#266 = DIRECTION ( 'NONE',  ( -0.0000000000000000000, -0.0000000000000000000, -1.000000000000000000 ) ) ;
#267 = CARTESIAN_POINT ( 'NONE',  ( 0.01870100000000000581, 2.350344065742308730E-18, 0.05675037739224183392 ) ) ;
#268 = DIRECTION ( 'NONE',  ( -0.0000000000000000000, -0.0000000000000000000, -1.000000000000000000 ) ) ;
#269 = DIRECTION ( 'NONE',  ( -0.7071067811865358044, 0.0000000000000000000, -0.7071067811865590080 ) ) ;
#270 = ORIENTED_EDGE ( 'NONE', *, *, #372, .T. ) ;
#271 = DIRECTION ( 'NONE',  ( -0.0000000000000000000, -0.0000000000000000000, -1.000000000000000000 ) ) ;
#272 = EDGE_CURVE ( 'NONE', #16, #24, #116, .T. ) ;
#273 = FACE_OUTER_BOUND ( 'NONE', #163, .T. ) ;
#274 = DIRECTION ( 'NONE',  ( -0.0000000000000000000, -0.0000000000000000000, -1.000000000000000000 ) ) ;
#275 = COLOUR_RGB ( '',0.7921568627450980005, 0.8196078431372548767, 0.9333333333333333481 ) ;
#276 = AXIS2_PLACEMENT_3D ( 'NONE', #343, #291, #30 ) ;
#277 = DIRECTION ( 'NONE',  ( 0.0000000000000000000, 0.0000000000000000000, 1.000000000000000000 ) ) ;
#278 = CARTESIAN_POINT ( 'NONE',  ( -0.1181100000000000066, 0.0000000000000000000, 0.1299209999999999809 ) ) ;
#279 = ORIENTED_EDGE ( 'NONE', *, *, #55, .T. ) ;
#280 = ADVANCED_FACE ( 'NONE', ( #221 ), #179, .T. ) ;
#281 = DIRECTION ( 'NONE',  ( -0.0000000000000000000, -0.0000000000000000000, -1.000000000000000000 ) ) ;
#282 = SHAPE_DEFINITION_REPRESENTATION ( #210, #49 ) ;
#283 = VERTEX_POINT ( 'NONE', #148 ) ;
#284 = SURFACE_STYLE_FILL_AREA ( #222 ) ;
#285 = LENGTH_MEASURE_WITH_UNIT ( LENGTH_MEASURE( 0.02539999999999999897 ), #349 );
#286 = ORIENTED_EDGE ( 'NONE', *, *, #118, .F. ) ;
#287 = PRODUCT_RELATED_PRODUCT_CATEGORY ( 'part', '', ( #156 ) ) ;
#288 = CIRCLE ( 'NONE', #183, 0.01968303149999999294 ) ;
#289 = ORIENTED_EDGE ( 'NONE', *, *, #154, .T. ) ;
#290 = FACE_OUTER_BOUND ( 'NONE', #66, .T. ) ;
#291 = DIRECTION ( 'NONE',  ( 0.0000000000000000000, 0.0000000000000000000, 1.000000000000000000 ) ) ;
#292 = UNCERTAINTY_MEASURE_WITH_UNIT (LENGTH_MEASURE( 1.000000000000000082E-05 ), #75, 'distance_accuracy_value', 'NONE');
#293 = DIMENSIONAL_EXPONENTS ( 1.000000000000000000, 0.0000000000000000000, 0.0000000000000000000, 0.0000000000000000000, 0.0000000000000000000, 0.0000000000000000000, 0.0000000000000000000 ) ;
#294 = APPLICATION_CONTEXT ( 'automotive_design' ) ;
#295 = VECTOR ( 'NONE', #153, 39.37007874015748143 ) ;
#296 = ORIENTED_EDGE ( 'NONE', *, *, #98, .F. ) ;
#297 = EDGE_LOOP ( 'NONE', ( #9, #184, #194, #180 ) ) ;
#298 = CARTESIAN_POINT ( 'NONE',  ( 0.0000000000000000000, 0.0000000000000000000, 2.244094000000000033 ) ) ;
#299 = DIRECTION ( 'NONE',  ( 0.0000000000000000000, 0.0000000000000000000, 1.000000000000000000 ) ) ;
#300 = EDGE_CURVE ( 'NONE', #114, #283, #142, .T. ) ;
#301 = CIRCLE ( 'NONE', #43, 0.01968303149999999294 ) ;
#302 = CARTESIAN_POINT ( 'NONE',  ( 0.1181100000000000066, 1.446430334472939084E-17, 2.229093999999999465 ) ) ;
#303 = CARTESIAN_POINT ( 'NONE',  ( -0.01968303149999999294, 0.0000000000000000000, 0.0000000000000000000 ) ) ;
#304 = DIRECTION ( 'NONE',  ( 0.0000000000000000000, 0.0000000000000000000, 1.000000000000000000 ) ) ;
#305 = CARTESIAN_POINT ( 'NONE',  ( 0.01968303149999999294, 2.410476152399151743E-18, 0.0000000000000000000 ) ) ;
#306 = AXIS2_PLACEMENT_3D ( 'NONE', #78, #318, #161 ) ;
#307 = ADVANCED_FACE ( 'NONE', ( #86 ), #365, .T. ) ;
#308 = DIRECTION ( 'NONE',  ( 0.1736481776669308030, 2.126576849575777153E-17, -0.9848077530122077983 ) ) ;
#309 = CARTESIAN_POINT ( 'NONE',  ( 0.0000000000000000000, 0.0000000000000000000, 0.0000000000000000000 ) ) ;
#310 = DIRECTION ( 'NONE',  ( -0.0000000000000000000, -0.0000000000000000000, -1.000000000000000000 ) ) ;
#311 = PRESENTATION_STYLE_ASSIGNMENT (( #376 ) ) ;
#312 = EDGE_CURVE ( 'NONE', #109, #79, #301, .T. ) ;
#313 = AXIS2_PLACEMENT_3D ( 'NONE', #50, #193, #251 ) ;
#314 = AXIS2_PLACEMENT_3D ( 'NONE', #97, #216, #335 ) ;
#315 = VECTOR ( 'NONE', #132, 39.37007874015748143 ) ;
#316 = LINE ( 'NONE', #165, #48 ) ;
#317 = APPLICATION_PROTOCOL_DEFINITION ( 'draft international standard', 'automotive_design', 1998, #294 ) ;
#318 = DIRECTION ( 'NONE',  ( -0.0000000000000000000, -0.0000000000000000000, -1.000000000000000000 ) ) ;
#319 = EDGE_LOOP ( 'NONE', ( #218, #289 ) ) ;
#320 = DIRECTION ( 'NONE',  ( -1.000000000000000000, 0.0000000000000000000, 0.0000000000000000000 ) ) ;
#321 = VERTEX_POINT ( 'NONE', #278 ) ;
#322 = ADVANCED_FACE ( 'NONE', ( #123, #362 ), #203, .T. ) ;
#323 = LINE ( 'NONE', #261, #85 ) ;
#324 = DIMENSIONAL_EXPONENTS ( 1.000000000000000000, 0.0000000000000000000, 0.0000000000000000000, 0.0000000000000000000, 0.0000000000000000000, 0.0000000000000000000, 0.0000000000000000000 ) ;
#325 = ORIENTED_EDGE ( 'NONE', *, *, #312, .T. ) ;
#326 = AXIS2_PLACEMENT_3D ( 'NONE', #74, #310, #39 ) ;
#327 = EDGE_LOOP ( 'NONE', ( #227, #325, #344, #143 ) ) ;
#328 = ORIENTED_EDGE ( 'NONE', *, *, #56, .F. ) ;
#329 =( LENGTH_UNIT ( ) NAMED_UNIT ( * ) SI_UNIT ( $, .METRE. ) );
#330 = EDGE_CURVE ( 'NONE', #109, #3, #94, .T. ) ;
#331 = CARTESIAN_POINT ( 'NONE',  ( 0.0000000000000000000, 0.0000000000000000000, 0.05118099999999999733 ) ) ;
#332 = CARTESIAN_POINT ( 'NONE',  ( 0.0000000000000000000, 0.0000000000000000000, 0.05118099999999999733 ) ) ;
#333 = CARTESIAN_POINT ( 'NONE',  ( -0.1031100000000002570, 0.0000000000000000000, 2.244094000000000033 ) ) ;
#334 = CARTESIAN_POINT ( 'NONE',  ( -0.01870100000000000581, 0.0000000000000000000, 0.05675037739224183392 ) ) ;
#335 = DIRECTION ( 'NONE',  ( -1.000000000000000000, 0.0000000000000000000, 0.0000000000000000000 ) ) ;
#336 = CIRCLE ( 'NONE', #101, 0.01870100000000001275 ) ;
#337 = CYLINDRICAL_SURFACE ( 'NONE', #341, 0.1181100000000000066 ) ;
#338 = CARTESIAN_POINT ( 'NONE',  ( 0.0000000000000000000, 0.0000000000000000000, 0.0000000000000000000 ) ) ;
#339 =( NAMED_UNIT ( * ) PLANE_ANGLE_UNIT ( ) SI_UNIT ( $, .RADIAN. ) );
#340 = MECHANICAL_DESIGN_GEOMETRIC_PRESENTATION_REPRESENTATION (  '', ( #231 ), #371 ) ;
#341 = AXIS2_PLACEMENT_3D ( 'NONE', #298, #274, #130 ) ;
#342 = FACE_OUTER_BOUND ( 'NONE', #327, .T. ) ;
#343 = CARTESIAN_POINT ( 'NONE',  ( 0.0000000000000000000, 0.0000000000000000000, 0.0000000000000000000 ) ) ;
#344 = ORIENTED_EDGE ( 'NONE', *, *, #88, .T. ) ;
#345 = FACE_OUTER_BOUND ( 'NONE', #59, .T. ) ;
#346 = APPLICATION_CONTEXT ( 'automotive_design' ) ;
#347 = FILL_AREA_STYLE ('',( #110 ) ) ;
#348 = ORIENTED_EDGE ( 'NONE', *, *, #372, .F. ) ;
#349 =( LENGTH_UNIT ( ) NAMED_UNIT ( * ) SI_UNIT ( $, .METRE. ) );
#350 = CIRCLE ( 'NONE', #15, 0.01870100000000000581 ) ;
#351 = DIRECTION ( 'NONE',  ( 0.0000000000000000000, 0.0000000000000000000, -1.000000000000000000 ) ) ;
#352 =( NAMED_UNIT ( * ) PLANE_ANGLE_UNIT ( ) SI_UNIT ( $, .RADIAN. ) );
#353 = ORIENTED_EDGE ( 'NONE', *, *, #118, .T. ) ;
#354 = PRESENTATION_LAYER_ASSIGNMENT (  '', '', ( #231 ) ) ;
#355 = EDGE_LOOP ( 'NONE', ( #7, #35, #361, #53 ) ) ;
#356 = CIRCLE ( 'NONE', #70, 0.1181100000000000066 ) ;
#357 = ADVANCED_FACE ( 'NONE', ( #212 ), #337, .T. ) ;
#358 = DIRECTION ( 'NONE',  ( -1.000000000000000000, 0.0000000000000000000, 0.0000000000000000000 ) ) ;
#359 = EDGE_LOOP ( 'NONE', ( #122, #238 ) ) ;
#360 = DIRECTION ( 'NONE',  ( -1.000000000000000000, 0.0000000000000000000, 0.0000000000000000000 ) ) ;
#361 = ORIENTED_EDGE ( 'NONE', *, *, #31, .F. ) ;
#362 = FACE_OUTER_BOUND ( 'NONE', #375, .T. ) ;
#363 = DIRECTION ( 'NONE',  ( -0.0000000000000000000, -0.0000000000000000000, -1.000000000000000000 ) ) ;
#364 = VECTOR ( 'NONE', #308, 39.37007874015748854 ) ;
#365 = CONICAL_SURFACE ( 'NONE', #150, 0.01968303149999999294, 0.1745329251994334474 ) ;
#366 = AXIS2_PLACEMENT_3D ( 'NONE', #134, #191, #107 ) ;
#367 = CARTESIAN_POINT ( 'NONE',  ( 0.0000000000000000000, 0.0000000000000000000, 0.05675037739224183392 ) ) ;
#368 = CARTESIAN_POINT ( 'NONE',  ( 0.0000000000000000000, 0.0000000000000000000, 2.244094000000000033 ) ) ;
#369 = FACE_OUTER_BOUND ( 'NONE', #117, .T. ) ;
#370 = ORIENTED_EDGE ( 'NONE', *, *, #164, .T. ) ;
#371 =( GEOMETRIC_REPRESENTATION_CONTEXT ( 3 ) GLOBAL_UNCERTAINTY_ASSIGNED_CONTEXT ( ( #292 ) ) GLOBAL_UNIT_ASSIGNED_CONTEXT ( ( #75, #339, #46 ) ) REPRESENTATION_CONTEXT ( 'NONE', 'WORKASPACE' ) );
#372 = EDGE_CURVE ( 'NONE', #27, #321, #72, .T. ) ;
#373 = DIRECTION ( 'NONE',  ( -1.000000000000000000, 0.0000000000000000000, 0.0000000000000000000 ) ) ;
#374 = CARTESIAN_POINT ( 'NONE',  ( 0.0000000000000000000, 0.0000000000000000000, 2.244094000000000033 ) ) ;
#375 = EDGE_LOOP ( 'NONE', ( #233, #51 ) ) ;
#376 = SURFACE_STYLE_USAGE ( .BOTH. , #254 ) ;
#377 = EDGE_CURVE ( 'NONE', #283, #114, #336, .T. ) ;
#378 =( CONVERSION_BASED_UNIT ( 'INCH', #285 ) LENGTH_UNIT ( ) NAMED_UNIT ( #293 ) );
#379 = ORIENTED_EDGE ( 'NONE', *, *, #211, .T. ) ;
ENDSEC;
END-ISO-10303-21;
