ISO-10303-21;
HEADER;
FILE_DESCRIPTION (( 'STEP AP214' ),
    '1' );
FILE_NAME ('Micro_RTC-250-245.STEP',
    '2021-09-03T18:12:31',
    ( '' ),
    ( '' ),
    'SwSTEP 2.0',
    'SolidWorks 2020',
    '' );
FILE_SCHEMA (( 'AUTOMOTIVE_DESIGN' ));
ENDSEC;

DATA;
#1 = CIRCLE ( 'NONE', #141, 0.1250000000000000000 ) ;
#2 = ADVANCED_FACE ( 'NONE', ( #47 ), #43, .T. ) ;
#3 = DIRECTION ( 'NONE',  ( -1.000000000000000000, 0.0000000000000000000, 0.0000000000000000000 ) ) ;
#4 = CARTESIAN_POINT ( 'NONE',  ( 0.0000000000000000000, 0.0000000000000000000, 2.500000000000000000 ) ) ;
#5 = CARTESIAN_POINT ( 'NONE',  ( 0.0000000000000000000, 0.0000000000000000000, 2.500000000000000000 ) ) ;
#6 = LINE ( 'NONE', #237, #100 ) ;
#7 = ORIENTED_EDGE ( 'NONE', *, *, #82, .T. ) ;
#8 = ORIENTED_EDGE ( 'NONE', *, *, #26, .T. ) ;
#9 = CARTESIAN_POINT ( 'NONE',  ( 0.0000000000000000000, 0.0000000000000000000, 0.0000000000000000000 ) ) ;
#10 = MECHANICAL_DESIGN_GEOMETRIC_PRESENTATION_REPRESENTATION (  '', ( #16 ), #210 ) ;
#11 = PRESENTATION_LAYER_ASSIGNMENT (  '', '', ( #87 ) ) ;
#12 = CARTESIAN_POINT ( 'NONE',  ( 0.02199999999999999872, 0.0000000000000000000, 2.500000000000000000 ) ) ;
#13 = DIRECTION ( 'NONE',  ( -0.0000000000000000000, -0.0000000000000000000, -1.000000000000000000 ) ) ;
#14 = ADVANCED_FACE ( 'NONE', ( #216 ), #227, .T. ) ;
#15 = ORIENTED_EDGE ( 'NONE', *, *, #240, .F. ) ;
#16 = STYLED_ITEM ( 'NONE', ( #24 ), #205 ) ;
#17 = CYLINDRICAL_SURFACE ( 'NONE', #202, 0.1250000000000000000 ) ;
#18 =( NAMED_UNIT ( * ) SI_UNIT ( $, .STERADIAN. ) SOLID_ANGLE_UNIT ( ) );
#19 = CIRCLE ( 'NONE', #163, 0.02199999999999999872 ) ;
#20 = AXIS2_PLACEMENT_3D ( 'NONE', #114, #173, #186 ) ;
#21 = DIRECTION ( 'NONE',  ( -1.000000000000000000, 0.0000000000000000000, 0.0000000000000000000 ) ) ;
#22 = APPLICATION_PROTOCOL_DEFINITION ( 'draft international standard', 'automotive_design', 1998, #238 ) ;
#23 = EDGE_LOOP ( 'NONE', ( #96, #90, #129, #226 ) ) ;
#24 = PRESENTATION_STYLE_ASSIGNMENT (( #124 ) ) ;
#25 = CARTESIAN_POINT ( 'NONE',  ( 0.0000000000000000000, 0.0000000000000000000, 2.500000000000000000 ) ) ;
#26 = EDGE_CURVE ( 'NONE', #246, #221, #107, .T. ) ;
#27 = ORIENTED_EDGE ( 'NONE', *, *, #70, .T. ) ;
#28 = AXIS2_PLACEMENT_3D ( 'NONE', #192, #117, #3 ) ;
#29 = ORIENTED_EDGE ( 'NONE', *, *, #75, .F. ) ;
#30 = ADVANCED_FACE ( 'NONE', ( #64 ), #17, .T. ) ;
#31 = ORIENTED_EDGE ( 'NONE', *, *, #183, .T. ) ;
#32 =( LENGTH_UNIT ( ) NAMED_UNIT ( * ) SI_UNIT ( $, .METRE. ) );
#33 = EDGE_LOOP ( 'NONE', ( #15, #74 ) ) ;
#34 = AXIS2_PLACEMENT_3D ( 'NONE', #134, #13, #63 ) ;
#35 =( CONVERSION_BASED_UNIT ( 'INCH', #208 ) LENGTH_UNIT ( ) NAMED_UNIT ( #200 ) );
#36 = CARTESIAN_POINT ( 'NONE',  ( -0.1250000000000000000, 0.0000000000000000000, 2.500000000000000000 ) ) ;
#37 = AXIS2_PLACEMENT_3D ( 'NONE', #127, #94, #61 ) ;
#38 = DIRECTION ( 'NONE',  ( 0.0000000000000000000, 0.0000000000000000000, -1.000000000000000000 ) ) ;
#39 = DIRECTION ( 'NONE',  ( 0.0000000000000000000, 0.0000000000000000000, -1.000000000000000000 ) ) ;
#40 = DIRECTION ( 'NONE',  ( -0.0000000000000000000, -0.0000000000000000000, -1.000000000000000000 ) ) ;
#41 = DIRECTION ( 'NONE',  ( 0.0000000000000000000, 0.0000000000000000000, -1.000000000000000000 ) ) ;
#42 = DIRECTION ( 'NONE',  ( -1.000000000000000000, 0.0000000000000000000, 0.0000000000000000000 ) ) ;
#43 = CYLINDRICAL_SURFACE ( 'NONE', #214, 0.1250000000000000000 ) ;
#44 = COLOUR_RGB ( '',0.7921568627450980005, 0.8196078431372548767, 0.9333333333333333481 ) ;
#45 = DIRECTION ( 'NONE',  ( -0.2588190451025216832, 3.169619151431776035E-17, 0.9659258262890679791 ) ) ;
#46 = SHAPE_DEFINITION_REPRESENTATION ( #77, #111 ) ;
#47 = FACE_OUTER_BOUND ( 'NONE', #196, .T. ) ;
#48 = CARTESIAN_POINT ( 'NONE',  ( 0.1250000000000000000, 1.530808498934191509E-17, 0.3844012331795928494 ) ) ;
#49 = ORIENTED_EDGE ( 'NONE', *, *, #128, .T. ) ;
#50 =( GEOMETRIC_REPRESENTATION_CONTEXT ( 3 ) GLOBAL_UNCERTAINTY_ASSIGNED_CONTEXT ( ( #122 ) ) GLOBAL_UNIT_ASSIGNED_CONTEXT ( ( #144, #83, #18 ) ) REPRESENTATION_CONTEXT ( 'NONE', 'WORKASPACE' ) );
#51 = DIRECTION ( 'NONE',  ( -1.000000000000000000, 0.0000000000000000000, 0.0000000000000000000 ) ) ;
#52 = ORIENTED_EDGE ( 'NONE', *, *, #82, .F. ) ;
#53 = DIRECTION ( 'NONE',  ( 0.0000000000000000000, 0.0000000000000000000, 1.000000000000000000 ) ) ;
#54 = AXIS2_PLACEMENT_3D ( 'NONE', #9, #53, #244 ) ;
#55 = PRESENTATION_LAYER_ASSIGNMENT (  '', '', ( #16 ) ) ;
#56 = PRODUCT_RELATED_PRODUCT_CATEGORY ( 'part', '', ( #154 ) ) ;
#57 =( NAMED_UNIT ( * ) PLANE_ANGLE_UNIT ( ) SI_UNIT ( $, .RADIAN. ) );
#58 = DIMENSIONAL_EXPONENTS ( 1.000000000000000000, 0.0000000000000000000, 0.0000000000000000000, 0.0000000000000000000, 0.0000000000000000000, 0.0000000000000000000, 0.0000000000000000000 ) ;
#59 = ADVANCED_FACE ( 'NONE', ( #119 ), #193, .T. ) ;
#60 = VECTOR ( 'NONE', #118, 39.37007874015748143 ) ;
#61 = DIRECTION ( 'NONE',  ( -1.000000000000000000, 0.0000000000000000000, 0.0000000000000000000 ) ) ;
#62 = CARTESIAN_POINT ( 'NONE',  ( 0.02199999999999999872, 0.0000000000000000000, 0.0000000000000000000 ) ) ;
#63 = DIRECTION ( 'NONE',  ( -1.000000000000000000, 0.0000000000000000000, 0.0000000000000000000 ) ) ;
#64 = FACE_OUTER_BOUND ( 'NONE', #69, .T. ) ;
#65 = FACE_OUTER_BOUND ( 'NONE', #164, .T. ) ;
#66 = CARTESIAN_POINT ( 'NONE',  ( -0.02199999999999999872, -2.694222958124176868E-18, 2.500000000000000000 ) ) ;
#67 = FILL_AREA_STYLE ('',( #234 ) ) ;
#68 = EDGE_CURVE ( 'NONE', #242, #181, #236, .T. ) ;
#69 = EDGE_LOOP ( 'NONE', ( #31, #105, #149, #109 ) ) ;
#70 = EDGE_CURVE ( 'NONE', #242, #221, #158, .T. ) ;
#71 = CONICAL_SURFACE ( 'NONE', #54, 0.02199999999999999872, 0.2617993877991502960 ) ;
#72 = ORIENTED_EDGE ( 'NONE', *, *, #240, .T. ) ;
#73 = UNCERTAINTY_MEASURE_WITH_UNIT (LENGTH_MEASURE( 1.000000000000000082E-05 ), #220, 'distance_accuracy_value', 'NONE');
#74 = ORIENTED_EDGE ( 'NONE', *, *, #68, .F. ) ;
#75 = EDGE_CURVE ( 'NONE', #106, #223, #143, .T. ) ;
#76 = ORIENTED_EDGE ( 'NONE', *, *, #161, .T. ) ;
#77 = PRODUCT_DEFINITION_SHAPE ( 'NONE', 'NONE',  #135 ) ;
#78 = DIMENSIONAL_EXPONENTS ( 1.000000000000000000, 0.0000000000000000000, 0.0000000000000000000, 0.0000000000000000000, 0.0000000000000000000, 0.0000000000000000000, 0.0000000000000000000 ) ;
#79 = ADVANCED_FACE ( 'NONE', ( #148 ), #71, .T. ) ;
#80 = CARTESIAN_POINT ( 'NONE',  ( -0.1250000000000000000, 0.0000000000000000000, 0.3844012331795928494 ) ) ;
#81 = CARTESIAN_POINT ( 'NONE',  ( 0.0000000000000000000, 0.0000000000000000000, 0.0000000000000000000 ) ) ;
#82 = EDGE_CURVE ( 'NONE', #184, #106, #187, .T. ) ;
#83 =( NAMED_UNIT ( * ) PLANE_ANGLE_UNIT ( ) SI_UNIT ( $, .RADIAN. ) );
#84 = DIRECTION ( 'NONE',  ( -0.0000000000000000000, -0.0000000000000000000, -1.000000000000000000 ) ) ;
#85 = LENGTH_MEASURE_WITH_UNIT ( LENGTH_MEASURE( 0.02539999999999999897 ), #120 );
#86 = DIRECTION ( 'NONE',  ( -0.0000000000000000000, -0.0000000000000000000, -1.000000000000000000 ) ) ;
#87 = STYLED_ITEM ( 'NONE', ( #207 ), #111 ) ;
#88 = DIRECTION ( 'NONE',  ( 1.000000000000000000, 0.0000000000000000000, 0.0000000000000000000 ) ) ;
#89 = EDGE_LOOP ( 'NONE', ( #49, #7 ) ) ;
#90 = ORIENTED_EDGE ( 'NONE', *, *, #128, .F. ) ;
#91 = EDGE_CURVE ( 'NONE', #223, #182, #153, .T. ) ;
#92 = CIRCLE ( 'NONE', #34, 0.1250000000000000000 ) ;
#93 =( GEOMETRIC_REPRESENTATION_CONTEXT ( 3 ) GLOBAL_UNCERTAINTY_ASSIGNED_CONTEXT ( ( #160 ) ) GLOBAL_UNIT_ASSIGNED_CONTEXT ( ( #35, #57, #243 ) ) REPRESENTATION_CONTEXT ( 'NONE', 'WORKASPACE' ) );
#94 = DIRECTION ( 'NONE',  ( -0.0000000000000000000, -0.0000000000000000000, -1.000000000000000000 ) ) ;
#95 = ADVANCED_FACE ( 'NONE', ( #172 ), #133, .F. ) ;
#96 = ORIENTED_EDGE ( 'NONE', *, *, #206, .F. ) ;
#97 = AXIS2_PLACEMENT_3D ( 'NONE', #230, #41, #190 ) ;
#98 = CARTESIAN_POINT ( 'NONE',  ( 0.0000000000000000000, 0.0000000000000000000, 0.0000000000000000000 ) ) ;
#99 = SURFACE_SIDE_STYLE ('',( #140 ) ) ;
#100 = VECTOR ( 'NONE', #86, 39.37007874015748143 ) ;
#101 = DIRECTION ( 'NONE',  ( -0.2588190451025216832, -3.169619151431776035E-17, -0.9659258262890679791 ) ) ;
#102 = APPLICATION_PROTOCOL_DEFINITION ( 'draft international standard', 'automotive_design', 1998, #112 ) ;
#103 = DIRECTION ( 'NONE',  ( 0.0000000000000000000, 0.0000000000000000000, -1.000000000000000000 ) ) ;
#104 = FILL_AREA_STYLE_COLOUR ( '', #44 ) ;
#105 = ORIENTED_EDGE ( 'NONE', *, *, #248, .T. ) ;
#106 = VERTEX_POINT ( 'NONE', #62 ) ;
#107 = CIRCLE ( 'NONE', #97, 0.1250000000000000000 ) ;
#108 = ORIENTED_EDGE ( 'NONE', *, *, #183, .F. ) ;
#109 = ORIENTED_EDGE ( 'NONE', *, *, #121, .F. ) ;
#110 = ADVANCED_FACE ( 'NONE', ( #65 ), #241, .T. ) ;
#111 = ADVANCED_BREP_SHAPE_REPRESENTATION ( 'Micro_RTC-250-245', ( #205, #171 ), #50 ) ;
#112 = APPLICATION_CONTEXT ( 'automotive_design' ) ;
#113 = ORIENTED_EDGE ( 'NONE', *, *, #26, .F. ) ;
#114 = CARTESIAN_POINT ( 'NONE',  ( 0.0000000000000000000, 0.0000000000000000000, 2.500000000000000000 ) ) ;
#115 = AXIS2_PLACEMENT_3D ( 'NONE', #162, #145, #51 ) ;
#116 = CARTESIAN_POINT ( 'NONE',  ( -0.02199999999999999872, 9.001153973733046171E-18, 0.0000000000000000000 ) ) ;
#117 = DIRECTION ( 'NONE',  ( 0.0000000000000000000, 0.0000000000000000000, -1.000000000000000000 ) ) ;
#118 = DIRECTION ( 'NONE',  ( 0.2588190451025216832, 0.0000000000000000000, -0.9659258262890679791 ) ) ;
#119 = FACE_OUTER_BOUND ( 'NONE', #123, .T. ) ;
#120 =( LENGTH_UNIT ( ) NAMED_UNIT ( * ) SI_UNIT ( $, .METRE. ) );
#121 = EDGE_CURVE ( 'NONE', #221, #182, #213, .T. ) ;
#122 = UNCERTAINTY_MEASURE_WITH_UNIT (LENGTH_MEASURE( 1.000000000000000082E-05 ), #144, 'distance_accuracy_value', 'NONE');
#123 = EDGE_LOOP ( 'NONE', ( #151, #218, #169, #108 ) ) ;
#124 = SURFACE_STYLE_USAGE ( .BOTH. , #99 ) ;
#125 = PRODUCT_DEFINITION_CONTEXT ( 'detailed design', #238, 'design' ) ;
#126 = CARTESIAN_POINT ( 'NONE',  ( 0.02199999999999999872, 0.0000000000000000000, 0.0000000000000000000 ) ) ;
#127 = CARTESIAN_POINT ( 'NONE',  ( 0.0000000000000000000, 0.0000000000000000000, 0.3844012331795928494 ) ) ;
#128 = EDGE_CURVE ( 'NONE', #106, #184, #19, .T. ) ;
#129 = ORIENTED_EDGE ( 'NONE', *, *, #75, .T. ) ;
#130 = AXIS2_PLACEMENT_3D ( 'NONE', #194, #39, #174 ) ;
#131 = ORIENTED_EDGE ( 'NONE', *, *, #206, .T. ) ;
#132 = AXIS2_PLACEMENT_3D ( 'NONE', #249, #168, #229 ) ;
#133 = PLANE ( 'NONE',  #222 ) ;
#134 = CARTESIAN_POINT ( 'NONE',  ( 0.0000000000000000000, 0.0000000000000000000, 0.3844012331795928494 ) ) ;
#135 = PRODUCT_DEFINITION ( 'UNKNOWN', '', #203, #125 ) ;
#136 = CARTESIAN_POINT ( 'NONE',  ( 0.02199999999999999872, 0.0000000000000000000, 2.500000000000000000 ) ) ;
#137 = DIRECTION ( 'NONE',  ( -0.0000000000000000000, -0.0000000000000000000, -1.000000000000000000 ) ) ;
#138 = CIRCLE ( 'NONE', #188, 0.02199999999999999872 ) ;
#139 = LENGTH_MEASURE_WITH_UNIT ( LENGTH_MEASURE( 0.02539999999999999897 ), #219 );
#140 = SURFACE_STYLE_FILL_AREA ( #142 ) ;
#141 = AXIS2_PLACEMENT_3D ( 'NONE', #157, #38, #189 ) ;
#142 = FILL_AREA_STYLE ('',( #104 ) ) ;
#143 = LINE ( 'NONE', #126, #176 ) ;
#144 =( CONVERSION_BASED_UNIT ( 'INCH', #85 ) LENGTH_UNIT ( ) NAMED_UNIT ( #78 ) );
#145 = DIRECTION ( 'NONE',  ( -0.0000000000000000000, -0.0000000000000000000, -1.000000000000000000 ) ) ;
#146 = EDGE_CURVE ( 'NONE', #181, #246, #185, .T. ) ;
#147 = VECTOR ( 'NONE', #45, 39.37007874015748143 ) ;
#148 = FACE_OUTER_BOUND ( 'NONE', #23, .T. ) ;
#149 = ORIENTED_EDGE ( 'NONE', *, *, #161, .F. ) ;
#150 = SURFACE_STYLE_USAGE ( .BOTH. , #247 ) ;
#151 = ORIENTED_EDGE ( 'NONE', *, *, #70, .F. ) ;
#152 = ORIENTED_EDGE ( 'NONE', *, *, #146, .F. ) ;
#153 = CIRCLE ( 'NONE', #37, 0.1250000000000000000 ) ;
#154 = PRODUCT ( 'Micro_RTC-250-245', 'Micro_RTC-250-245', '', ( #235 ) ) ;
#155 = FACE_OUTER_BOUND ( 'NONE', #33, .T. ) ;
#156 = EDGE_LOOP ( 'NONE', ( #72, #27, #113, #152 ) ) ;
#157 = CARTESIAN_POINT ( 'NONE',  ( 0.0000000000000000000, 0.0000000000000000000, 2.115598766820407040 ) ) ;
#158 = LINE ( 'NONE', #66, #224 ) ;
#159 = CARTESIAN_POINT ( 'NONE',  ( -0.1250000000000000000, 0.0000000000000000000, 2.115598766820407040 ) ) ;
#160 = UNCERTAINTY_MEASURE_WITH_UNIT (LENGTH_MEASURE( 1.000000000000000082E-05 ), #35, 'distance_accuracy_value', 'NONE');
#161 = EDGE_CURVE ( 'NONE', #182, #223, #92, .T. ) ;
#162 = CARTESIAN_POINT ( 'NONE',  ( 0.0000000000000000000, 0.0000000000000000000, 0.0000000000000000000 ) ) ;
#163 = AXIS2_PLACEMENT_3D ( 'NONE', #81, #215, #211 ) ;
#164 = EDGE_LOOP ( 'NONE', ( #52, #131, #76, #29 ) ) ;
#165 = SURFACE_STYLE_FILL_AREA ( #67 ) ;
#166 = MECHANICAL_DESIGN_GEOMETRIC_PRESENTATION_REPRESENTATION (  '', ( #87 ), #93 ) ;
#167 = ORIENTED_EDGE ( 'NONE', *, *, #91, .F. ) ;
#168 = DIRECTION ( 'NONE',  ( 0.0000000000000000000, 0.0000000000000000000, 1.000000000000000000 ) ) ;
#169 = ORIENTED_EDGE ( 'NONE', *, *, #146, .T. ) ;
#170 = CLOSED_SHELL ( 'NONE', ( #14, #110, #30, #2, #79, #95, #59, #201 ) ) ;
#171 = AXIS2_PLACEMENT_3D ( 'NONE', #180, #245, #225 ) ;
#172 = FACE_OUTER_BOUND ( 'NONE', #89, .T. ) ;
#173 = DIRECTION ( 'NONE',  ( 0.0000000000000000000, 0.0000000000000000000, 1.000000000000000000 ) ) ;
#174 = DIRECTION ( 'NONE',  ( 1.000000000000000000, 0.0000000000000000000, 0.0000000000000000000 ) ) ;
#175 =( NAMED_UNIT ( * ) SI_UNIT ( $, .STERADIAN. ) SOLID_ANGLE_UNIT ( ) );
#176 = VECTOR ( 'NONE', #204, 39.37007874015748143 ) ;
#177 =( NAMED_UNIT ( * ) PLANE_ANGLE_UNIT ( ) SI_UNIT ( $, .RADIAN. ) );
#178 = ORIENTED_EDGE ( 'NONE', *, *, #248, .F. ) ;
#179 = DIRECTION ( 'NONE',  ( 0.0000000000000000000, 0.0000000000000000000, -1.000000000000000000 ) ) ;
#180 = CARTESIAN_POINT ( 'NONE',  ( 0.0000000000000000000, 0.0000000000000000000, 0.0000000000000000000 ) ) ;
#181 = VERTEX_POINT ( 'NONE', #12 ) ;
#182 = VERTEX_POINT ( 'NONE', #80 ) ;
#183 = EDGE_CURVE ( 'NONE', #221, #246, #1, .T. ) ;
#184 = VERTEX_POINT ( 'NONE', #116 ) ;
#185 = LINE ( 'NONE', #136, #60 ) ;
#186 = DIRECTION ( 'NONE',  ( 1.000000000000000000, 0.0000000000000000000, -0.0000000000000000000 ) ) ;
#187 = CIRCLE ( 'NONE', #115, 0.02199999999999999872 ) ;
#188 = AXIS2_PLACEMENT_3D ( 'NONE', #5, #179, #42 ) ;
#189 = DIRECTION ( 'NONE',  ( -1.000000000000000000, 0.0000000000000000000, 0.0000000000000000000 ) ) ;
#190 = DIRECTION ( 'NONE',  ( -1.000000000000000000, 0.0000000000000000000, 0.0000000000000000000 ) ) ;
#191 = CARTESIAN_POINT ( 'NONE',  ( -0.02199999999999999872, -9.001153973733046171E-18, 2.500000000000000000 ) ) ;
#192 = CARTESIAN_POINT ( 'NONE',  ( 0.0000000000000000000, 0.0000000000000000000, 2.500000000000000000 ) ) ;
#193 = CONICAL_SURFACE ( 'NONE', #130, 0.02199999999999999872, 0.2617993877991502960 ) ;
#194 = CARTESIAN_POINT ( 'NONE',  ( 0.0000000000000000000, 0.0000000000000000000, 2.500000000000000000 ) ) ;
#195 = COLOUR_RGB ( '',0.7921568627450980005, 0.8196078431372548767, 0.9333333333333333481 ) ;
#196 = EDGE_LOOP ( 'NONE', ( #178, #8, #239, #167 ) ) ;
#197 = DIRECTION ( 'NONE',  ( -1.000000000000000000, 0.0000000000000000000, 0.0000000000000000000 ) ) ;
#198 = LINE ( 'NONE', #217, #147 ) ;
#199 = AXIS2_PLACEMENT_3D ( 'NONE', #25, #103, #88 ) ;
#200 = DIMENSIONAL_EXPONENTS ( 1.000000000000000000, 0.0000000000000000000, 0.0000000000000000000, 0.0000000000000000000, 0.0000000000000000000, 0.0000000000000000000, 0.0000000000000000000 ) ;
#201 = ADVANCED_FACE ( 'NONE', ( #155 ), #212, .T. ) ;
#202 = AXIS2_PLACEMENT_3D ( 'NONE', #232, #137, #21 ) ;
#203 = PRODUCT_DEFINITION_FORMATION_WITH_SPECIFIED_SOURCE ( 'ANY', '', #154, .NOT_KNOWN. ) ;
#204 = DIRECTION ( 'NONE',  ( 0.2588190451025216832, 0.0000000000000000000, 0.9659258262890679791 ) ) ;
#205 = MANIFOLD_SOLID_BREP ( 'Mirror1', #170 ) ;
#206 = EDGE_CURVE ( 'NONE', #184, #182, #198, .T. ) ;
#207 = PRESENTATION_STYLE_ASSIGNMENT (( #150 ) ) ;
#208 = LENGTH_MEASURE_WITH_UNIT ( LENGTH_MEASURE( 0.02539999999999999897 ), #32 );
#209 = VECTOR ( 'NONE', #40, 39.37007874015748143 ) ;
#210 =( GEOMETRIC_REPRESENTATION_CONTEXT ( 3 ) GLOBAL_UNCERTAINTY_ASSIGNED_CONTEXT ( ( #73 ) ) GLOBAL_UNIT_ASSIGNED_CONTEXT ( ( #220, #177, #175 ) ) REPRESENTATION_CONTEXT ( 'NONE', 'WORKASPACE' ) );
#211 = DIRECTION ( 'NONE',  ( -1.000000000000000000, 0.0000000000000000000, 0.0000000000000000000 ) ) ;
#212 = PLANE ( 'NONE',  #20 ) ;
#213 = LINE ( 'NONE', #36, #209 ) ;
#214 = AXIS2_PLACEMENT_3D ( 'NONE', #4, #84, #197 ) ;
#215 = DIRECTION ( 'NONE',  ( -0.0000000000000000000, -0.0000000000000000000, -1.000000000000000000 ) ) ;
#216 = FACE_OUTER_BOUND ( 'NONE', #156, .T. ) ;
#217 = CARTESIAN_POINT ( 'NONE',  ( -0.02199999999999999872, 2.694222958124176868E-18, 0.0000000000000000000 ) ) ;
#218 = ORIENTED_EDGE ( 'NONE', *, *, #68, .T. ) ;
#219 =( LENGTH_UNIT ( ) NAMED_UNIT ( * ) SI_UNIT ( $, .METRE. ) );
#220 =( CONVERSION_BASED_UNIT ( 'INCH', #139 ) LENGTH_UNIT ( ) NAMED_UNIT ( #58 ) );
#221 = VERTEX_POINT ( 'NONE', #159 ) ;
#222 = AXIS2_PLACEMENT_3D ( 'NONE', #98, #231, #228 ) ;
#223 = VERTEX_POINT ( 'NONE', #48 ) ;
#224 = VECTOR ( 'NONE', #101, 39.37007874015748143 ) ;
#225 = DIRECTION ( 'NONE',  ( 1.000000000000000000, 0.0000000000000000000, 0.0000000000000000000 ) ) ;
#226 = ORIENTED_EDGE ( 'NONE', *, *, #91, .T. ) ;
#227 = CONICAL_SURFACE ( 'NONE', #199, 0.02199999999999999872, 0.2617993877991502960 ) ;
#228 = DIRECTION ( 'NONE',  ( 1.000000000000000000, 0.0000000000000000000, -0.0000000000000000000 ) ) ;
#229 = DIRECTION ( 'NONE',  ( 1.000000000000000000, 0.0000000000000000000, 0.0000000000000000000 ) ) ;
#230 = CARTESIAN_POINT ( 'NONE',  ( 0.0000000000000000000, 0.0000000000000000000, 2.115598766820407040 ) ) ;
#231 = DIRECTION ( 'NONE',  ( 0.0000000000000000000, 0.0000000000000000000, 1.000000000000000000 ) ) ;
#232 = CARTESIAN_POINT ( 'NONE',  ( 0.0000000000000000000, 0.0000000000000000000, 2.500000000000000000 ) ) ;
#233 = CARTESIAN_POINT ( 'NONE',  ( 0.1250000000000000000, 1.530808498934191509E-17, 2.115598766820407040 ) ) ;
#234 = FILL_AREA_STYLE_COLOUR ( '', #195 ) ;
#235 = PRODUCT_CONTEXT ( 'NONE', #112, 'mechanical' ) ;
#236 = CIRCLE ( 'NONE', #28, 0.02199999999999999872 ) ;
#237 = CARTESIAN_POINT ( 'NONE',  ( 0.1250000000000000000, 1.530808498934191509E-17, 2.500000000000000000 ) ) ;
#238 = APPLICATION_CONTEXT ( 'automotive_design' ) ;
#239 = ORIENTED_EDGE ( 'NONE', *, *, #121, .T. ) ;
#240 = EDGE_CURVE ( 'NONE', #181, #242, #138, .T. ) ;
#241 = CONICAL_SURFACE ( 'NONE', #132, 0.02199999999999999872, 0.2617993877991502960 ) ;
#242 = VERTEX_POINT ( 'NONE', #191 ) ;
#243 =( NAMED_UNIT ( * ) SI_UNIT ( $, .STERADIAN. ) SOLID_ANGLE_UNIT ( ) );
#244 = DIRECTION ( 'NONE',  ( 1.000000000000000000, 0.0000000000000000000, 0.0000000000000000000 ) ) ;
#245 = DIRECTION ( 'NONE',  ( 0.0000000000000000000, 0.0000000000000000000, 1.000000000000000000 ) ) ;
#246 = VERTEX_POINT ( 'NONE', #233 ) ;
#247 = SURFACE_SIDE_STYLE ('',( #165 ) ) ;
#248 = EDGE_CURVE ( 'NONE', #246, #223, #6, .T. ) ;
#249 = CARTESIAN_POINT ( 'NONE',  ( 0.0000000000000000000, 0.0000000000000000000, 0.0000000000000000000 ) ) ;
ENDSEC;
END-ISO-10303-21;
