ISO-10303-21;
HEADER;
FILE_DESCRIPTION (( 'STEP AP214' ),
    '1' );
FILE_NAME ('Micro_RME-029-2.STEP',
    '2021-09-01T23:06:39',
    ( '' ),
    ( '' ),
    'SwSTEP 2.0',
    'SolidWorks 2020',
    '' );
FILE_SCHEMA (( 'AUTOMOTIVE_DESIGN' ));
ENDSEC;

DATA;
#1 = VERTEX_POINT ( 'NONE', #218 ) ;
#2 = CIRCLE ( 'NONE', #233, 0.01448549999999999838 ) ;
#3 = DIRECTION ( 'NONE',  ( 1.000000000000000000, 0.0000000000000000000, 0.0000000000000000000 ) ) ;
#4 = DIRECTION ( 'NONE',  ( -1.224646799147353454E-16, -0.0000000000000000000, -1.000000000000000000 ) ) ;
#5 = DIRECTION ( 'NONE',  ( 0.7071067811865462405, 8.659560562354916834E-17, -0.7071067811865486830 ) ) ;
#6 = VECTOR ( 'NONE', #190, 39.37007874015748143 ) ;
#7 = CARTESIAN_POINT ( 'NONE',  ( 4.400202007421216978E-17, 0.0000000000000000000, 0.3593037609280331224 ) ) ;
#8 = CARTESIAN_POINT ( 'NONE',  ( 2.172477033174834641E-34, 0.0000000000000000000, 1.773962120904898779E-18 ) ) ;
#9 = PLANE ( 'NONE',  #21 ) ;
#10 = CONICAL_SURFACE ( 'NONE', #219, 0.01448549999999999838, 0.1745329251994338915 ) ;
#11 = ADVANCED_FACE ( 'NONE', ( #26 ), #275, .T. ) ;
#12 = CARTESIAN_POINT ( 'NONE',  ( -0.06249999999999997918, 0.0000000000000000000, 0.3593037609280331224 ) ) ;
#13 = LINE ( 'NONE', #261, #6 ) ;
#14 = EDGE_CURVE ( 'NONE', #104, #49, #76, .T. ) ;
#15 = STYLED_ITEM ( 'NONE', ( #212 ), #53 ) ;
#16 =( GEOMETRIC_REPRESENTATION_CONTEXT ( 3 ) GLOBAL_UNCERTAINTY_ASSIGNED_CONTEXT ( ( #68 ) ) GLOBAL_UNIT_ASSIGNED_CONTEXT ( ( #203, #173, #43 ) ) REPRESENTATION_CONTEXT ( 'NONE', 'WORKASPACE' ) );
#17 = ORIENTED_EDGE ( 'NONE', *, *, #25, .T. ) ;
#18 = ORIENTED_EDGE ( 'NONE', *, *, #25, .F. ) ;
#19 = EDGE_LOOP ( 'NONE', ( #196, #102, #267, #241 ) ) ;
#20 = EDGE_CURVE ( 'NONE', #69, #126, #107, .T. ) ;
#21 = AXIS2_PLACEMENT_3D ( 'NONE', #292, #290, #56 ) ;
#22 = SURFACE_STYLE_FILL_AREA ( #178 ) ;
#23 = EDGE_LOOP ( 'NONE', ( #224, #88, #90, #147 ) ) ;
#24 = ORIENTED_EDGE ( 'NONE', *, *, #280, .T. ) ;
#25 = EDGE_CURVE ( 'NONE', #249, #270, #171, .T. ) ;
#26 = FACE_OUTER_BOUND ( 'NONE', #237, .T. ) ;
#27 = SURFACE_STYLE_USAGE ( .BOTH. , #208 ) ;
#28 = CARTESIAN_POINT ( 'NONE',  ( 0.01448549999999999838, 1.773962120904898394E-18, 0.0000000000000000000 ) ) ;
#29 =( NAMED_UNIT ( * ) PLANE_ANGLE_UNIT ( ) SI_UNIT ( $, .RADIAN. ) );
#30 = EDGE_CURVE ( 'NONE', #1, #200, #177, .T. ) ;
#31 =( GEOMETRIC_REPRESENTATION_CONTEXT ( 3 ) GLOBAL_UNCERTAINTY_ASSIGNED_CONTEXT ( ( #254 ) ) GLOBAL_UNIT_ASSIGNED_CONTEXT ( ( #253, #29, #52 ) ) REPRESENTATION_CONTEXT ( 'NONE', 'WORKASPACE' ) );
#32 = DIRECTION ( 'NONE',  ( 1.000000000000000000, 0.0000000000000000000, 0.0000000000000000000 ) ) ;
#33 = CARTESIAN_POINT ( 'NONE',  ( 0.0000000000000000000, 0.0000000000000000000, 1.500000000000000222 ) ) ;
#34 = EDGE_CURVE ( 'NONE', #270, #249, #259, .T. ) ;
#35 = DIRECTION ( 'NONE',  ( -1.000000000000000000, 0.0000000000000000000, 0.0000000000000000000 ) ) ;
#36 = AXIS2_PLACEMENT_3D ( 'NONE', #66, #274, #148 ) ;
#37 = CARTESIAN_POINT ( 'NONE',  ( 0.01448550000000001052, 0.0000000000000000000, 0.08699999999999999400 ) ) ;
#38 = DIRECTION ( 'NONE',  ( 0.0000000000000000000, 0.0000000000000000000, 1.000000000000000000 ) ) ;
#39 = EDGE_CURVE ( 'NONE', #67, #1, #291, .T. ) ;
#40 = CARTESIAN_POINT ( 'NONE',  ( 0.0000000000000000000, 0.0000000000000000000, 1.485000000000000764 ) ) ;
#41 = CLOSED_SHELL ( 'NONE', ( #45, #264, #105, #197, #244, #216, #131, #48, #11, #157 ) ) ;
#42 = CIRCLE ( 'NONE', #136, 0.06250000000000002776 ) ;
#43 =( NAMED_UNIT ( * ) SI_UNIT ( $, .STERADIAN. ) SOLID_ANGLE_UNIT ( ) );
#44 = ORIENTED_EDGE ( 'NONE', *, *, #139, .T. ) ;
#45 = ADVANCED_FACE ( 'NONE', ( #181 ), #279, .T. ) ;
#46 = DIRECTION ( 'NONE',  ( -1.000000000000000000, 0.0000000000000000000, 1.224646799147353454E-16 ) ) ;
#47 = DIRECTION ( 'NONE',  ( 0.0000000000000000000, 0.0000000000000000000, -1.000000000000000000 ) ) ;
#48 = ADVANCED_FACE ( 'NONE', ( #258 ), #198, .T. ) ;
#49 = VERTEX_POINT ( 'NONE', #182 ) ;
#50 = ORIENTED_EDGE ( 'NONE', *, *, #223, .T. ) ;
#51 = AXIS2_PLACEMENT_3D ( 'NONE', #149, #47, #3 ) ;
#52 =( NAMED_UNIT ( * ) SI_UNIT ( $, .STERADIAN. ) SOLID_ANGLE_UNIT ( ) );
#53 = MANIFOLD_SOLID_BREP ( 'Cut-Revolve1', #41 ) ;
#54 = CARTESIAN_POINT ( 'NONE',  ( 0.0000000000000000000, 0.0000000000000000000, 1.500000000000000222 ) ) ;
#55 = FACE_OUTER_BOUND ( 'NONE', #19, .T. ) ;
#56 = DIRECTION ( 'NONE',  ( 1.000000000000000000, 0.0000000000000000000, -0.0000000000000000000 ) ) ;
#57 = PRESENTATION_LAYER_ASSIGNMENT (  '', '', ( #15 ) ) ;
#58 = ORIENTED_EDGE ( 'NONE', *, *, #20, .T. ) ;
#59 = FACE_OUTER_BOUND ( 'NONE', #296, .T. ) ;
#60 = CYLINDRICAL_SURFACE ( 'NONE', #282, 0.06250000000000002776 ) ;
#61 = AXIS2_PLACEMENT_3D ( 'NONE', #7, #211, #229 ) ;
#62 = PRESENTATION_STYLE_ASSIGNMENT (( #170 ) ) ;
#63 = ORIENTED_EDGE ( 'NONE', *, *, #288, .T. ) ;
#64 = DIRECTION ( 'NONE',  ( -1.224646799147353454E-16, -0.0000000000000000000, -1.000000000000000000 ) ) ;
#65 =( LENGTH_UNIT ( ) NAMED_UNIT ( * ) SI_UNIT ( $, .METRE. ) );
#66 = CARTESIAN_POINT ( 'NONE',  ( 1.065442715258197396E-17, 0.0000000000000000000, 0.08699999999999999400 ) ) ;
#67 = VERTEX_POINT ( 'NONE', #74 ) ;
#68 = UNCERTAINTY_MEASURE_WITH_UNIT (LENGTH_MEASURE( 1.000000000000000082E-05 ), #203, 'distance_accuracy_value', 'NONE');
#69 = VERTEX_POINT ( 'NONE', #99 ) ;
#70 = DIRECTION ( 'NONE',  ( -1.000000000000000000, 0.0000000000000000000, 0.0000000000000000000 ) ) ;
#71 = AXIS2_PLACEMENT_3D ( 'NONE', #231, #153, #32 ) ;
#72 = PRODUCT_RELATED_PRODUCT_CATEGORY ( 'part', '', ( #156 ) ) ;
#73 = DIRECTION ( 'NONE',  ( 0.0000000000000000000, 0.0000000000000000000, 1.000000000000000000 ) ) ;
#74 = CARTESIAN_POINT ( 'NONE',  ( -0.06250000000000002776, 0.0000000000000000000, 1.485000000000000764 ) ) ;
#75 = CARTESIAN_POINT ( 'NONE',  ( 0.0000000000000000000, 0.0000000000000000000, 0.0000000000000000000 ) ) ;
#76 = CIRCLE ( 'NONE', #242, 0.04750000000000064587 ) ;
#77 = VECTOR ( 'NONE', #121, 39.37007874015748143 ) ;
#78 = LINE ( 'NONE', #227, #287 ) ;
#79 = CARTESIAN_POINT ( 'NONE',  ( -0.01448549999999998797, 1.773962120904898394E-18, 0.08699999999999999400 ) ) ;
#80 = CARTESIAN_POINT ( 'NONE',  ( 0.01448549999999999838, 1.773962120904898394E-18, -1.773962120904898779E-18 ) ) ;
#81 = ORIENTED_EDGE ( 'NONE', *, *, #30, .T. ) ;
#82 = LINE ( 'NONE', #164, #109 ) ;
#83 = EDGE_CURVE ( 'NONE', #49, #1, #207, .T. ) ;
#84 = EDGE_LOOP ( 'NONE', ( #92, #294, #235, #245 ) ) ;
#85 = FACE_OUTER_BOUND ( 'NONE', #129, .T. ) ;
#86 = ORIENTED_EDGE ( 'NONE', *, *, #280, .F. ) ;
#87 = DIRECTION ( 'NONE',  ( -1.224646799147353454E-16, -0.0000000000000000000, -1.000000000000000000 ) ) ;
#88 = ORIENTED_EDGE ( 'NONE', *, *, #14, .F. ) ;
#89 = CARTESIAN_POINT ( 'NONE',  ( 1.065442715258197396E-17, 0.0000000000000000000, 0.08699999999999999400 ) ) ;
#90 = ORIENTED_EDGE ( 'NONE', *, *, #98, .T. ) ;
#91 = EDGE_CURVE ( 'NONE', #201, #200, #145, .T. ) ;
#92 = ORIENTED_EDGE ( 'NONE', *, *, #288, .F. ) ;
#93 = PRODUCT_DEFINITION_CONTEXT ( 'detailed design', #262, 'design' ) ;
#94 = DIRECTION ( 'NONE',  ( -1.000000000000000000, 0.0000000000000000000, 1.224646799147353454E-16 ) ) ;
#95 = CIRCLE ( 'NONE', #184, 0.04750000000000064587 ) ;
#96 = DIRECTION ( 'NONE',  ( -1.000000000000000000, 0.0000000000000000000, 0.0000000000000000000 ) ) ;
#97 = FACE_OUTER_BOUND ( 'NONE', #152, .T. ) ;
#98 = EDGE_CURVE ( 'NONE', #104, #67, #78, .T. ) ;
#99 = CARTESIAN_POINT ( 'NONE',  ( -0.01448549999999999838, 0.0000000000000000000, 3.547924241809797558E-18 ) ) ;
#100 = VECTOR ( 'NONE', #168, 39.37007874015747433 ) ;
#101 =( LENGTH_UNIT ( ) NAMED_UNIT ( * ) SI_UNIT ( $, .METRE. ) );
#102 = ORIENTED_EDGE ( 'NONE', *, *, #188, .T. ) ;
#103 = DIRECTION ( 'NONE',  ( 1.000000000000000000, 0.0000000000000000000, 0.0000000000000000000 ) ) ;
#104 = VERTEX_POINT ( 'NONE', #186 ) ;
#105 = ADVANCED_FACE ( 'NONE', ( #286 ), #252, .T. ) ;
#106 = ORIENTED_EDGE ( 'NONE', *, *, #34, .T. ) ;
#107 = CIRCLE ( 'NONE', #187, 0.01448549999999999838 ) ;
#108 = ORIENTED_EDGE ( 'NONE', *, *, #251, .F. ) ;
#109 = VECTOR ( 'NONE', #160, 39.37007874015748143 ) ;
#110 = SHAPE_DEFINITION_REPRESENTATION ( #150, #176 ) ;
#111 = ORIENTED_EDGE ( 'NONE', *, *, #128, .F. ) ;
#112 = ORIENTED_EDGE ( 'NONE', *, *, #257, .T. ) ;
#113 = DIRECTION ( 'NONE',  ( 1.000000000000000000, 0.0000000000000000000, 0.0000000000000000000 ) ) ;
#114 = DIRECTION ( 'NONE',  ( 0.0000000000000000000, 0.0000000000000000000, 1.000000000000000000 ) ) ;
#115 = VECTOR ( 'NONE', #5, 39.37007874015748854 ) ;
#116 = PLANE ( 'NONE',  #225 ) ;
#117 = AXIS2_PLACEMENT_3D ( 'NONE', #89, #64, #298 ) ;
#118 = PRODUCT_DEFINITION_FORMATION_WITH_SPECIFIED_SOURCE ( 'ANY', '', #156, .NOT_KNOWN. ) ;
#119 = DIRECTION ( 'NONE',  ( 1.224646799147353454E-16, 0.0000000000000000000, 1.000000000000000000 ) ) ;
#120 = AXIS2_PLACEMENT_3D ( 'NONE', #40, #194, #103 ) ;
#121 = DIRECTION ( 'NONE',  ( -1.224646799147353454E-16, -0.0000000000000000000, -1.000000000000000000 ) ) ;
#122 =( NAMED_UNIT ( * ) SI_UNIT ( $, .STERADIAN. ) SOLID_ANGLE_UNIT ( ) );
#123 =( CONVERSION_BASED_UNIT ( 'INCH', #268 ) LENGTH_UNIT ( ) NAMED_UNIT ( #166 ) );
#124 = DIRECTION ( 'NONE',  ( -1.000000000000000000, 0.0000000000000000000, 1.224646799147353454E-16 ) ) ;
#125 = SURFACE_SIDE_STYLE ('',( #22 ) ) ;
#126 = VERTEX_POINT ( 'NONE', #28 ) ;
#127 = COLOUR_RGB ( '',0.7921568627450980005, 0.8196078431372548767, 0.9333333333333333481 ) ;
#128 = EDGE_CURVE ( 'NONE', #270, #69, #284, .T. ) ;
#129 = EDGE_LOOP ( 'NONE', ( #130, #63 ) ) ;
#130 = ORIENTED_EDGE ( 'NONE', *, *, #14, .T. ) ;
#131 = ADVANCED_FACE ( 'NONE', ( #256 ), #140, .T. ) ;
#132 = DIRECTION ( 'NONE',  ( 0.0000000000000000000, 0.0000000000000000000, -1.000000000000000000 ) ) ;
#133 = LENGTH_MEASURE_WITH_UNIT ( LENGTH_MEASURE( 0.02539999999999999897 ), #137 );
#134 = CARTESIAN_POINT ( 'NONE',  ( 0.04750000000000064587, 5.817072295950006528E-18, 1.500000000000000222 ) ) ;
#135 = DIRECTION ( 'NONE',  ( 0.0000000000000000000, 0.0000000000000000000, -1.000000000000000000 ) ) ;
#136 = AXIS2_PLACEMENT_3D ( 'NONE', #283, #285, #165 ) ;
#137 =( LENGTH_UNIT ( ) NAMED_UNIT ( * ) SI_UNIT ( $, .METRE. ) );
#138 = CARTESIAN_POINT ( 'NONE',  ( 0.0000000000000000000, 0.0000000000000000000, 1.500000000000000222 ) ) ;
#139 = EDGE_CURVE ( 'NONE', #126, #69, #2, .T. ) ;
#140 = CONICAL_SURFACE ( 'NONE', #277, 0.04750000000000064587, 0.7853981633974466137 ) ;
#141 = CARTESIAN_POINT ( 'NONE',  ( 0.0000000000000000000, 0.0000000000000000000, 1.500000000000000222 ) ) ;
#142 = DIRECTION ( 'NONE',  ( -0.0000000000000000000, -0.0000000000000000000, -1.000000000000000000 ) ) ;
#143 = APPLICATION_PROTOCOL_DEFINITION ( 'draft international standard', 'automotive_design', 1998, #238 ) ;
#144 = AXIS2_PLACEMENT_3D ( 'NONE', #250, #172, #46 ) ;
#145 = CIRCLE ( 'NONE', #61, 0.06250000000000002776 ) ;
#146 = ORIENTED_EDGE ( 'NONE', *, *, #174, .F. ) ;
#147 = ORIENTED_EDGE ( 'NONE', *, *, #257, .F. ) ;
#148 = DIRECTION ( 'NONE',  ( -1.000000000000000000, 0.0000000000000000000, 0.0000000000000000000 ) ) ;
#149 = CARTESIAN_POINT ( 'NONE',  ( 0.0000000000000000000, 0.0000000000000000000, 1.485000000000000764 ) ) ;
#150 = PRODUCT_DEFINITION_SHAPE ( 'NONE', 'NONE',  #228 ) ;
#151 = EDGE_LOOP ( 'NONE', ( #106, #169, #167, #111 ) ) ;
#152 = EDGE_LOOP ( 'NONE', ( #58, #44 ) ) ;
#153 = DIRECTION ( 'NONE',  ( 1.224646799147353454E-16, 0.0000000000000000000, 1.000000000000000000 ) ) ;
#154 = DIRECTION ( 'NONE',  ( -1.224646799147353454E-16, -0.0000000000000000000, -1.000000000000000000 ) ) ;
#155 = DIRECTION ( 'NONE',  ( -1.224646799147353454E-16, -0.0000000000000000000, -1.000000000000000000 ) ) ;
#156 = PRODUCT ( 'Micro_RME-029-2', 'Micro_RME-029-2', '', ( #269 ) ) ;
#157 = ADVANCED_FACE ( 'NONE', ( #97 ), #116, .F. ) ;
#158 = DIRECTION ( 'NONE',  ( -1.000000000000000000, 0.0000000000000000000, 1.224646799147353454E-16 ) ) ;
#159 = CARTESIAN_POINT ( 'NONE',  ( 0.0000000000000000000, 0.0000000000000000000, 1.500000000000000222 ) ) ;
#160 = DIRECTION ( 'NONE',  ( 0.1736481776669313859, 0.0000000000000000000, 0.9848077530122077983 ) ) ;
#161 = FACE_OUTER_BOUND ( 'NONE', #162, .T. ) ;
#162 = EDGE_LOOP ( 'NONE', ( #222, #112, #24, #146 ) ) ;
#163 = STYLED_ITEM ( 'NONE', ( #62 ), #176 ) ;
#164 = CARTESIAN_POINT ( 'NONE',  ( 0.01448550000000001052, 0.0000000000000000000, 0.08699999999999999400 ) ) ;
#165 = DIRECTION ( 'NONE',  ( 1.000000000000000000, 0.0000000000000000000, 0.0000000000000000000 ) ) ;
#166 = DIMENSIONAL_EXPONENTS ( 1.000000000000000000, 0.0000000000000000000, 0.0000000000000000000, 0.0000000000000000000, 0.0000000000000000000, 0.0000000000000000000, 0.0000000000000000000 ) ;
#167 = ORIENTED_EDGE ( 'NONE', *, *, #20, .F. ) ;
#168 = DIRECTION ( 'NONE',  ( -0.1736481776669311916, 2.126576849575783316E-17, 0.9848077530122080203 ) ) ;
#169 = ORIENTED_EDGE ( 'NONE', *, *, #251, .T. ) ;
#170 = SURFACE_STYLE_USAGE ( .BOTH. , #125 ) ;
#171 = CIRCLE ( 'NONE', #117, 0.01448549999999999838 ) ;
#172 = DIRECTION ( 'NONE',  ( -1.224646799147353454E-16, -0.0000000000000000000, -1.000000000000000000 ) ) ;
#173 =( NAMED_UNIT ( * ) PLANE_ANGLE_UNIT ( ) SI_UNIT ( $, .RADIAN. ) );
#174 = EDGE_CURVE ( 'NONE', #200, #201, #42, .T. ) ;
#175 = DIRECTION ( 'NONE',  ( -0.0000000000000000000, -0.0000000000000000000, -1.000000000000000000 ) ) ;
#176 = ADVANCED_BREP_SHAPE_REPRESENTATION ( 'Micro_RME-029-2', ( #53, #205 ), #265 ) ;
#177 = LINE ( 'NONE', #278, #297 ) ;
#178 = FILL_AREA_STYLE ('',( #213 ) ) ;
#179 = VECTOR ( 'NONE', #155, 39.37007874015748143 ) ;
#180 = CARTESIAN_POINT ( 'NONE',  ( 0.0000000000000000000, 0.0000000000000000000, 1.500000000000000222 ) ) ;
#181 = FACE_OUTER_BOUND ( 'NONE', #151, .T. ) ;
#182 = CARTESIAN_POINT ( 'NONE',  ( 0.04750000000000064587, 6.735557395310483192E-18, 1.500000000000000222 ) ) ;
#183 = DIRECTION ( 'NONE',  ( 1.000000000000000000, 0.0000000000000000000, -0.0000000000000000000 ) ) ;
#184 = AXIS2_PLACEMENT_3D ( 'NONE', #33, #38, #232 ) ;
#185 = CARTESIAN_POINT ( 'NONE',  ( 0.0000000000000000000, 0.0000000000000000000, 0.0000000000000000000 ) ) ;
#186 = CARTESIAN_POINT ( 'NONE',  ( -0.04750000000000064587, 0.0000000000000000000, 1.500000000000000222 ) ) ;
#187 = AXIS2_PLACEMENT_3D ( 'NONE', #217, #87, #124 ) ;
#188 = EDGE_CURVE ( 'NONE', #270, #201, #293, .T. ) ;
#189 = AXIS2_PLACEMENT_3D ( 'NONE', #159, #132, #96 ) ;
#190 = DIRECTION ( 'NONE',  ( -0.0000000000000000000, -0.0000000000000000000, -1.000000000000000000 ) ) ;
#191 = DIRECTION ( 'NONE',  ( -1.000000000000000000, 0.0000000000000000000, 0.0000000000000000000 ) ) ;
#192 = CARTESIAN_POINT ( 'NONE',  ( 1.065442715258197396E-17, 0.0000000000000000000, 0.08699999999999999400 ) ) ;
#193 = CIRCLE ( 'NONE', #120, 0.06250000000000002776 ) ;
#194 = DIRECTION ( 'NONE',  ( 0.0000000000000000000, 0.0000000000000000000, -1.000000000000000000 ) ) ;
#195 = DIRECTION ( 'NONE',  ( 0.0000000000000000000, 0.0000000000000000000, 1.000000000000000000 ) ) ;
#196 = ORIENTED_EDGE ( 'NONE', *, *, #34, .F. ) ;
#197 = ADVANCED_FACE ( 'NONE', ( #59 ), #289, .T. ) ;
#198 = CONICAL_SURFACE ( 'NONE', #71, 0.01448549999999999838, 0.1745329251994338915 ) ;
#199 = DIMENSIONAL_EXPONENTS ( 1.000000000000000000, 0.0000000000000000000, 0.0000000000000000000, 0.0000000000000000000, 0.0000000000000000000, 0.0000000000000000000, 0.0000000000000000000 ) ;
#200 = VERTEX_POINT ( 'NONE', #239 ) ;
#201 = VERTEX_POINT ( 'NONE', #12 ) ;
#202 = ORIENTED_EDGE ( 'NONE', *, *, #128, .T. ) ;
#203 =( CONVERSION_BASED_UNIT ( 'INCH', #295 ) LENGTH_UNIT ( ) NAMED_UNIT ( #240 ) );
#204 = ORIENTED_EDGE ( 'NONE', *, *, #174, .T. ) ;
#205 = AXIS2_PLACEMENT_3D ( 'NONE', #273, #195, #113 ) ;
#206 = UNCERTAINTY_MEASURE_WITH_UNIT (LENGTH_MEASURE( 1.000000000000000082E-05 ), #123, 'distance_accuracy_value', 'NONE');
#207 = LINE ( 'NONE', #134, #115 ) ;
#208 = SURFACE_SIDE_STYLE ('',( #209 ) ) ;
#209 = SURFACE_STYLE_FILL_AREA ( #255 ) ;
#210 = PRESENTATION_LAYER_ASSIGNMENT (  '', '', ( #163 ) ) ;
#211 = DIRECTION ( 'NONE',  ( -1.224646799147353454E-16, -0.0000000000000000000, -1.000000000000000000 ) ) ;
#212 = PRESENTATION_STYLE_ASSIGNMENT (( #27 ) ) ;
#213 = FILL_AREA_STYLE_COLOUR ( '', #127 ) ;
#214 = AXIS2_PLACEMENT_3D ( 'NONE', #75, #154, #158 ) ;
#215 = DIRECTION ( 'NONE',  ( 1.000000000000000000, 0.0000000000000000000, 0.0000000000000000000 ) ) ;
#216 = ADVANCED_FACE ( 'NONE', ( #85 ), #9, .T. ) ;
#217 = CARTESIAN_POINT ( 'NONE',  ( 2.172477033174834641E-34, 0.0000000000000000000, 1.773962120904898779E-18 ) ) ;
#218 = CARTESIAN_POINT ( 'NONE',  ( 0.06250000000000002776, 7.654042494670959086E-18, 1.485000000000000764 ) ) ;
#219 = AXIS2_PLACEMENT_3D ( 'NONE', #192, #119, #215 ) ;
#220 = ORIENTED_EDGE ( 'NONE', *, *, #39, .T. ) ;
#221 = APPLICATION_PROTOCOL_DEFINITION ( 'draft international standard', 'automotive_design', 1998, #262 ) ;
#222 = ORIENTED_EDGE ( 'NONE', *, *, #30, .F. ) ;
#223 = EDGE_CURVE ( 'NONE', #249, #200, #82, .T. ) ;
#224 = ORIENTED_EDGE ( 'NONE', *, *, #83, .F. ) ;
#225 = AXIS2_PLACEMENT_3D ( 'NONE', #185, #73, #183 ) ;
#226 = CARTESIAN_POINT ( 'NONE',  ( -0.01448549999999999838, 0.0000000000000000000, 1.773962120904898779E-18 ) ) ;
#227 = CARTESIAN_POINT ( 'NONE',  ( -0.04750000000000064587, 0.0000000000000000000, 1.500000000000000222 ) ) ;
#228 = PRODUCT_DEFINITION ( 'UNKNOWN', '', #118, #93 ) ;
#229 = DIRECTION ( 'NONE',  ( 1.000000000000000000, 0.0000000000000000000, 0.0000000000000000000 ) ) ;
#230 = MECHANICAL_DESIGN_GEOMETRIC_PRESENTATION_REPRESENTATION (  '', ( #163 ), #16 ) ;
#231 = CARTESIAN_POINT ( 'NONE',  ( 1.065442715258197396E-17, 0.0000000000000000000, 0.08699999999999999400 ) ) ;
#232 = DIRECTION ( 'NONE',  ( 1.000000000000000000, 0.0000000000000000000, 0.0000000000000000000 ) ) ;
#233 = AXIS2_PLACEMENT_3D ( 'NONE', #8, #4, #94 ) ;
#234 = DIRECTION ( 'NONE',  ( -0.0000000000000000000, -0.0000000000000000000, -1.000000000000000000 ) ) ;
#235 = ORIENTED_EDGE ( 'NONE', *, *, #39, .F. ) ;
#236 = CARTESIAN_POINT ( 'NONE',  ( -0.01448549999999998797, 4.714002307787929895E-18, 0.08699999999999999400 ) ) ;
#237 = EDGE_LOOP ( 'NONE', ( #108, #17, #202, #247 ) ) ;
#238 = APPLICATION_CONTEXT ( 'automotive_design' ) ;
#239 = CARTESIAN_POINT ( 'NONE',  ( 0.06250000000000006939, 7.654042494670963708E-18, 0.3593037609280331224 ) ) ;
#240 = DIMENSIONAL_EXPONENTS ( 1.000000000000000000, 0.0000000000000000000, 0.0000000000000000000, 0.0000000000000000000, 0.0000000000000000000, 0.0000000000000000000, 0.0000000000000000000 ) ;
#241 = ORIENTED_EDGE ( 'NONE', *, *, #223, .F. ) ;
#242 = AXIS2_PLACEMENT_3D ( 'NONE', #180, #114, #299 ) ;
#243 = MECHANICAL_DESIGN_GEOMETRIC_PRESENTATION_REPRESENTATION (  '', ( #15 ), #31 ) ;
#244 = ADVANCED_FACE ( 'NONE', ( #161 ), #60, .T. ) ;
#245 = ORIENTED_EDGE ( 'NONE', *, *, #98, .F. ) ;
#246 = ORIENTED_EDGE ( 'NONE', *, *, #91, .F. ) ;
#247 = ORIENTED_EDGE ( 'NONE', *, *, #139, .F. ) ;
#248 = ORIENTED_EDGE ( 'NONE', *, *, #188, .F. ) ;
#249 = VERTEX_POINT ( 'NONE', #37 ) ;
#250 = CARTESIAN_POINT ( 'NONE',  ( 0.0000000000000000000, 0.0000000000000000000, 0.0000000000000000000 ) ) ;
#251 = EDGE_CURVE ( 'NONE', #249, #126, #266, .T. ) ;
#252 = CONICAL_SURFACE ( 'NONE', #189, 0.04750000000000064587, 0.7853981633974466137 ) ;
#253 =( CONVERSION_BASED_UNIT ( 'INCH', #133 ) LENGTH_UNIT ( ) NAMED_UNIT ( #199 ) );
#254 = UNCERTAINTY_MEASURE_WITH_UNIT (LENGTH_MEASURE( 1.000000000000000082E-05 ), #253, 'distance_accuracy_value', 'NONE');
#255 = FILL_AREA_STYLE ('',( #281 ) ) ;
#256 = FACE_OUTER_BOUND ( 'NONE', #23, .T. ) ;
#257 = EDGE_CURVE ( 'NONE', #1, #67, #193, .T. ) ;
#258 = FACE_OUTER_BOUND ( 'NONE', #272, .T. ) ;
#259 = CIRCLE ( 'NONE', #36, 0.01448549999999999838 ) ;
#260 = DIRECTION ( 'NONE',  ( -0.7071067811865462405, 0.0000000000000000000, -0.7071067811865486830 ) ) ;
#261 = CARTESIAN_POINT ( 'NONE',  ( -0.06250000000000002776, 0.0000000000000000000, 1.500000000000000222 ) ) ;
#262 = APPLICATION_CONTEXT ( 'automotive_design' ) ;
#263 =( NAMED_UNIT ( * ) PLANE_ANGLE_UNIT ( ) SI_UNIT ( $, .RADIAN. ) );
#264 = ADVANCED_FACE ( 'NONE', ( #55 ), #10, .T. ) ;
#265 =( GEOMETRIC_REPRESENTATION_CONTEXT ( 3 ) GLOBAL_UNCERTAINTY_ASSIGNED_CONTEXT ( ( #206 ) ) GLOBAL_UNIT_ASSIGNED_CONTEXT ( ( #123, #263, #122 ) ) REPRESENTATION_CONTEXT ( 'NONE', 'WORKASPACE' ) );
#266 = LINE ( 'NONE', #80, #77 ) ;
#267 = ORIENTED_EDGE ( 'NONE', *, *, #91, .T. ) ;
#268 = LENGTH_MEASURE_WITH_UNIT ( LENGTH_MEASURE( 0.02539999999999999897 ), #101 );
#269 = PRODUCT_CONTEXT ( 'NONE', #238, 'mechanical' ) ;
#270 = VERTEX_POINT ( 'NONE', #236 ) ;
#271 = COLOUR_RGB ( '',0.7921568627450980005, 0.8196078431372548767, 0.9333333333333333481 ) ;
#272 = EDGE_LOOP ( 'NONE', ( #248, #18, #50, #204 ) ) ;
#273 = CARTESIAN_POINT ( 'NONE',  ( 0.0000000000000000000, 0.0000000000000000000, 0.0000000000000000000 ) ) ;
#274 = DIRECTION ( 'NONE',  ( -1.224646799147353454E-16, -0.0000000000000000000, -1.000000000000000000 ) ) ;
#275 = CYLINDRICAL_SURFACE ( 'NONE', #144, 0.01448549999999999838 ) ;
#276 = AXIS2_PLACEMENT_3D ( 'NONE', #138, #142, #35 ) ;
#277 = AXIS2_PLACEMENT_3D ( 'NONE', #54, #135, #70 ) ;
#278 = CARTESIAN_POINT ( 'NONE',  ( 0.06250000000000002776, 7.654042494670959086E-18, 1.500000000000000222 ) ) ;
#279 = CYLINDRICAL_SURFACE ( 'NONE', #214, 0.01448549999999999838 ) ;
#280 = EDGE_CURVE ( 'NONE', #67, #201, #13, .T. ) ;
#281 = FILL_AREA_STYLE_COLOUR ( '', #271 ) ;
#282 = AXIS2_PLACEMENT_3D ( 'NONE', #141, #234, #191 ) ;
#283 = CARTESIAN_POINT ( 'NONE',  ( 4.400202007421216978E-17, 0.0000000000000000000, 0.3593037609280331224 ) ) ;
#284 = LINE ( 'NONE', #226, #179 ) ;
#285 = DIRECTION ( 'NONE',  ( -1.224646799147353454E-16, -0.0000000000000000000, -1.000000000000000000 ) ) ;
#286 = FACE_OUTER_BOUND ( 'NONE', #84, .T. ) ;
#287 = VECTOR ( 'NONE', #260, 39.37007874015748854 ) ;
#288 = EDGE_CURVE ( 'NONE', #49, #104, #95, .T. ) ;
#289 = CYLINDRICAL_SURFACE ( 'NONE', #276, 0.06250000000000002776 ) ;
#290 = DIRECTION ( 'NONE',  ( 0.0000000000000000000, 0.0000000000000000000, 1.000000000000000000 ) ) ;
#291 = CIRCLE ( 'NONE', #51, 0.06250000000000002776 ) ;
#292 = CARTESIAN_POINT ( 'NONE',  ( 0.0000000000000000000, 0.0000000000000000000, 1.500000000000000222 ) ) ;
#293 = LINE ( 'NONE', #79, #100 ) ;
#294 = ORIENTED_EDGE ( 'NONE', *, *, #83, .T. ) ;
#295 = LENGTH_MEASURE_WITH_UNIT ( LENGTH_MEASURE( 0.02539999999999999897 ), #65 );
#296 = EDGE_LOOP ( 'NONE', ( #220, #81, #246, #86 ) ) ;
#297 = VECTOR ( 'NONE', #175, 39.37007874015748143 ) ;
#298 = DIRECTION ( 'NONE',  ( -1.000000000000000000, 0.0000000000000000000, 0.0000000000000000000 ) ) ;
#299 = DIRECTION ( 'NONE',  ( 1.000000000000000000, 0.0000000000000000000, 0.0000000000000000000 ) ) ;
ENDSEC;
END-ISO-10303-21;
