ISO-10303-21;
HEADER;
FILE_DESCRIPTION (( 'STEP AP214' ),
    '1' );
FILE_NAME ('84602.STEP',
    '2023-07-12T13:10:26',
    ( '' ),
    ( '' ),
    'SwSTEP 2.0',
    'SolidWorks 2023',
    '' );
FILE_SCHEMA (( 'AUTOMOTIVE_DESIGN' ));
ENDSEC;

DATA;
#1 = PRESENTATION_LAYER_ASSIGNMENT (  '', '', ( #272 ) ) ;
#2 = PRESENTATION_STYLE_ASSIGNMENT (( #75 ) ) ;
#3 = EDGE_LOOP ( 'NONE', ( #269, #10 ) ) ;
#4 = LINE ( 'NONE', #79, #191 ) ;
#5 = ORIENTED_EDGE ( 'NONE', *, *, #20, .F. ) ;
#6 = DIRECTION ( 'NONE',  ( -1.000000000000000000, -2.168184519554202467E-33, 0.000000000000000000 ) ) ;
#7 = VERTEX_POINT ( 'NONE', #59 ) ;
#8 = MANIFOLD_SOLID_BREP ( 'Revolve - Cutting Edge', #307 ) ;
#9 = DIMENSIONAL_EXPONENTS ( 1.000000000000000000, 0.000000000000000000, 0.000000000000000000, 0.000000000000000000, 0.000000000000000000, 0.000000000000000000, 0.000000000000000000 ) ;
#10 = ORIENTED_EDGE ( 'NONE', *, *, #92, .F. ) ;
#11 = UNCERTAINTY_MEASURE_WITH_UNIT (LENGTH_MEASURE( 1.000000000000000082E-05 ), #25, 'distance_accuracy_value', 'NONE');
#12 =( GEOMETRIC_REPRESENTATION_CONTEXT ( 3 ) GLOBAL_UNCERTAINTY_ASSIGNED_CONTEXT ( ( #81 ) ) GLOBAL_UNIT_ASSIGNED_CONTEXT ( ( #186, #16, #303 ) ) REPRESENTATION_CONTEXT ( 'NONE', 'WORKASPACE' ) );
#13 = DIRECTION ( 'NONE',  ( -0.6560590289905083861, 0.7547095802227710148, 0.000000000000000000 ) ) ;
#14 = ORIENTED_EDGE ( 'NONE', *, *, #143, .T. ) ;
#15 = DIMENSIONAL_EXPONENTS ( 1.000000000000000000, 0.000000000000000000, 0.000000000000000000, 0.000000000000000000, 0.000000000000000000, 0.000000000000000000, 0.000000000000000000 ) ;
#16 =( NAMED_UNIT ( * ) PLANE_ANGLE_UNIT ( ) SI_UNIT ( $, .RADIAN. ) );
#17 = DIRECTION ( 'NONE',  ( 2.168184519554202125E-33, -1.000000000000000000, -0.000000000000000000 ) ) ;
#18 = FACE_OUTER_BOUND ( 'NONE', #3, .T. ) ;
#19 =( CONVERSION_BASED_UNIT ( 'INCH', #305 ) LENGTH_UNIT ( ) NAMED_UNIT ( #15 ) );
#20 = EDGE_CURVE ( 'NONE', #150, #7, #135, .T. ) ;
#21 = MANIFOLD_SOLID_BREP ( 'Revolve - Tool Body (Tipped Off)', #172 ) ;
#22 = PLANE ( 'NONE',  #86 ) ;
#23 = LINE ( 'NONE', #207, #52 ) ;
#24 = CIRCLE ( 'NONE', #194, 0.02999999999999999889 ) ;
#25 =( CONVERSION_BASED_UNIT ( 'INCH', #181 ) LENGTH_UNIT ( ) NAMED_UNIT ( #178 ) );
#26 = DIRECTION ( 'NONE',  ( -1.213712763141083641E-16, 1.000000000000000000, -0.000000000000000000 ) ) ;
#27 = CARTESIAN_POINT ( 'NONE',  ( -0.1249999999999995559, 0.1092849986859956712, 0.000000000000000000 ) ) ;
#28 = DIRECTION ( 'NONE',  ( -1.000000000000000000, -2.168184519554202125E-33, 0.000000000000000000 ) ) ;
#29 = AXIS2_PLACEMENT_3D ( 'NONE', #151, #53, #275 ) ;
#30 = ADVANCED_FACE ( 'NONE', ( #40 ), #22, .T. ) ;
#31 = AXIS2_PLACEMENT_3D ( 'NONE', #260, #240, #122 ) ;
#32 = VERTEX_POINT ( 'NONE', #193 ) ;
#33 =( CONVERSION_BASED_UNIT ( 'INCH', #265 ) LENGTH_UNIT ( ) NAMED_UNIT ( #55 ) );
#34 = ORIENTED_EDGE ( 'NONE', *, *, #259, .F. ) ;
#35 = SURFACE_SIDE_STYLE ('',( #287 ) ) ;
#36 = ORIENTED_EDGE ( 'NONE', *, *, #229, .T. ) ;
#37 = CIRCLE ( 'NONE', #230, 0.1249999999999997780 ) ;
#38 = CIRCLE ( 'NONE', #134, 0.1250000000000000000 ) ;
#39 = LENGTH_MEASURE_WITH_UNIT ( LENGTH_MEASURE( 0.02539999999999999897 ), #65 );
#40 = FACE_OUTER_BOUND ( 'NONE', #155, .T. ) ;
#41 =( GEOMETRIC_REPRESENTATION_CONTEXT ( 3 ) GLOBAL_UNCERTAINTY_ASSIGNED_CONTEXT ( ( #11 ) ) GLOBAL_UNIT_ASSIGNED_CONTEXT ( ( #25, #208, #183 ) ) REPRESENTATION_CONTEXT ( 'NONE', 'WORKASPACE' ) );
#42 = FILL_AREA_STYLE ('',( #261 ) ) ;
#43 = CARTESIAN_POINT ( 'NONE',  ( -6.123233995736766036E-17, 2.500000000000000000, 0.000000000000000000 ) ) ;
#44 = DIRECTION ( 'NONE',  ( 1.000000000000000000, 2.168184519554202467E-33, 0.000000000000000000 ) ) ;
#45 = FACE_OUTER_BOUND ( 'NONE', #83, .T. ) ;
#46 = STYLED_ITEM ( 'NONE', ( #117 ), #21 ) ;
#47 = PRESENTATION_STYLE_ASSIGNMENT (( #288 ) ) ;
#48 = ORIENTED_EDGE ( 'NONE', *, *, #286, .F. ) ;
#49 = UNCERTAINTY_MEASURE_WITH_UNIT (LENGTH_MEASURE( 1.000000000000000082E-05 ), #33, 'distance_accuracy_value', 'NONE');
#50 = ADVANCED_FACE ( 'NONE', ( #189 ), #71, .T. ) ;
#51 = FILL_AREA_STYLE ('',( #54 ) ) ;
#52 = VECTOR ( 'NONE', #251, 39.37007874015748143 ) ;
#53 = DIRECTION ( 'NONE',  ( -1.213712763141083641E-16, 1.000000000000000000, -0.000000000000000000 ) ) ;
#54 = FILL_AREA_STYLE_COLOUR ( '', #235 ) ;
#55 = DIMENSIONAL_EXPONENTS ( 1.000000000000000000, 0.000000000000000000, 0.000000000000000000, 0.000000000000000000, 0.000000000000000000, 0.000000000000000000, 0.000000000000000000 ) ;
#56 = CARTESIAN_POINT ( 'NONE',  ( 1.410307233250345916E-67, -6.504553558662607101E-35, 0.000000000000000000 ) ) ;
#57 = COLOUR_RGB ( '',1.000000000000000000, 0.000000000000000000, 0.000000000000000000 ) ;
#58 = ORIENTED_EDGE ( 'NONE', *, *, #229, .F. ) ;
#59 = CARTESIAN_POINT ( 'NONE',  ( -0.1249999999999999861, 0.1092849986859955602, 0.000000000000000000 ) ) ;
#60 = PRESENTATION_LAYER_ASSIGNMENT (  '', '', ( #46 ) ) ;
#61 =( CONVERSION_BASED_UNIT ( 'INCH', #39 ) LENGTH_UNIT ( ) NAMED_UNIT ( #273 ) );
#62 =( NAMED_UNIT ( * ) SI_UNIT ( $, .STERADIAN. ) SOLID_ANGLE_UNIT ( ) );
#63 = UNCERTAINTY_MEASURE_WITH_UNIT (LENGTH_MEASURE( 1.000000000000000082E-05 ), #308, 'distance_accuracy_value', 'NONE');
#64 = AXIS2_PLACEMENT_3D ( 'NONE', #232, #85, #301 ) ;
#65 =( LENGTH_UNIT ( ) NAMED_UNIT ( * ) SI_UNIT ( $, .METRE. ) );
#66 = FILL_AREA_STYLE_COLOUR ( '', #142 ) ;
#67 = DIRECTION ( 'NONE',  ( 1.000000000000000000, 1.213712763141083641E-16, 0.000000000000000000 ) ) ;
#68 = ADVANCED_FACE ( 'NONE', ( #99 ), #234, .T. ) ;
#69 = CARTESIAN_POINT ( 'NONE',  ( 1.410307233250345916E-67, -6.504553558662607101E-35, 0.000000000000000000 ) ) ;
#70 = AXIS2_PLACEMENT_3D ( 'NONE', #56, #220, #6 ) ;
#71 = CYLINDRICAL_SURFACE ( 'NONE', #31, 0.1249999999999999306 ) ;
#72 = CIRCLE ( 'NONE', #300, 0.1250000000000000555 ) ;
#73 = EDGE_CURVE ( 'NONE', #197, #173, #213, .T. ) ;
#74 = DIRECTION ( 'NONE',  ( 1.000000000000000000, 2.168184519554202467E-33, 0.000000000000000000 ) ) ;
#75 = SURFACE_STYLE_USAGE ( .BOTH. , #170 ) ;
#76 = COLOUR_RGB ( '',1.000000000000000000, 0.000000000000000000, 0.000000000000000000 ) ;
#77 =( CONVERSION_BASED_UNIT ( 'INCH', #129 ) LENGTH_UNIT ( ) NAMED_UNIT ( #203 ) );
#78 = ORIENTED_EDGE ( 'NONE', *, *, #145, .F. ) ;
#79 = CARTESIAN_POINT ( 'NONE',  ( -0.02999999999999999889, -1.300910711732521420E-34, 0.000000000000000000 ) ) ;
#80 = ORIENTED_EDGE ( 'NONE', *, *, #20, .T. ) ;
#81 = UNCERTAINTY_MEASURE_WITH_UNIT (LENGTH_MEASURE( 1.000000000000000082E-05 ), #186, 'distance_accuracy_value', 'NONE');
#82 =( NAMED_UNIT ( * ) SI_UNIT ( $, .STERADIAN. ) SOLID_ANGLE_UNIT ( ) );
#83 = EDGE_LOOP ( 'NONE', ( #14, #271 ) ) ;
#84 = SURFACE_STYLE_FILL_AREA ( #204 ) ;
#85 = DIRECTION ( 'NONE',  ( -1.213712763141083641E-16, 1.000000000000000000, 0.000000000000000000 ) ) ;
#86 = AXIS2_PLACEMENT_3D ( 'NONE', #115, #165, #262 ) ;
#87 =( LENGTH_UNIT ( ) NAMED_UNIT ( * ) SI_UNIT ( $, .METRE. ) );
#88 = DIRECTION ( 'NONE',  ( 1.000000000000000000, 0.000000000000000000, 0.000000000000000000 ) ) ;
#89 = APPLICATION_PROTOCOL_DEFINITION ( 'draft international standard', 'automotive_design', 1998, #159 ) ;
#90 = SURFACE_STYLE_USAGE ( .BOTH. , #278 ) ;
#91 = CARTESIAN_POINT ( 'NONE',  ( 2.289317910553982969E-16, 0.1092849986859956851, 0.000000000000000000 ) ) ;
#92 = EDGE_CURVE ( 'NONE', #197, #101, #124, .T. ) ;
#93 =( NAMED_UNIT ( * ) PLANE_ANGLE_UNIT ( ) SI_UNIT ( $, .RADIAN. ) );
#94 = FILL_AREA_STYLE_COLOUR ( '', #252 ) ;
#95 = PLANE ( 'NONE',  #166 ) ;
#96 = STYLED_ITEM ( 'NONE', ( #47 ), #167 ) ;
#97 = SURFACE_STYLE_FILL_AREA ( #42 ) ;
#98 =( GEOMETRIC_REPRESENTATION_CONTEXT ( 3 ) GLOBAL_UNCERTAINTY_ASSIGNED_CONTEXT ( ( #63 ) ) GLOBAL_UNIT_ASSIGNED_CONTEXT ( ( #308, #258, #146 ) ) REPRESENTATION_CONTEXT ( 'NONE', 'WORKASPACE' ) );
#99 = FACE_OUTER_BOUND ( 'NONE', #130, .T. ) ;
#100 = DIRECTION ( 'NONE',  ( -2.168184519554202125E-33, 1.000000000000000000, 0.000000000000000000 ) ) ;
#101 = VERTEX_POINT ( 'NONE', #27 ) ;
#102 = ORIENTED_EDGE ( 'NONE', *, *, #136, .F. ) ;
#103 = ORIENTED_EDGE ( 'NONE', *, *, #259, .T. ) ;
#104 = CARTESIAN_POINT ( 'NONE',  ( -0.02999999999999999889, -1.300910711732521420E-34, 0.000000000000000000 ) ) ;
#105 = PRESENTATION_STYLE_ASSIGNMENT (( #131 ) ) ;
#106 = DIMENSIONAL_EXPONENTS ( 1.000000000000000000, 0.000000000000000000, 0.000000000000000000, 0.000000000000000000, 0.000000000000000000, 0.000000000000000000, 0.000000000000000000 ) ;
#107 = AXIS2_PLACEMENT_3D ( 'NONE', #139, #161, #116 ) ;
#108 = PRODUCT ( '84602', '84602', '', ( #157 ) ) ;
#109 = CYLINDRICAL_SURFACE ( 'NONE', #29, 0.1249999999999999306 ) ;
#110 = ORIENTED_EDGE ( 'NONE', *, *, #160, .T. ) ;
#111 = PRODUCT_DEFINITION_CONTEXT ( 'detailed design', #159, 'design' ) ;
#112 = APPLICATION_PROTOCOL_DEFINITION ( 'draft international standard', 'automotive_design', 1998, #180 ) ;
#113 = ADVANCED_FACE ( 'NONE', ( #45 ), #95, .F. ) ;
#114 = SURFACE_STYLE_USAGE ( .BOTH. , #306 ) ;
#115 = CARTESIAN_POINT ( 'NONE',  ( 7.051536166251729578E-68, -3.252276779331303550E-35, 0.000000000000000000 ) ) ;
#116 = DIRECTION ( 'NONE',  ( 1.000000000000000000, 0.000000000000000000, 0.000000000000000000 ) ) ;
#117 = PRESENTATION_STYLE_ASSIGNMENT (( #90 ) ) ;
#118 =( GEOMETRIC_REPRESENTATION_CONTEXT ( 3 ) GLOBAL_UNCERTAINTY_ASSIGNED_CONTEXT ( ( #49 ) ) GLOBAL_UNIT_ASSIGNED_CONTEXT ( ( #33, #125, #82 ) ) REPRESENTATION_CONTEXT ( 'NONE', 'WORKASPACE' ) );
#119 = DIRECTION ( 'NONE',  ( 1.213712763141083641E-16, -1.000000000000000000, 0.000000000000000000 ) ) ;
#120 = MECHANICAL_DESIGN_GEOMETRIC_PRESENTATION_REPRESENTATION (  '', ( #198 ), #222 ) ;
#121 = CARTESIAN_POINT ( 'NONE',  ( 0.1249999999999999861, 0.1092849986859955602, 1.530808498934191201E-17 ) ) ;
#122 = DIRECTION ( 'NONE',  ( -1.000000000000000000, 0.000000000000000000, 0.000000000000000000 ) ) ;
#123 = CIRCLE ( 'NONE', #297, 0.02999999999999999889 ) ;
#124 = CIRCLE ( 'NONE', #284, 0.1249999999999997780 ) ;
#125 =( NAMED_UNIT ( * ) PLANE_ANGLE_UNIT ( ) SI_UNIT ( $, .RADIAN. ) );
#126 = PRESENTATION_STYLE_ASSIGNMENT (( #201 ) ) ;
#127 = EDGE_LOOP ( 'NONE', ( #58, #78, #103, #246 ) ) ;
#128 = UNCERTAINTY_MEASURE_WITH_UNIT (LENGTH_MEASURE( 1.000000000000000082E-05 ), #77, 'distance_accuracy_value', 'NONE');
#129 = LENGTH_MEASURE_WITH_UNIT ( LENGTH_MEASURE( 0.02539999999999999897 ), #224 );
#130 = EDGE_LOOP ( 'NONE', ( #205, #5 ) ) ;
#131 = SURFACE_STYLE_USAGE ( .BOTH. , #153 ) ;
#132 = CARTESIAN_POINT ( 'NONE',  ( 0.1249999999999999861, 2.500000000000000000, 1.530808498934191509E-17 ) ) ;
#133 = ORIENTED_EDGE ( 'NONE', *, *, #73, .T. ) ;
#134 = AXIS2_PLACEMENT_3D ( 'NONE', #219, #298, #148 ) ;
#135 = CIRCLE ( 'NONE', #276, 0.1250000000000000000 ) ;
#136 = EDGE_CURVE ( 'NONE', #173, #32, #72, .T. ) ;
#137 = LENGTH_MEASURE_WITH_UNIT ( LENGTH_MEASURE( 0.02539999999999999897 ), #87 );
#138 = MECHANICAL_DESIGN_GEOMETRIC_PRESENTATION_REPRESENTATION (  '', ( #304 ), #264 ) ;
#139 = CARTESIAN_POINT ( 'NONE',  ( 0.000000000000000000, 0.000000000000000000, 0.000000000000000000 ) ) ;
#140 = DIRECTION ( 'NONE',  ( -1.000000000000000000, 0.000000000000000000, 0.000000000000000000 ) ) ;
#141 = DIRECTION ( 'NONE',  ( 2.168184519554202125E-33, -1.000000000000000000, -0.000000000000000000 ) ) ;
#142 = COLOUR_RGB ( '',0.7921568627450980005, 0.8196078431372548767, 0.9333333333333333481 ) ;
#143 = EDGE_CURVE ( 'NONE', #32, #173, #248, .T. ) ;
#144 = CARTESIAN_POINT ( 'NONE',  ( 0.1249999999999998612, 2.500000000000000000, 1.530808498934190893E-17 ) ) ;
#145 = EDGE_CURVE ( 'NONE', #243, #200, #24, .T. ) ;
#146 =( NAMED_UNIT ( * ) SI_UNIT ( $, .STERADIAN. ) SOLID_ANGLE_UNIT ( ) );
#147 = PRESENTATION_LAYER_ASSIGNMENT (  '', '', ( #304 ) ) ;
#148 = DIRECTION ( 'NONE',  ( 1.000000000000000000, 0.000000000000000000, 0.000000000000000000 ) ) ;
#149 =( NAMED_UNIT ( * ) SI_UNIT ( $, .STERADIAN. ) SOLID_ANGLE_UNIT ( ) );
#150 = VERTEX_POINT ( 'NONE', #121 ) ;
#151 = CARTESIAN_POINT ( 'NONE',  ( -6.123233995736766036E-17, 2.500000000000000000, 0.000000000000000000 ) ) ;
#152 = CARTESIAN_POINT ( 'NONE',  ( 0.1249999999999999861, 0.1092849986859956990, 1.530808498934191509E-17 ) ) ;
#153 = SURFACE_SIDE_STYLE ('',( #299 ) ) ;
#154 = AXIS2_PLACEMENT_3D ( 'NONE', #43, #169, #140 ) ;
#155 = EDGE_LOOP ( 'NONE', ( #175, #110 ) ) ;
#156 = PRODUCT_DEFINITION_SHAPE ( 'NONE', 'NONE',  #239 ) ;
#157 = PRODUCT_CONTEXT ( 'NONE', #180, 'mechanical' ) ;
#158 = MECHANICAL_DESIGN_GEOMETRIC_PRESENTATION_REPRESENTATION (  '', ( #253 ), #41 ) ;
#159 = APPLICATION_CONTEXT ( 'automotive_design' ) ;
#160 = EDGE_CURVE ( 'NONE', #200, #243, #123, .T. ) ;
#161 = DIRECTION ( 'NONE',  ( 0.000000000000000000, 0.000000000000000000, 1.000000000000000000 ) ) ;
#162 = SURFACE_STYLE_FILL_AREA ( #281 ) ;
#163 = DIRECTION ( 'NONE',  ( -1.000000000000000000, -1.365923996832134074E-16, 0.000000000000000000 ) ) ;
#164 = PRESENTATION_LAYER_ASSIGNMENT (  '', '', ( #96 ) ) ;
#165 = DIRECTION ( 'NONE',  ( 2.168184519554202125E-33, -1.000000000000000000, -0.000000000000000000 ) ) ;
#166 = AXIS2_PLACEMENT_3D ( 'NONE', #192, #119, #67 ) ;
#167 = ADVANCED_FACE ( 'NONE', ( #171 ), #168, .T. ) ;
#168 = CONICAL_SURFACE ( 'NONE', #202, 0.02999999999999999889, 0.7155849933176765543 ) ;
#169 = DIRECTION ( 'NONE',  ( -1.213712763141083641E-16, 1.000000000000000000, -0.000000000000000000 ) ) ;
#170 = SURFACE_SIDE_STYLE ('',( #97 ) ) ;
#171 = FACE_OUTER_BOUND ( 'NONE', #127, .T. ) ;
#172 = CLOSED_SHELL ( 'NONE', ( #50, #296, #277, #113 ) ) ;
#173 = VERTEX_POINT ( 'NONE', #132 ) ;
#174 = CARTESIAN_POINT ( 'NONE',  ( 0.02999999999999999889, 0.000000000000000000, 3.673940397442059190E-18 ) ) ;
#175 = ORIENTED_EDGE ( 'NONE', *, *, #145, .T. ) ;
#176 = MECHANICAL_DESIGN_GEOMETRIC_PRESENTATION_REPRESENTATION (  '', ( #96 ), #118 ) ;
#177 = LINE ( 'NONE', #174, #279 ) ;
#178 = DIMENSIONAL_EXPONENTS ( 1.000000000000000000, 0.000000000000000000, 0.000000000000000000, 0.000000000000000000, 0.000000000000000000, 0.000000000000000000, 0.000000000000000000 ) ;
#179 = VECTOR ( 'NONE', #218, 39.37007874015748143 ) ;
#180 = APPLICATION_CONTEXT ( 'automotive_design' ) ;
#181 = LENGTH_MEASURE_WITH_UNIT ( LENGTH_MEASURE( 0.02539999999999999897 ), #210 );
#182 = PRESENTATION_LAYER_ASSIGNMENT (  '', '', ( #198 ) ) ;
#183 =( NAMED_UNIT ( * ) SI_UNIT ( $, .STERADIAN. ) SOLID_ANGLE_UNIT ( ) );
#184 =( NAMED_UNIT ( * ) PLANE_ANGLE_UNIT ( ) SI_UNIT ( $, .RADIAN. ) );
#185 = EDGE_CURVE ( 'NONE', #7, #150, #38, .T. ) ;
#186 =( CONVERSION_BASED_UNIT ( 'INCH', #137 ) LENGTH_UNIT ( ) NAMED_UNIT ( #9 ) );
#187 = PRODUCT_DEFINITION_FORMATION_WITH_SPECIFIED_SOURCE ( 'ANY', '', #108, .NOT_KNOWN. ) ;
#188 =( NAMED_UNIT ( * ) SI_UNIT ( $, .STERADIAN. ) SOLID_ANGLE_UNIT ( ) );
#189 = FACE_OUTER_BOUND ( 'NONE', #294, .T. ) ;
#190 =( LENGTH_UNIT ( ) NAMED_UNIT ( * ) SI_UNIT ( $, .METRE. ) );
#191 = VECTOR ( 'NONE', #13, 39.37007874015748143 ) ;
#192 = CARTESIAN_POINT ( 'NONE',  ( 0.1250000000000000000, 2.500000000000000000, 0.000000000000000000 ) ) ;
#193 = CARTESIAN_POINT ( 'NONE',  ( -0.1250000000000001388, 2.500000000000000000, 0.000000000000000000 ) ) ;
#194 = AXIS2_PLACEMENT_3D ( 'NONE', #69, #141, #74 ) ;
#195 = CARTESIAN_POINT ( 'NONE',  ( -6.123233995736766036E-17, 2.500000000000000000, 0.000000000000000000 ) ) ;
#196 = CARTESIAN_POINT ( 'NONE',  ( 0.02999999999999999889, 0.000000000000000000, 9.491012693391986370E-18 ) ) ;
#197 = VERTEX_POINT ( 'NONE', #152 ) ;
#198 = STYLED_ITEM ( 'NONE', ( #105 ), #8 ) ;
#199 = FACE_OUTER_BOUND ( 'NONE', #266, .T. ) ;
#200 = VERTEX_POINT ( 'NONE', #196 ) ;
#201 = SURFACE_STYLE_USAGE ( .BOTH. , #293 ) ;
#202 = AXIS2_PLACEMENT_3D ( 'NONE', #283, #100, #241 ) ;
#203 = DIMENSIONAL_EXPONENTS ( 1.000000000000000000, 0.000000000000000000, 0.000000000000000000, 0.000000000000000000, 0.000000000000000000, 0.000000000000000000, 0.000000000000000000 ) ;
#204 = FILL_AREA_STYLE ('',( #242 ) ) ;
#205 = ORIENTED_EDGE ( 'NONE', *, *, #185, .F. ) ;
#206 = PRODUCT_RELATED_PRODUCT_CATEGORY ( 'part', '', ( #108 ) ) ;
#207 = CARTESIAN_POINT ( 'NONE',  ( -0.1250000000000000000, 2.500000000000000000, 0.000000000000000000 ) ) ;
#208 =( NAMED_UNIT ( * ) PLANE_ANGLE_UNIT ( ) SI_UNIT ( $, .RADIAN. ) );
#209 = PLANE ( 'NONE',  #64 ) ;
#210 =( LENGTH_UNIT ( ) NAMED_UNIT ( * ) SI_UNIT ( $, .METRE. ) );
#211 = AXIS2_PLACEMENT_3D ( 'NONE', #237, #236, #28 ) ;
#212 =( GEOMETRIC_REPRESENTATION_CONTEXT ( 3 ) GLOBAL_UNCERTAINTY_ASSIGNED_CONTEXT ( ( #292 ) ) GLOBAL_UNIT_ASSIGNED_CONTEXT ( ( #61, #184, #188 ) ) REPRESENTATION_CONTEXT ( 'NONE', 'WORKASPACE' ) );
#213 = LINE ( 'NONE', #144, #179 ) ;
#214 = DIRECTION ( 'NONE',  ( -1.000000000000000000, -1.365923996832134074E-16, 0.000000000000000000 ) ) ;
#215 = LENGTH_MEASURE_WITH_UNIT ( LENGTH_MEASURE( 0.02539999999999999897 ), #190 );
#216 = CONICAL_SURFACE ( 'NONE', #70, 0.02999999999999999889, 0.7155849933176765543 ) ;
#217 = CARTESIAN_POINT ( 'NONE',  ( 2.289317910553982969E-16, 0.1092849986859956851, 0.000000000000000000 ) ) ;
#218 = DIRECTION ( 'NONE',  ( -1.213712763141083641E-16, 1.000000000000000000, -0.000000000000000000 ) ) ;
#219 = CARTESIAN_POINT ( 'NONE',  ( -2.369500423704769015E-34, 0.1092849986859955602, 0.000000000000000000 ) ) ;
#220 = DIRECTION ( 'NONE',  ( -2.168184519554202125E-33, 1.000000000000000000, 0.000000000000000000 ) ) ;
#221 = ORIENTED_EDGE ( 'NONE', *, *, #143, .F. ) ;
#222 =( GEOMETRIC_REPRESENTATION_CONTEXT ( 3 ) GLOBAL_UNCERTAINTY_ASSIGNED_CONTEXT ( ( #227 ) ) GLOBAL_UNIT_ASSIGNED_CONTEXT ( ( #19, #93, #62 ) ) REPRESENTATION_CONTEXT ( 'NONE', 'WORKASPACE' ) );
#223 = ORIENTED_EDGE ( 'NONE', *, *, #286, .T. ) ;
#224 =( LENGTH_UNIT ( ) NAMED_UNIT ( * ) SI_UNIT ( $, .METRE. ) );
#225 = ORIENTED_EDGE ( 'NONE', *, *, #160, .F. ) ;
#226 = ORIENTED_EDGE ( 'NONE', *, *, #92, .T. ) ;
#227 = UNCERTAINTY_MEASURE_WITH_UNIT (LENGTH_MEASURE( 1.000000000000000082E-05 ), #19, 'distance_accuracy_value', 'NONE');
#228 = MECHANICAL_DESIGN_GEOMETRIC_PRESENTATION_REPRESENTATION (  '', ( #46 ), #212 ) ;
#229 = EDGE_CURVE ( 'NONE', #200, #150, #177, .T. ) ;
#230 = AXIS2_PLACEMENT_3D ( 'NONE', #91, #255, #163 ) ;
#231 = MECHANICAL_DESIGN_GEOMETRIC_PRESENTATION_REPRESENTATION (  '', ( #272 ), #98 ) ;
#232 = CARTESIAN_POINT ( 'NONE',  ( 2.289317910553982969E-16, 0.1092849986859955602, 0.000000000000000000 ) ) ;
#233 = PRESENTATION_STYLE_ASSIGNMENT (( #114 ) ) ;
#234 = PLANE ( 'NONE',  #211 ) ;
#235 = COLOUR_RGB ( '',0.7921568627450980005, 0.8196078431372548767, 0.9333333333333333481 ) ;
#236 = DIRECTION ( 'NONE',  ( -2.168184519554202125E-33, 1.000000000000000000, 0.000000000000000000 ) ) ;
#237 = CARTESIAN_POINT ( 'NONE',  ( -2.369500423704768587E-34, 0.1092849986859955463, 0.000000000000000000 ) ) ;
#238 = CARTESIAN_POINT ( 'NONE',  ( 1.410307233250345916E-67, -6.504553558662607101E-35, 0.000000000000000000 ) ) ;
#239 = PRODUCT_DEFINITION ( 'UNKNOWN', '', #187, #111 ) ;
#240 = DIRECTION ( 'NONE',  ( -1.213712763141083641E-16, 1.000000000000000000, -0.000000000000000000 ) ) ;
#241 = DIRECTION ( 'NONE',  ( -1.000000000000000000, -2.168184519554202467E-33, 0.000000000000000000 ) ) ;
#242 = FILL_AREA_STYLE_COLOUR ( '', #244 ) ;
#243 = VERTEX_POINT ( 'NONE', #104 ) ;
#244 = COLOUR_RGB ( '',1.000000000000000000, 0.000000000000000000, 0.000000000000000000 ) ;
#245 =( LENGTH_UNIT ( ) NAMED_UNIT ( * ) SI_UNIT ( $, .METRE. ) );
#246 = ORIENTED_EDGE ( 'NONE', *, *, #185, .T. ) ;
#247 = DIRECTION ( 'NONE',  ( 0.6560590289905083861, 0.7547095802227710148, 8.034405899049467357E-17 ) ) ;
#248 = CIRCLE ( 'NONE', #154, 0.1250000000000000555 ) ;
#249 = ORIENTED_EDGE ( 'NONE', *, *, #73, .F. ) ;
#250 = ADVANCED_FACE ( 'NONE', ( #199 ), #216, .T. ) ;
#251 = DIRECTION ( 'NONE',  ( -1.213712763141083641E-16, 1.000000000000000000, -0.000000000000000000 ) ) ;
#252 = COLOUR_RGB ( '',1.000000000000000000, 0.000000000000000000, 0.000000000000000000 ) ;
#253 = STYLED_ITEM ( 'NONE', ( #233 ), #30 ) ;
#254 = SHAPE_DEFINITION_REPRESENTATION ( #156, #280 ) ;
#255 = DIRECTION ( 'NONE',  ( -1.213712763141083641E-16, 1.000000000000000000, -0.000000000000000000 ) ) ;
#256 = SURFACE_STYLE_FILL_AREA ( #302 ) ;
#257 = FILL_AREA_STYLE_COLOUR ( '', #76 ) ;
#258 =( NAMED_UNIT ( * ) PLANE_ANGLE_UNIT ( ) SI_UNIT ( $, .RADIAN. ) );
#259 = EDGE_CURVE ( 'NONE', #243, #7, #4, .T. ) ;
#260 = CARTESIAN_POINT ( 'NONE',  ( -6.123233995736766036E-17, 2.500000000000000000, 0.000000000000000000 ) ) ;
#261 = FILL_AREA_STYLE_COLOUR ( '', #57 ) ;
#262 = DIRECTION ( 'NONE',  ( 1.000000000000000000, 2.168184519554202125E-33, 0.000000000000000000 ) ) ;
#263 = FILL_AREA_STYLE ('',( #94 ) ) ;
#264 =( GEOMETRIC_REPRESENTATION_CONTEXT ( 3 ) GLOBAL_UNCERTAINTY_ASSIGNED_CONTEXT ( ( #128 ) ) GLOBAL_UNIT_ASSIGNED_CONTEXT ( ( #77, #270, #149 ) ) REPRESENTATION_CONTEXT ( 'NONE', 'WORKASPACE' ) );
#265 = LENGTH_MEASURE_WITH_UNIT ( LENGTH_MEASURE( 0.02539999999999999897 ), #245 );
#266 = EDGE_LOOP ( 'NONE', ( #225, #36, #80, #34 ) ) ;
#267 = CARTESIAN_POINT ( 'NONE',  ( -2.369500423704769015E-34, 0.1092849986859955602, 0.000000000000000000 ) ) ;
#268 = FACE_OUTER_BOUND ( 'NONE', #295, .T. ) ;
#269 = ORIENTED_EDGE ( 'NONE', *, *, #289, .F. ) ;
#270 =( NAMED_UNIT ( * ) PLANE_ANGLE_UNIT ( ) SI_UNIT ( $, .RADIAN. ) );
#271 = ORIENTED_EDGE ( 'NONE', *, *, #136, .T. ) ;
#272 = STYLED_ITEM ( 'NONE', ( #2 ), #68 ) ;
#273 = DIMENSIONAL_EXPONENTS ( 1.000000000000000000, 0.000000000000000000, 0.000000000000000000, 0.000000000000000000, 0.000000000000000000, 0.000000000000000000, 0.000000000000000000 ) ;
#274 =( LENGTH_UNIT ( ) NAMED_UNIT ( * ) SI_UNIT ( $, .METRE. ) );
#275 = DIRECTION ( 'NONE',  ( -1.000000000000000000, 0.000000000000000000, 0.000000000000000000 ) ) ;
#276 = AXIS2_PLACEMENT_3D ( 'NONE', #267, #17, #88 ) ;
#277 = ADVANCED_FACE ( 'NONE', ( #268 ), #109, .T. ) ;
#278 = SURFACE_SIDE_STYLE ('',( #256 ) ) ;
#279 = VECTOR ( 'NONE', #247, 39.37007874015748143 ) ;
#280 = ADVANCED_BREP_SHAPE_REPRESENTATION ( '84602', ( #8, #21, #107 ), #12 ) ;
#281 = FILL_AREA_STYLE ('',( #257 ) ) ;
#282 = DIRECTION ( 'NONE',  ( -1.000000000000000000, 0.000000000000000000, 0.000000000000000000 ) ) ;
#283 = CARTESIAN_POINT ( 'NONE',  ( 1.410307233250345916E-67, -6.504553558662607101E-35, 0.000000000000000000 ) ) ;
#284 = AXIS2_PLACEMENT_3D ( 'NONE', #217, #26, #214 ) ;
#285 = DIRECTION ( 'NONE',  ( -1.213712763141083641E-16, 1.000000000000000000, -0.000000000000000000 ) ) ;
#286 = EDGE_CURVE ( 'NONE', #101, #32, #23, .T. ) ;
#287 = SURFACE_STYLE_FILL_AREA ( #263 ) ;
#288 = SURFACE_STYLE_USAGE ( .BOTH. , #35 ) ;
#289 = EDGE_CURVE ( 'NONE', #101, #197, #37, .T. ) ;
#290 = PRESENTATION_LAYER_ASSIGNMENT (  '', '', ( #253 ) ) ;
#291 = ORIENTED_EDGE ( 'NONE', *, *, #289, .T. ) ;
#292 = UNCERTAINTY_MEASURE_WITH_UNIT (LENGTH_MEASURE( 1.000000000000000082E-05 ), #61, 'distance_accuracy_value', 'NONE');
#293 = SURFACE_SIDE_STYLE ('',( #84 ) ) ;
#294 = EDGE_LOOP ( 'NONE', ( #291, #133, #221, #48 ) ) ;
#295 = EDGE_LOOP ( 'NONE', ( #249, #226, #223, #102 ) ) ;
#296 = ADVANCED_FACE ( 'NONE', ( #18 ), #209, .F. ) ;
#297 = AXIS2_PLACEMENT_3D ( 'NONE', #238, #309, #44 ) ;
#298 = DIRECTION ( 'NONE',  ( 2.168184519554202125E-33, -1.000000000000000000, -0.000000000000000000 ) ) ;
#299 = SURFACE_STYLE_FILL_AREA ( #51 ) ;
#300 = AXIS2_PLACEMENT_3D ( 'NONE', #195, #285, #282 ) ;
#301 = DIRECTION ( 'NONE',  ( -1.000000000000000000, -1.213712763141083641E-16, 0.000000000000000000 ) ) ;
#302 = FILL_AREA_STYLE ('',( #66 ) ) ;
#303 =( NAMED_UNIT ( * ) SI_UNIT ( $, .STERADIAN. ) SOLID_ANGLE_UNIT ( ) );
#304 = STYLED_ITEM ( 'NONE', ( #126 ), #250 ) ;
#305 = LENGTH_MEASURE_WITH_UNIT ( LENGTH_MEASURE( 0.02539999999999999897 ), #274 );
#306 = SURFACE_SIDE_STYLE ('',( #162 ) ) ;
#307 = CLOSED_SHELL ( 'NONE', ( #250, #68, #167, #30 ) ) ;
#308 =( CONVERSION_BASED_UNIT ( 'INCH', #215 ) LENGTH_UNIT ( ) NAMED_UNIT ( #106 ) );
#309 = DIRECTION ( 'NONE',  ( 2.168184519554202125E-33, -1.000000000000000000, -0.000000000000000000 ) ) ;
ENDSEC;
END-ISO-10303-21;
