ISO-10303-21;
HEADER;
FILE_DESCRIPTION (( 'STEP AP214' ),
    '1' );
FILE_NAME ('81402.STEP',
    '2023-06-23T01:08:59',
    ( '' ),
    ( '' ),
    'SwSTEP 2.0',
    'SolidWorks 2023',
    '' );
FILE_SCHEMA (( 'AUTOMOTIVE_DESIGN' ));
ENDSEC;

DATA;
#1 = DIRECTION ( 'NONE',  ( -6.997981709413449187E-17, 1.000000000000000000, -0.000000000000000000 ) ) ;
#2 = CIRCLE ( 'NONE', #18, 0.1250000000000000000 ) ;
#3 = VERTEX_POINT ( 'NONE', #174 ) ;
#4 = SURFACE_STYLE_USAGE ( .BOTH. , #193 ) ;
#5 = DIRECTION ( 'NONE',  ( 0.000000000000000000, 0.000000000000000000, -1.000000000000000000 ) ) ;
#6 = DIRECTION ( 'NONE',  ( 0.000000000000000000, -0.000000000000000000, 1.000000000000000000 ) ) ;
#7 = ORIENTED_EDGE ( 'NONE', *, *, #66, .T. ) ;
#8 = AXIS2_PLACEMENT_3D ( 'NONE', #38, #179, #153 ) ;
#9 = SURFACE_SIDE_STYLE ('',( #164 ) ) ;
#10 = DIRECTION ( 'NONE',  ( 0.000000000000000000, 0.000000000000000000, -1.000000000000000000 ) ) ;
#11 = FACE_OUTER_BOUND ( 'NONE', #14, .T. ) ;
#12 = VECTOR ( 'NONE', #1, 39.37007874015748143 ) ;
#13 = MECHANICAL_DESIGN_GEOMETRIC_PRESENTATION_REPRESENTATION (  '', ( #102 ), #21 ) ;
#14 = EDGE_LOOP ( 'NONE', ( #265, #278, #48, #103 ) ) ;
#15 = VERTEX_POINT ( 'NONE', #126 ) ;
#16 = SURFACE_SIDE_STYLE ('',( #89 ) ) ;
#17 = CIRCLE ( 'NONE', #163, 0.1250000000000000000 ) ;
#18 = AXIS2_PLACEMENT_3D ( 'NONE', #240, #197, #290 ) ;
#19 =( NAMED_UNIT ( * ) PLANE_ANGLE_UNIT ( ) SI_UNIT ( $, .RADIAN. ) );
#20 = CLOSED_SHELL ( 'NONE', ( #277, #68, #45, #279 ) ) ;
#21 =( GEOMETRIC_REPRESENTATION_CONTEXT ( 3 ) GLOBAL_UNCERTAINTY_ASSIGNED_CONTEXT ( ( #162 ) ) GLOBAL_UNIT_ASSIGNED_CONTEXT ( ( #198, #234, #99 ) ) REPRESENTATION_CONTEXT ( 'NONE', 'WORKASPACE' ) );
#22 = DIMENSIONAL_EXPONENTS ( 1.000000000000000000, 0.000000000000000000, 0.000000000000000000, 0.000000000000000000, 0.000000000000000000, 0.000000000000000000, 0.000000000000000000 ) ;
#23 = UNCERTAINTY_MEASURE_WITH_UNIT (LENGTH_MEASURE( 1.000000000000000082E-05 ), #79, 'distance_accuracy_value', 'NONE');
#24 = VECTOR ( 'NONE', #37, 39.37007874015748143 ) ;
#25 = DIRECTION ( 'NONE',  ( -6.997981709413449187E-17, 1.000000000000000000, 0.000000000000000000 ) ) ;
#26 = PRESENTATION_LAYER_ASSIGNMENT (  '', '', ( #138 ) ) ;
#27 = AXIS2_PLACEMENT_3D ( 'NONE', #243, #32, #286 ) ;
#28 = SURFACE_STYLE_USAGE ( .BOTH. , #9 ) ;
#29 = FACE_OUTER_BOUND ( 'NONE', #292, .T. ) ;
#30 = EDGE_CURVE ( 'NONE', #36, #156, #53, .T. ) ;
#31 =( LENGTH_UNIT ( ) NAMED_UNIT ( * ) SI_UNIT ( $, .METRE. ) );
#32 = DIRECTION ( 'NONE',  ( -0.000000000000000000, -1.000000000000000000, -0.000000000000000000 ) ) ;
#33 = ORIENTED_EDGE ( 'NONE', *, *, #274, .T. ) ;
#34 = CARTESIAN_POINT ( 'NONE',  ( -0.1250000000000001943, 3.000000000000000444, 0.000000000000000000 ) ) ;
#35 = SURFACE_STYLE_USAGE ( .BOTH. , #92 ) ;
#36 = VERTEX_POINT ( 'NONE', #225 ) ;
#37 = DIRECTION ( 'NONE',  ( -0.000000000000000000, -1.000000000000000000, -0.000000000000000000 ) ) ;
#38 = CARTESIAN_POINT ( 'NONE',  ( -1.224646799147353700E-16, 3.000000000000000444, 0.000000000000000000 ) ) ;
#39 = AXIS2_PLACEMENT_3D ( 'NONE', #176, #297, #5 ) ;
#40 = EDGE_CURVE ( 'NONE', #224, #149, #41, .T. ) ;
#41 = CIRCLE ( 'NONE', #158, 0.1250000000000000000 ) ;
#42 = UNCERTAINTY_MEASURE_WITH_UNIT (LENGTH_MEASURE( 1.000000000000000082E-05 ), #175, 'distance_accuracy_value', 'NONE');
#43 = LENGTH_MEASURE_WITH_UNIT ( LENGTH_MEASURE( 0.02539999999999999897 ), #95 );
#44 = EDGE_CURVE ( 'NONE', #3, #156, #202, .T. ) ;
#45 = ADVANCED_FACE ( 'NONE', ( #242 ), #298, .T. ) ;
#46 = APPLICATION_PROTOCOL_DEFINITION ( 'draft international standard', 'automotive_design', 1998, #168 ) ;
#47 =( LENGTH_UNIT ( ) NAMED_UNIT ( * ) SI_UNIT ( $, .METRE. ) );
#48 = ORIENTED_EDGE ( 'NONE', *, *, #133, .T. ) ;
#49 = VECTOR ( 'NONE', #97, 39.37007874015748143 ) ;
#50 = PRESENTATION_LAYER_ASSIGNMENT (  '', '', ( #192 ) ) ;
#51 = DIRECTION ( 'NONE',  ( -0.000000000000000000, -1.000000000000000000, -0.000000000000000000 ) ) ;
#52 = DIRECTION ( 'NONE',  ( 0.000000000000000000, 0.000000000000000000, -1.000000000000000000 ) ) ;
#53 = LINE ( 'NONE', #208, #24 ) ;
#54 =( CONVERSION_BASED_UNIT ( 'INCH', #302 ) LENGTH_UNIT ( ) NAMED_UNIT ( #263 ) );
#55 = ORIENTED_EDGE ( 'NONE', *, *, #295, .T. ) ;
#56 = COLOUR_RGB ( '',1.000000000000000000, 0.000000000000000000, 0.000000000000000000 ) ;
#57 = ORIENTED_EDGE ( 'NONE', *, *, #133, .F. ) ;
#58 =( NAMED_UNIT ( * ) SI_UNIT ( $, .STERADIAN. ) SOLID_ANGLE_UNIT ( ) );
#59 = DIRECTION ( 'NONE',  ( -6.997981709413449187E-17, 1.000000000000000000, -0.000000000000000000 ) ) ;
#60 = CYLINDRICAL_SURFACE ( 'NONE', #39, 0.1250000000000000000 ) ;
#61 = MECHANICAL_DESIGN_GEOMETRIC_PRESENTATION_REPRESENTATION (  '', ( #203 ), #75 ) ;
#62 = CARTESIAN_POINT ( 'NONE',  ( -0.1250000000000002498, 3.000000000000000444, 0.000000000000000000 ) ) ;
#63 = DIRECTION ( 'NONE',  ( 0.000000000000000000, 0.000000000000000000, 1.000000000000000000 ) ) ;
#64 = PRESENTATION_LAYER_ASSIGNMENT (  '', '', ( #203 ) ) ;
#65 = DIRECTION ( 'NONE',  ( 0.000000000000000000, 1.000000000000000000, 0.000000000000000000 ) ) ;
#66 = EDGE_CURVE ( 'NONE', #149, #15, #283, .T. ) ;
#67 =( GEOMETRIC_REPRESENTATION_CONTEXT ( 3 ) GLOBAL_UNCERTAINTY_ASSIGNED_CONTEXT ( ( #211 ) ) GLOBAL_UNIT_ASSIGNED_CONTEXT ( ( #236, #71, #117 ) ) REPRESENTATION_CONTEXT ( 'NONE', 'WORKASPACE' ) );
#68 = ADVANCED_FACE ( 'NONE', ( #306 ), #231, .F. ) ;
#69 = ORIENTED_EDGE ( 'NONE', *, *, #66, .F. ) ;
#70 = FACE_OUTER_BOUND ( 'NONE', #272, .T. ) ;
#71 =( NAMED_UNIT ( * ) PLANE_ANGLE_UNIT ( ) SI_UNIT ( $, .RADIAN. ) );
#72 = SURFACE_STYLE_USAGE ( .BOTH. , #237 ) ;
#73 = EDGE_LOOP ( 'NONE', ( #33, #244, #170, #57 ) ) ;
#74 = FACE_OUTER_BOUND ( 'NONE', #73, .T. ) ;
#75 =( GEOMETRIC_REPRESENTATION_CONTEXT ( 3 ) GLOBAL_UNCERTAINTY_ASSIGNED_CONTEXT ( ( #84 ) ) GLOBAL_UNIT_ASSIGNED_CONTEXT ( ( #131, #113, #85 ) ) REPRESENTATION_CONTEXT ( 'NONE', 'WORKASPACE' ) );
#76 = CARTESIAN_POINT ( 'NONE',  ( -1.224646799147353700E-16, 3.000000000000000444, 0.000000000000000000 ) ) ;
#77 = CYLINDRICAL_SURFACE ( 'NONE', #285, 0.1250000000000000000 ) ;
#78 =( NAMED_UNIT ( * ) SI_UNIT ( $, .STERADIAN. ) SOLID_ANGLE_UNIT ( ) );
#79 =( CONVERSION_BASED_UNIT ( 'INCH', #152 ) LENGTH_UNIT ( ) NAMED_UNIT ( #258 ) );
#80 = ORIENTED_EDGE ( 'NONE', *, *, #44, .T. ) ;
#81 = PRODUCT_DEFINITION_FORMATION_WITH_SPECIFIED_SOURCE ( 'ANY', '', #210, .NOT_KNOWN. ) ;
#82 = DIRECTION ( 'NONE',  ( 1.000000000000000000, 6.997981709413449187E-17, 0.000000000000000000 ) ) ;
#83 = DIRECTION ( 'NONE',  ( 1.000000000000000000, 0.000000000000000000, 0.000000000000000000 ) ) ;
#84 = UNCERTAINTY_MEASURE_WITH_UNIT (LENGTH_MEASURE( 1.000000000000000082E-05 ), #131, 'distance_accuracy_value', 'NONE');
#85 =( NAMED_UNIT ( * ) SI_UNIT ( $, .STERADIAN. ) SOLID_ANGLE_UNIT ( ) );
#86 = CARTESIAN_POINT ( 'NONE',  ( 0.000000000000000000, 0.000000000000000000, 0.000000000000000000 ) ) ;
#87 =( GEOMETRIC_REPRESENTATION_CONTEXT ( 3 ) GLOBAL_UNCERTAINTY_ASSIGNED_CONTEXT ( ( #23 ) ) GLOBAL_UNIT_ASSIGNED_CONTEXT ( ( #79, #144, #78 ) ) REPRESENTATION_CONTEXT ( 'NONE', 'WORKASPACE' ) );
#88 = COLOUR_RGB ( '',1.000000000000000000, 0.000000000000000000, 0.000000000000000000 ) ;
#89 = SURFACE_STYLE_FILL_AREA ( #94 ) ;
#90 = ORIENTED_EDGE ( 'NONE', *, *, #232, .F. ) ;
#91 = PRESENTATION_STYLE_ASSIGNMENT (( #4 ) ) ;
#92 = SURFACE_SIDE_STYLE ('',( #245 ) ) ;
#93 = PRESENTATION_STYLE_ASSIGNMENT (( #28 ) ) ;
#94 = FILL_AREA_STYLE ('',( #114 ) ) ;
#95 =( LENGTH_UNIT ( ) NAMED_UNIT ( * ) SI_UNIT ( $, .METRE. ) );
#96 = ADVANCED_FACE ( 'NONE', ( #228 ), #288, .T. ) ;
#97 = DIRECTION ( 'NONE',  ( -0.000000000000000000, -1.000000000000000000, -0.000000000000000000 ) ) ;
#98 =( LENGTH_UNIT ( ) NAMED_UNIT ( * ) SI_UNIT ( $, .METRE. ) );
#99 =( NAMED_UNIT ( * ) SI_UNIT ( $, .STERADIAN. ) SOLID_ANGLE_UNIT ( ) );
#100 = ORIENTED_EDGE ( 'NONE', *, *, #40, .T. ) ;
#101 = FACE_OUTER_BOUND ( 'NONE', #206, .T. ) ;
#102 = STYLED_ITEM ( 'NONE', ( #180 ), #214 ) ;
#103 = ORIENTED_EDGE ( 'NONE', *, *, #111, .F. ) ;
#104 = EDGE_CURVE ( 'NONE', #149, #224, #145, .T. ) ;
#105 = CARTESIAN_POINT ( 'NONE',  ( 0.1250000000000000000, 1.250000000000000000, 1.530808498934192742E-17 ) ) ;
#106 = EDGE_LOOP ( 'NONE', ( #69, #212, #177, #157 ) ) ;
#107 = CARTESIAN_POINT ( 'NONE',  ( 3.060734250330323342E-34, 1.250000000000000000, 0.000000000000000000 ) ) ;
#108 = COLOUR_RGB ( '',1.000000000000000000, 0.000000000000000000, 0.000000000000000000 ) ;
#109 = AXIS2_PLACEMENT_3D ( 'NONE', #249, #251, #275 ) ;
#110 = LINE ( 'NONE', #34, #281 ) ;
#111 = EDGE_CURVE ( 'NONE', #156, #3, #17, .T. ) ;
#112 =( LENGTH_UNIT ( ) NAMED_UNIT ( * ) SI_UNIT ( $, .METRE. ) );
#113 =( NAMED_UNIT ( * ) PLANE_ANGLE_UNIT ( ) SI_UNIT ( $, .RADIAN. ) );
#114 = FILL_AREA_STYLE_COLOUR ( '', #108 ) ;
#115 = MECHANICAL_DESIGN_GEOMETRIC_PRESENTATION_REPRESENTATION (  '', ( #192 ), #209 ) ;
#116 = FILL_AREA_STYLE ('',( #186 ) ) ;
#117 =( NAMED_UNIT ( * ) SI_UNIT ( $, .STERADIAN. ) SOLID_ANGLE_UNIT ( ) );
#118 = PRODUCT_DEFINITION ( 'UNKNOWN', '', #81, #230 ) ;
#119 = CARTESIAN_POINT ( 'NONE',  ( 0.000000000000000000, 0.000000000000000000, 0.000000000000000000 ) ) ;
#120 =( GEOMETRIC_REPRESENTATION_CONTEXT ( 3 ) GLOBAL_UNCERTAINTY_ASSIGNED_CONTEXT ( ( #304 ) ) GLOBAL_UNIT_ASSIGNED_CONTEXT ( ( #54, #19, #58 ) ) REPRESENTATION_CONTEXT ( 'NONE', 'WORKASPACE' ) );
#121 = DIRECTION ( 'NONE',  ( -1.000000000000000000, 0.000000000000000000, 0.000000000000000000 ) ) ;
#122 = LENGTH_MEASURE_WITH_UNIT ( LENGTH_MEASURE( 0.02539999999999999897 ), #266 );
#123 = ORIENTED_EDGE ( 'NONE', *, *, #104, .F. ) ;
#124 = CARTESIAN_POINT ( 'NONE',  ( -1.224646799147353700E-16, 3.000000000000000444, 0.000000000000000000 ) ) ;
#125 = DIRECTION ( 'NONE',  ( -1.000000000000000000, 0.000000000000000000, 0.000000000000000000 ) ) ;
#126 = CARTESIAN_POINT ( 'NONE',  ( 0.1250000000000000000, 3.000000000000000444, 1.530808498934192742E-17 ) ) ;
#127 = SURFACE_STYLE_USAGE ( .BOTH. , #219 ) ;
#128 = MECHANICAL_DESIGN_GEOMETRIC_PRESENTATION_REPRESENTATION (  '', ( #138 ), #120 ) ;
#129 =( NAMED_UNIT ( * ) PLANE_ANGLE_UNIT ( ) SI_UNIT ( $, .RADIAN. ) );
#130 = PRESENTATION_LAYER_ASSIGNMENT (  '', '', ( #102 ) ) ;
#131 =( CONVERSION_BASED_UNIT ( 'INCH', #253 ) LENGTH_UNIT ( ) NAMED_UNIT ( #233 ) );
#132 =( GEOMETRIC_REPRESENTATION_CONTEXT ( 3 ) GLOBAL_UNCERTAINTY_ASSIGNED_CONTEXT ( ( #221 ) ) GLOBAL_UNIT_ASSIGNED_CONTEXT ( ( #273, #129, #226 ) ) REPRESENTATION_CONTEXT ( 'NONE', 'WORKASPACE' ) );
#133 = EDGE_CURVE ( 'NONE', #223, #3, #200, .T. ) ;
#134 = ADVANCED_FACE ( 'NONE', ( #29 ), #289, .T. ) ;
#135 = DIMENSIONAL_EXPONENTS ( 1.000000000000000000, 0.000000000000000000, 0.000000000000000000, 0.000000000000000000, 0.000000000000000000, 0.000000000000000000, 0.000000000000000000 ) ;
#136 = ORIENTED_EDGE ( 'NONE', *, *, #274, .F. ) ;
#137 = AXIS2_PLACEMENT_3D ( 'NONE', #76, #59, #235 ) ;
#138 = STYLED_ITEM ( 'NONE', ( #172 ), #134 ) ;
#139 = DIRECTION ( 'NONE',  ( -1.000000000000000000, -6.997981709413449187E-17, 0.000000000000000000 ) ) ;
#140 = CARTESIAN_POINT ( 'NONE',  ( 0.000000000000000000, 0.000000000000000000, 0.000000000000000000 ) ) ;
#141 = LENGTH_MEASURE_WITH_UNIT ( LENGTH_MEASURE( 0.02539999999999999897 ), #31 );
#142 = SURFACE_STYLE_FILL_AREA ( #261 ) ;
#143 = DIRECTION ( 'NONE',  ( -0.000000000000000000, -1.000000000000000000, -0.000000000000000000 ) ) ;
#144 =( NAMED_UNIT ( * ) PLANE_ANGLE_UNIT ( ) SI_UNIT ( $, .RADIAN. ) );
#145 = CIRCLE ( 'NONE', #305, 0.1250000000000000000 ) ;
#146 = MECHANICAL_DESIGN_GEOMETRIC_PRESENTATION_REPRESENTATION (  '', ( #167 ), #67 ) ;
#147 = DIRECTION ( 'NONE',  ( -0.000000000000000000, -1.000000000000000000, -0.000000000000000000 ) ) ;
#148 = FILL_AREA_STYLE ('',( #194 ) ) ;
#149 = VERTEX_POINT ( 'NONE', #105 ) ;
#150 =( NAMED_UNIT ( * ) PLANE_ANGLE_UNIT ( ) SI_UNIT ( $, .RADIAN. ) );
#151 = CARTESIAN_POINT ( 'NONE',  ( -0.1250000000000000000, 1.250000000000000000, 0.000000000000000000 ) ) ;
#152 = LENGTH_MEASURE_WITH_UNIT ( LENGTH_MEASURE( 0.02539999999999999897 ), #296 );
#153 = DIRECTION ( 'NONE',  ( -1.000000000000000000, 0.000000000000000000, 0.000000000000000000 ) ) ;
#154 = PRESENTATION_LAYER_ASSIGNMENT (  '', '', ( #167 ) ) ;
#155 = CARTESIAN_POINT ( 'NONE',  ( 1.530808498934191509E-17, 0.000000000000000000, 0.1250000000000000000 ) ) ;
#156 = VERTEX_POINT ( 'NONE', #155 ) ;
#157 = ORIENTED_EDGE ( 'NONE', *, *, #295, .F. ) ;
#158 = AXIS2_PLACEMENT_3D ( 'NONE', #303, #184, #267 ) ;
#159 = APPLICATION_PROTOCOL_DEFINITION ( 'draft international standard', 'automotive_design', 1998, #190 ) ;
#160 = CIRCLE ( 'NONE', #8, 0.1250000000000001110 ) ;
#161 = EDGE_CURVE ( 'NONE', #199, #15, #160, .T. ) ;
#162 = UNCERTAINTY_MEASURE_WITH_UNIT (LENGTH_MEASURE( 1.000000000000000082E-05 ), #198, 'distance_accuracy_value', 'NONE');
#163 = AXIS2_PLACEMENT_3D ( 'NONE', #140, #143, #52 ) ;
#164 = SURFACE_STYLE_FILL_AREA ( #196 ) ;
#165 = EDGE_CURVE ( 'NONE', #224, #199, #110, .T. ) ;
#166 = MECHANICAL_DESIGN_GEOMETRIC_PRESENTATION_REPRESENTATION (  '', ( #284 ), #87 ) ;
#167 = STYLED_ITEM ( 'NONE', ( #91 ), #291 ) ;
#168 = APPLICATION_CONTEXT ( 'automotive_design' ) ;
#169 =( NAMED_UNIT ( * ) SI_UNIT ( $, .STERADIAN. ) SOLID_ANGLE_UNIT ( ) );
#170 = ORIENTED_EDGE ( 'NONE', *, *, #44, .F. ) ;
#171 = SHAPE_DEFINITION_REPRESENTATION ( #248, #262 ) ;
#172 = PRESENTATION_STYLE_ASSIGNMENT (( #72 ) ) ;
#173 = SURFACE_STYLE_FILL_AREA ( #148 ) ;
#174 = CARTESIAN_POINT ( 'NONE',  ( 0.000000000000000000, 0.000000000000000000, -0.1250000000000000000 ) ) ;
#175 =( CONVERSION_BASED_UNIT ( 'INCH', #141 ) LENGTH_UNIT ( ) NAMED_UNIT ( #255 ) );
#176 = CARTESIAN_POINT ( 'NONE',  ( 0.000000000000000000, 0.000000000000000000, 0.000000000000000000 ) ) ;
#177 = ORIENTED_EDGE ( 'NONE', *, *, #165, .T. ) ;
#178 = CARTESIAN_POINT ( 'NONE',  ( 0.1250000000000000000, 3.000000000000000444, 0.000000000000000000 ) ) ;
#179 = DIRECTION ( 'NONE',  ( -6.997981709413449187E-17, 1.000000000000000000, -0.000000000000000000 ) ) ;
#180 = PRESENTATION_STYLE_ASSIGNMENT (( #127 ) ) ;
#181 = ORIENTED_EDGE ( 'NONE', *, *, #165, .F. ) ;
#182 = EDGE_LOOP ( 'NONE', ( #250, #123 ) ) ;
#183 = AXIS2_PLACEMENT_3D ( 'NONE', #86, #63, #83 ) ;
#184 = DIRECTION ( 'NONE',  ( -6.997981709413449187E-17, 1.000000000000000000, -0.000000000000000000 ) ) ;
#185 = MANIFOLD_SOLID_BREP ( 'Revolve - Tool Body (Straight Shanked)', #20 ) ;
#186 = FILL_AREA_STYLE_COLOUR ( '', #308 ) ;
#187 = PRESENTATION_STYLE_ASSIGNMENT (( #309 ) ) ;
#188 = AXIS2_PLACEMENT_3D ( 'NONE', #107, #25, #139 ) ;
#189 = PRODUCT_CONTEXT ( 'NONE', #190, 'mechanical' ) ;
#190 = APPLICATION_CONTEXT ( 'automotive_design' ) ;
#191 = CARTESIAN_POINT ( 'NONE',  ( 0.000000000000000000, 1.250000000000000000, 0.000000000000000000 ) ) ;
#192 = STYLED_ITEM ( 'NONE', ( #257 ), #270 ) ;
#193 = SURFACE_SIDE_STYLE ('',( #254 ) ) ;
#194 = FILL_AREA_STYLE_COLOUR ( '', #88 ) ;
#195 = AXIS2_PLACEMENT_3D ( 'NONE', #205, #51, #220 ) ;
#196 = FILL_AREA_STYLE ('',( #252 ) ) ;
#197 = DIRECTION ( 'NONE',  ( -0.000000000000000000, -1.000000000000000000, -0.000000000000000000 ) ) ;
#198 =( CONVERSION_BASED_UNIT ( 'INCH', #122 ) LENGTH_UNIT ( ) NAMED_UNIT ( #227 ) );
#199 = VERTEX_POINT ( 'NONE', #62 ) ;
#200 = LINE ( 'NONE', #239, #49 ) ;
#201 = EDGE_LOOP ( 'NONE', ( #136, #90 ) ) ;
#202 = CIRCLE ( 'NONE', #195, 0.1250000000000000000 ) ;
#203 = STYLED_ITEM ( 'NONE', ( #93 ), #185 ) ;
#204 = DIRECTION ( 'NONE',  ( -1.000000000000000000, 0.000000000000000000, 0.000000000000000000 ) ) ;
#205 = CARTESIAN_POINT ( 'NONE',  ( 0.000000000000000000, 0.000000000000000000, 0.000000000000000000 ) ) ;
#206 = EDGE_LOOP ( 'NONE', ( #294, #55 ) ) ;
#207 = DIRECTION ( 'NONE',  ( 6.997981709413449187E-17, -1.000000000000000000, 0.000000000000000000 ) ) ;
#208 = CARTESIAN_POINT ( 'NONE',  ( 1.530808498934191509E-17, 0.000000000000000000, 0.1250000000000000000 ) ) ;
#209 =( GEOMETRIC_REPRESENTATION_CONTEXT ( 3 ) GLOBAL_UNCERTAINTY_ASSIGNED_CONTEXT ( ( #42 ) ) GLOBAL_UNIT_ASSIGNED_CONTEXT ( ( #175, #150, #169 ) ) REPRESENTATION_CONTEXT ( 'NONE', 'WORKASPACE' ) );
#210 = PRODUCT ( '81402', '81402', '', ( #189 ) ) ;
#211 = UNCERTAINTY_MEASURE_WITH_UNIT (LENGTH_MEASURE( 1.000000000000000082E-05 ), #236, 'distance_accuracy_value', 'NONE');
#212 = ORIENTED_EDGE ( 'NONE', *, *, #104, .T. ) ;
#213 = CARTESIAN_POINT ( 'NONE',  ( -1.224646799147353700E-16, 3.000000000000000444, 0.000000000000000000 ) ) ;
#214 = ADVANCED_FACE ( 'NONE', ( #74 ), #60, .T. ) ;
#215 = PRESENTATION_LAYER_ASSIGNMENT (  '', '', ( #284 ) ) ;
#216 = DIRECTION ( 'NONE',  ( -6.997981709413449187E-17, 1.000000000000000000, -0.000000000000000000 ) ) ;
#217 = FILL_AREA_STYLE_COLOUR ( '', #268 ) ;
#218 = PRODUCT_RELATED_PRODUCT_CATEGORY ( 'part', '', ( #210 ) ) ;
#219 = SURFACE_SIDE_STYLE ('',( #173 ) ) ;
#220 = DIRECTION ( 'NONE',  ( 0.000000000000000000, 0.000000000000000000, -1.000000000000000000 ) ) ;
#221 = UNCERTAINTY_MEASURE_WITH_UNIT (LENGTH_MEASURE( 1.000000000000000082E-05 ), #273, 'distance_accuracy_value', 'NONE');
#222 = CIRCLE ( 'NONE', #27, 0.1250000000000000000 ) ;
#223 = VERTEX_POINT ( 'NONE', #271 ) ;
#224 = VERTEX_POINT ( 'NONE', #151 ) ;
#225 = CARTESIAN_POINT ( 'NONE',  ( 1.530808498934191509E-17, 1.250000000000000000, 0.1250000000000000000 ) ) ;
#226 =( NAMED_UNIT ( * ) SI_UNIT ( $, .STERADIAN. ) SOLID_ANGLE_UNIT ( ) );
#227 = DIMENSIONAL_EXPONENTS ( 1.000000000000000000, 0.000000000000000000, 0.000000000000000000, 0.000000000000000000, 0.000000000000000000, 0.000000000000000000, 0.000000000000000000 ) ;
#228 = FACE_OUTER_BOUND ( 'NONE', #201, .T. ) ;
#229 = CIRCLE ( 'NONE', #246, 0.1250000000000001110 ) ;
#230 = PRODUCT_DEFINITION_CONTEXT ( 'detailed design', #168, 'design' ) ;
#231 = PLANE ( 'NONE',  #188 ) ;
#232 = EDGE_CURVE ( 'NONE', #36, #223, #222, .T. ) ;
#233 = DIMENSIONAL_EXPONENTS ( 1.000000000000000000, 0.000000000000000000, 0.000000000000000000, 0.000000000000000000, 0.000000000000000000, 0.000000000000000000, 0.000000000000000000 ) ;
#234 =( NAMED_UNIT ( * ) PLANE_ANGLE_UNIT ( ) SI_UNIT ( $, .RADIAN. ) );
#235 = DIRECTION ( 'NONE',  ( -1.000000000000000000, 0.000000000000000000, 0.000000000000000000 ) ) ;
#236 =( CONVERSION_BASED_UNIT ( 'INCH', #282 ) LENGTH_UNIT ( ) NAMED_UNIT ( #22 ) );
#237 = SURFACE_SIDE_STYLE ('',( #142 ) ) ;
#238 = CYLINDRICAL_SURFACE ( 'NONE', #299, 0.1250000000000000555 ) ;
#239 = CARTESIAN_POINT ( 'NONE',  ( 0.000000000000000000, 0.000000000000000000, -0.1250000000000000000 ) ) ;
#240 = CARTESIAN_POINT ( 'NONE',  ( 0.000000000000000000, 1.250000000000000000, 0.000000000000000000 ) ) ;
#241 = DIRECTION ( 'NONE',  ( -6.997981709413449187E-17, 1.000000000000000000, -0.000000000000000000 ) ) ;
#242 = FACE_OUTER_BOUND ( 'NONE', #106, .T. ) ;
#243 = CARTESIAN_POINT ( 'NONE',  ( 0.000000000000000000, 1.250000000000000000, 0.000000000000000000 ) ) ;
#244 = ORIENTED_EDGE ( 'NONE', *, *, #30, .T. ) ;
#245 = SURFACE_STYLE_FILL_AREA ( #276 ) ;
#246 = AXIS2_PLACEMENT_3D ( 'NONE', #213, #264, #121 ) ;
#247 = ORIENTED_EDGE ( 'NONE', *, *, #161, .F. ) ;
#248 = PRODUCT_DEFINITION_SHAPE ( 'NONE', 'NONE',  #118 ) ;
#249 = CARTESIAN_POINT ( 'NONE',  ( 0.000000000000000000, 0.000000000000000000, 0.000000000000000000 ) ) ;
#250 = ORIENTED_EDGE ( 'NONE', *, *, #40, .F. ) ;
#251 = DIRECTION ( 'NONE',  ( 0.000000000000000000, -1.000000000000000000, -0.000000000000000000 ) ) ;
#252 = FILL_AREA_STYLE_COLOUR ( '', #269 ) ;
#253 = LENGTH_MEASURE_WITH_UNIT ( LENGTH_MEASURE( 0.02539999999999999897 ), #47 );
#254 = SURFACE_STYLE_FILL_AREA ( #116 ) ;
#255 = DIMENSIONAL_EXPONENTS ( 1.000000000000000000, 0.000000000000000000, 0.000000000000000000, 0.000000000000000000, 0.000000000000000000, 0.000000000000000000, 0.000000000000000000 ) ;
#256 = AXIS2_PLACEMENT_3D ( 'NONE', #191, #65, #6 ) ;
#257 = PRESENTATION_STYLE_ASSIGNMENT (( #35 ) ) ;
#258 = DIMENSIONAL_EXPONENTS ( 1.000000000000000000, 0.000000000000000000, 0.000000000000000000, 0.000000000000000000, 0.000000000000000000, 0.000000000000000000, 0.000000000000000000 ) ;
#259 = CARTESIAN_POINT ( 'NONE',  ( 0.1249999999999999445, 3.000000000000000444, 1.530808498934192125E-17 ) ) ;
#260 = AXIS2_PLACEMENT_3D ( 'NONE', #178, #207, #82 ) ;
#261 = FILL_AREA_STYLE ('',( #217 ) ) ;
#262 = ADVANCED_BREP_SHAPE_REPRESENTATION ( '81402', ( #291, #185, #183 ), #132 ) ;
#263 = DIMENSIONAL_EXPONENTS ( 1.000000000000000000, 0.000000000000000000, 0.000000000000000000, 0.000000000000000000, 0.000000000000000000, 0.000000000000000000, 0.000000000000000000 ) ;
#264 = DIRECTION ( 'NONE',  ( -6.997981709413449187E-17, 1.000000000000000000, -0.000000000000000000 ) ) ;
#265 = ORIENTED_EDGE ( 'NONE', *, *, #30, .F. ) ;
#266 =( LENGTH_UNIT ( ) NAMED_UNIT ( * ) SI_UNIT ( $, .METRE. ) );
#267 = DIRECTION ( 'NONE',  ( -1.000000000000000000, 0.000000000000000000, 0.000000000000000000 ) ) ;
#268 = COLOUR_RGB ( '',1.000000000000000000, 0.000000000000000000, 0.000000000000000000 ) ;
#269 = COLOUR_RGB ( '',0.7921568627450980005, 0.8196078431372548767, 0.9333333333333333481 ) ;
#270 = ADVANCED_FACE ( 'NONE', ( #11 ), #77, .T. ) ;
#271 = CARTESIAN_POINT ( 'NONE',  ( 0.000000000000000000, 1.250000000000000000, -0.1250000000000000000 ) ) ;
#272 = EDGE_LOOP ( 'NONE', ( #100, #7, #247, #181 ) ) ;
#273 =( CONVERSION_BASED_UNIT ( 'INCH', #43 ) LENGTH_UNIT ( ) NAMED_UNIT ( #135 ) );
#274 = EDGE_CURVE ( 'NONE', #223, #36, #2, .T. ) ;
#275 = DIRECTION ( 'NONE',  ( 0.000000000000000000, 0.000000000000000000, -1.000000000000000000 ) ) ;
#276 = FILL_AREA_STYLE ('',( #287 ) ) ;
#277 = ADVANCED_FACE ( 'NONE', ( #70 ), #238, .T. ) ;
#278 = ORIENTED_EDGE ( 'NONE', *, *, #232, .T. ) ;
#279 = ADVANCED_FACE ( 'NONE', ( #101 ), #300, .F. ) ;
#280 = DIRECTION ( 'NONE',  ( -6.997981709413449187E-17, 1.000000000000000000, -0.000000000000000000 ) ) ;
#281 = VECTOR ( 'NONE', #280, 39.37007874015748143 ) ;
#282 = LENGTH_MEASURE_WITH_UNIT ( LENGTH_MEASURE( 0.02539999999999999897 ), #112 );
#283 = LINE ( 'NONE', #259, #12 ) ;
#284 = STYLED_ITEM ( 'NONE', ( #187 ), #96 ) ;
#285 = AXIS2_PLACEMENT_3D ( 'NONE', #119, #147, #10 ) ;
#286 = DIRECTION ( 'NONE',  ( 0.000000000000000000, 0.000000000000000000, -1.000000000000000000 ) ) ;
#287 = FILL_AREA_STYLE_COLOUR ( '', #56 ) ;
#288 = PLANE ( 'NONE',  #256 ) ;
#289 = PLANE ( 'NONE',  #109 ) ;
#290 = DIRECTION ( 'NONE',  ( 0.000000000000000000, 0.000000000000000000, -1.000000000000000000 ) ) ;
#291 = MANIFOLD_SOLID_BREP ( 'Revolve - Cutting Edge', #307 ) ;
#292 = EDGE_LOOP ( 'NONE', ( #80, #301 ) ) ;
#293 = CARTESIAN_POINT ( 'NONE',  ( 0.000000000000000000, 1.250000000000000000, 0.000000000000000000 ) ) ;
#294 = ORIENTED_EDGE ( 'NONE', *, *, #161, .T. ) ;
#295 = EDGE_CURVE ( 'NONE', #15, #199, #229, .T. ) ;
#296 =( LENGTH_UNIT ( ) NAMED_UNIT ( * ) SI_UNIT ( $, .METRE. ) );
#297 = DIRECTION ( 'NONE',  ( -0.000000000000000000, -1.000000000000000000, -0.000000000000000000 ) ) ;
#298 = CYLINDRICAL_SURFACE ( 'NONE', #137, 0.1250000000000000555 ) ;
#299 = AXIS2_PLACEMENT_3D ( 'NONE', #124, #216, #204 ) ;
#300 = PLANE ( 'NONE',  #260 ) ;
#301 = ORIENTED_EDGE ( 'NONE', *, *, #111, .T. ) ;
#302 = LENGTH_MEASURE_WITH_UNIT ( LENGTH_MEASURE( 0.02539999999999999897 ), #98 );
#303 = CARTESIAN_POINT ( 'NONE',  ( 0.000000000000000000, 1.250000000000000000, 0.000000000000000000 ) ) ;
#304 = UNCERTAINTY_MEASURE_WITH_UNIT (LENGTH_MEASURE( 1.000000000000000082E-05 ), #54, 'distance_accuracy_value', 'NONE');
#305 = AXIS2_PLACEMENT_3D ( 'NONE', #293, #241, #125 ) ;
#306 = FACE_OUTER_BOUND ( 'NONE', #182, .T. ) ;
#307 = CLOSED_SHELL ( 'NONE', ( #214, #96, #270, #134 ) ) ;
#308 = COLOUR_RGB ( '',0.7921568627450980005, 0.8196078431372548767, 0.9333333333333333481 ) ;
#309 = SURFACE_STYLE_USAGE ( .BOTH. , #16 ) ;
ENDSEC;
END-ISO-10303-21;
