ISO-10303-21;
HEADER;
FILE_DESCRIPTION (( 'STEP AP214' ),
    '1' );
FILE_NAME ('03390.STEP',
    '2023-06-22T15:15:12',
    ( '' ),
    ( '' ),
    'SwSTEP 2.0',
    'SolidWorks 2023',
    '' );
FILE_SCHEMA (( 'AUTOMOTIVE_DESIGN' ));
ENDSEC;

DATA;
#1 = DIRECTION ( 'NONE',  ( -3.061616997868383018E-17, 1.000000000000000000, -0.000000000000000000 ) ) ;
#2 = LENGTH_MEASURE_WITH_UNIT ( LENGTH_MEASURE( 0.02539999999999999897 ), #119 );
#3 = DIRECTION ( 'NONE',  ( -1.000000000000000000, -3.061616997868383018E-17, 0.000000000000000000 ) ) ;
#4 = CARTESIAN_POINT ( 'NONE',  ( 0.1875000000000000278, 2.000000000000000000, 2.296212748401288342E-17 ) ) ;
#5 = EDGE_CURVE ( 'NONE', #177, #123, #173, .T. ) ;
#6 = ORIENTED_EDGE ( 'NONE', *, *, #5, .T. ) ;
#7 = FILL_AREA_STYLE_COLOUR ( '', #184 ) ;
#8 = VECTOR ( 'NONE', #283, 39.37007874015748143 ) ;
#9 = CARTESIAN_POINT ( 'NONE',  ( 0.000000000000000000, 0.000000000000000000, -0.1875000000000000278 ) ) ;
#10 = APPLICATION_CONTEXT ( 'automotive_design' ) ;
#11 = SURFACE_STYLE_USAGE ( .BOTH. , #192 ) ;
#12 = DIRECTION ( 'NONE',  ( 3.061616997868383018E-17, -1.000000000000000000, 0.000000000000000000 ) ) ;
#13 = FILL_AREA_STYLE_COLOUR ( '', #73 ) ;
#14 =( LENGTH_UNIT ( ) NAMED_UNIT ( * ) SI_UNIT ( $, .METRE. ) );
#15 =( NAMED_UNIT ( * ) SI_UNIT ( $, .STERADIAN. ) SOLID_ANGLE_UNIT ( ) );
#16 =( CONVERSION_BASED_UNIT ( 'INCH', #150 ) LENGTH_UNIT ( ) NAMED_UNIT ( #293 ) );
#17 = EDGE_CURVE ( 'NONE', #177, #157, #75, .T. ) ;
#18 = FACE_OUTER_BOUND ( 'NONE', #299, .T. ) ;
#19 = ORIENTED_EDGE ( 'NONE', *, *, #17, .T. ) ;
#20 = ORIENTED_EDGE ( 'NONE', *, *, #239, .T. ) ;
#21 = PLANE ( 'NONE',  #190 ) ;
#22 = UNCERTAINTY_MEASURE_WITH_UNIT (LENGTH_MEASURE( 1.000000000000000082E-05 ), #212, 'distance_accuracy_value', 'NONE');
#23 = DIRECTION ( 'NONE',  ( -0.000000000000000000, -1.000000000000000000, -0.000000000000000000 ) ) ;
#24 = DIRECTION ( 'NONE',  ( -0.000000000000000000, -1.000000000000000000, -0.000000000000000000 ) ) ;
#25 =( NAMED_UNIT ( * ) SI_UNIT ( $, .STERADIAN. ) SOLID_ANGLE_UNIT ( ) );
#26 = EDGE_CURVE ( 'NONE', #292, #64, #101, .T. ) ;
#27 = DIRECTION ( 'NONE',  ( -0.000000000000000000, -1.000000000000000000, -0.000000000000000000 ) ) ;
#28 = FACE_OUTER_BOUND ( 'NONE', #263, .T. ) ;
#29 = PRODUCT_DEFINITION_SHAPE ( 'NONE', 'NONE',  #178 ) ;
#30 =( GEOMETRIC_REPRESENTATION_CONTEXT ( 3 ) GLOBAL_UNCERTAINTY_ASSIGNED_CONTEXT ( ( #202 ) ) GLOBAL_UNIT_ASSIGNED_CONTEXT ( ( #71, #166, #15 ) ) REPRESENTATION_CONTEXT ( 'NONE', 'WORKASPACE' ) );
#31 = FILL_AREA_STYLE ('',( #237 ) ) ;
#32 = DIRECTION ( 'NONE',  ( 1.000000000000000000, 3.061616997868383018E-17, 0.000000000000000000 ) ) ;
#33 = UNCERTAINTY_MEASURE_WITH_UNIT (LENGTH_MEASURE( 1.000000000000000082E-05 ), #16, 'distance_accuracy_value', 'NONE');
#34 = MECHANICAL_DESIGN_GEOMETRIC_PRESENTATION_REPRESENTATION (  '', ( #121 ), #77 ) ;
#35 = SURFACE_STYLE_USAGE ( .BOTH. , #147 ) ;
#36 = PLANE ( 'NONE',  #238 ) ;
#37 = LENGTH_MEASURE_WITH_UNIT ( LENGTH_MEASURE( 0.02539999999999999897 ), #284 );
#38 = ORIENTED_EDGE ( 'NONE', *, *, #61, .F. ) ;
#39 = CARTESIAN_POINT ( 'NONE',  ( -0.1875000000000001388, 4.000000000000000000, 0.000000000000000000 ) ) ;
#40 = ADVANCED_FACE ( 'NONE', ( #256 ), #36, .F. ) ;
#41 = CARTESIAN_POINT ( 'NONE',  ( 0.000000000000000000, 0.000000000000000000, 0.000000000000000000 ) ) ;
#42 = DIRECTION ( 'NONE',  ( -3.061616997868383018E-17, 1.000000000000000000, -0.000000000000000000 ) ) ;
#43 = STYLED_ITEM ( 'NONE', ( #235 ), #220 ) ;
#44 = CARTESIAN_POINT ( 'NONE',  ( 8.787654976534324059E-35, 2.000000000000000000, 0.000000000000000000 ) ) ;
#45 = CIRCLE ( 'NONE', #291, 0.1875000000000000833 ) ;
#46 = EDGE_LOOP ( 'NONE', ( #207, #19, #110, #135 ) ) ;
#47 = DIRECTION ( 'NONE',  ( -1.000000000000000000, 0.000000000000000000, 0.000000000000000000 ) ) ;
#48 = AXIS2_PLACEMENT_3D ( 'NONE', #307, #23, #300 ) ;
#49 = SURFACE_SIDE_STYLE ('',( #228 ) ) ;
#50 = EDGE_CURVE ( 'NONE', #157, #111, #125, .T. ) ;
#51 =( LENGTH_UNIT ( ) NAMED_UNIT ( * ) SI_UNIT ( $, .METRE. ) );
#52 = AXIS2_PLACEMENT_3D ( 'NONE', #44, #141, #3 ) ;
#53 = ORIENTED_EDGE ( 'NONE', *, *, #96, .T. ) ;
#54 = SURFACE_SIDE_STYLE ('',( #261 ) ) ;
#55 = CARTESIAN_POINT ( 'NONE',  ( 0.000000000000000000, 0.000000000000000000, 0.000000000000000000 ) ) ;
#56 = STYLED_ITEM ( 'NONE', ( #146 ), #57 ) ;
#57 = MANIFOLD_SOLID_BREP ( 'Revolve - Tool Body (Straight Shanked)', #297 ) ;
#58 = CARTESIAN_POINT ( 'NONE',  ( 0.1875000000000000278, 4.000000000000000000, 0.000000000000000000 ) ) ;
#59 = CARTESIAN_POINT ( 'NONE',  ( 2.296212748401287726E-17, 0.000000000000000000, 0.1875000000000000278 ) ) ;
#60 = SURFACE_SIDE_STYLE ('',( #267 ) ) ;
#61 = EDGE_CURVE ( 'NONE', #157, #177, #234, .T. ) ;
#62 =( GEOMETRIC_REPRESENTATION_CONTEXT ( 3 ) GLOBAL_UNCERTAINTY_ASSIGNED_CONTEXT ( ( #242 ) ) GLOBAL_UNIT_ASSIGNED_CONTEXT ( ( #79, #153, #139 ) ) REPRESENTATION_CONTEXT ( 'NONE', 'WORKASPACE' ) );
#63 = PRODUCT_DEFINITION_CONTEXT ( 'detailed design', #10, 'design' ) ;
#64 = VERTEX_POINT ( 'NONE', #289 ) ;
#65 = CARTESIAN_POINT ( 'NONE',  ( -0.1875000000000001110, 4.000000000000000000, 0.000000000000000000 ) ) ;
#66 = DIMENSIONAL_EXPONENTS ( 1.000000000000000000, 0.000000000000000000, 0.000000000000000000, 0.000000000000000000, 0.000000000000000000, 0.000000000000000000, 0.000000000000000000 ) ;
#67 = DIRECTION ( 'NONE',  ( -1.000000000000000000, 0.000000000000000000, 0.000000000000000000 ) ) ;
#68 = DIRECTION ( 'NONE',  ( -3.061616997868383018E-17, 1.000000000000000000, -0.000000000000000000 ) ) ;
#69 = DIRECTION ( 'NONE',  ( -1.000000000000000000, 0.000000000000000000, 0.000000000000000000 ) ) ;
#70 = MECHANICAL_DESIGN_GEOMETRIC_PRESENTATION_REPRESENTATION (  '', ( #288 ), #127 ) ;
#71 =( CONVERSION_BASED_UNIT ( 'INCH', #2 ) LENGTH_UNIT ( ) NAMED_UNIT ( #249 ) );
#72 = CYLINDRICAL_SURFACE ( 'NONE', #229, 0.1875000000000000278 ) ;
#73 = COLOUR_RGB ( '',1.000000000000000000, 0.000000000000000000, 0.000000000000000000 ) ;
#74 = DIRECTION ( 'NONE',  ( 0.000000000000000000, 0.000000000000000000, 1.000000000000000000 ) ) ;
#75 = CIRCLE ( 'NONE', #246, 0.1875000000000000278 ) ;
#76 =( NAMED_UNIT ( * ) PLANE_ANGLE_UNIT ( ) SI_UNIT ( $, .RADIAN. ) );
#77 =( GEOMETRIC_REPRESENTATION_CONTEXT ( 3 ) GLOBAL_UNCERTAINTY_ASSIGNED_CONTEXT ( ( #301 ) ) GLOBAL_UNIT_ASSIGNED_CONTEXT ( ( #85, #271, #25 ) ) REPRESENTATION_CONTEXT ( 'NONE', 'WORKASPACE' ) );
#78 = PRESENTATION_STYLE_ASSIGNMENT (( #11 ) ) ;
#79 =( CONVERSION_BASED_UNIT ( 'INCH', #37 ) LENGTH_UNIT ( ) NAMED_UNIT ( #197 ) );
#80 = AXIS2_PLACEMENT_3D ( 'NONE', #268, #42, #69 ) ;
#81 = FILL_AREA_STYLE ('',( #221 ) ) ;
#82 = EDGE_LOOP ( 'NONE', ( #38, #302 ) ) ;
#83 = DIRECTION ( 'NONE',  ( 0.000000000000000000, 0.000000000000000000, -1.000000000000000000 ) ) ;
#84 = PRESENTATION_STYLE_ASSIGNMENT (( #151 ) ) ;
#85 =( CONVERSION_BASED_UNIT ( 'INCH', #126 ) LENGTH_UNIT ( ) NAMED_UNIT ( #66 ) );
#86 = ORIENTED_EDGE ( 'NONE', *, *, #97, .T. ) ;
#87 = DIMENSIONAL_EXPONENTS ( 1.000000000000000000, 0.000000000000000000, 0.000000000000000000, 0.000000000000000000, 0.000000000000000000, 0.000000000000000000, 0.000000000000000000 ) ;
#88 = ADVANCED_FACE ( 'NONE', ( #296 ), #21, .T. ) ;
#89 = AXIS2_PLACEMENT_3D ( 'NONE', #118, #236, #206 ) ;
#90 = ORIENTED_EDGE ( 'NONE', *, *, #26, .T. ) ;
#91 =( NAMED_UNIT ( * ) SI_UNIT ( $, .STERADIAN. ) SOLID_ANGLE_UNIT ( ) );
#92 = DIRECTION ( 'NONE',  ( 0.000000000000000000, 0.000000000000000000, -1.000000000000000000 ) ) ;
#93 = ORIENTED_EDGE ( 'NONE', *, *, #26, .F. ) ;
#94 = CARTESIAN_POINT ( 'NONE',  ( -6.123233995736766036E-17, 4.000000000000000000, 0.000000000000000000 ) ) ;
#95 = AXIS2_PLACEMENT_3D ( 'NONE', #257, #27, #92 ) ;
#96 = EDGE_CURVE ( 'NONE', #64, #292, #298, .T. ) ;
#97 = EDGE_CURVE ( 'NONE', #222, #152, #45, .T. ) ;
#98 = COLOUR_RGB ( '',1.000000000000000000, 0.000000000000000000, 0.000000000000000000 ) ;
#99 = CIRCLE ( 'NONE', #95, 0.1875000000000000278 ) ;
#100 = FILL_AREA_STYLE_COLOUR ( '', #285 ) ;
#101 = CIRCLE ( 'NONE', #80, 0.1875000000000000278 ) ;
#102 = SHAPE_DEFINITION_REPRESENTATION ( #29, #128 ) ;
#103 =( LENGTH_UNIT ( ) NAMED_UNIT ( * ) SI_UNIT ( $, .METRE. ) );
#104 = DIRECTION ( 'NONE',  ( -3.061616997868383018E-17, 1.000000000000000000, -0.000000000000000000 ) ) ;
#105 = ORIENTED_EDGE ( 'NONE', *, *, #149, .F. ) ;
#106 = SURFACE_STYLE_FILL_AREA ( #287 ) ;
#107 = ORIENTED_EDGE ( 'NONE', *, *, #61, .T. ) ;
#108 =( CONVERSION_BASED_UNIT ( 'INCH', #200 ) LENGTH_UNIT ( ) NAMED_UNIT ( #303 ) );
#109 = DIRECTION ( 'NONE',  ( 0.000000000000000000, 0.000000000000000000, -1.000000000000000000 ) ) ;
#110 = ORIENTED_EDGE ( 'NONE', *, *, #50, .T. ) ;
#111 = VERTEX_POINT ( 'NONE', #134 ) ;
#112 = CARTESIAN_POINT ( 'NONE',  ( 2.296212748401287726E-17, 2.000000000000000000, 0.1875000000000000278 ) ) ;
#113 = DIRECTION ( 'NONE',  ( -0.000000000000000000, -1.000000000000000000, -0.000000000000000000 ) ) ;
#114 = MECHANICAL_DESIGN_GEOMETRIC_PRESENTATION_REPRESENTATION (  '', ( #43 ), #132 ) ;
#115 = AXIS2_PLACEMENT_3D ( 'NONE', #274, #183, #67 ) ;
#116 =( NAMED_UNIT ( * ) PLANE_ANGLE_UNIT ( ) SI_UNIT ( $, .RADIAN. ) );
#117 =( LENGTH_UNIT ( ) NAMED_UNIT ( * ) SI_UNIT ( $, .METRE. ) );
#118 = CARTESIAN_POINT ( 'NONE',  ( -6.123233995736766036E-17, 4.000000000000000000, 0.000000000000000000 ) ) ;
#119 =( LENGTH_UNIT ( ) NAMED_UNIT ( * ) SI_UNIT ( $, .METRE. ) );
#120 = FACE_OUTER_BOUND ( 'NONE', #250, .T. ) ;
#121 = STYLED_ITEM ( 'NONE', ( #217 ), #211 ) ;
#122 = DIRECTION ( 'NONE',  ( 0.000000000000000000, -1.000000000000000000, -0.000000000000000000 ) ) ;
#123 = VERTEX_POINT ( 'NONE', #219 ) ;
#124 = LENGTH_MEASURE_WITH_UNIT ( LENGTH_MEASURE( 0.02539999999999999897 ), #117 );
#125 = LINE ( 'NONE', #9, #8 ) ;
#126 = LENGTH_MEASURE_WITH_UNIT ( LENGTH_MEASURE( 0.02539999999999999897 ), #14 );
#127 =( GEOMETRIC_REPRESENTATION_CONTEXT ( 3 ) GLOBAL_UNCERTAINTY_ASSIGNED_CONTEXT ( ( #33 ) ) GLOBAL_UNIT_ASSIGNED_CONTEXT ( ( #16, #116, #195 ) ) REPRESENTATION_CONTEXT ( 'NONE', 'WORKASPACE' ) );
#128 = ADVANCED_BREP_SHAPE_REPRESENTATION ( '03390', ( #220, #57, #264 ), #30 ) ;
#129 = UNCERTAINTY_MEASURE_WITH_UNIT (LENGTH_MEASURE( 1.000000000000000082E-05 ), #280, 'distance_accuracy_value', 'NONE');
#130 = DIRECTION ( 'NONE',  ( -1.000000000000000000, 0.000000000000000000, 0.000000000000000000 ) ) ;
#131 = CARTESIAN_POINT ( 'NONE',  ( -6.123233995736766036E-17, 4.000000000000000000, 0.000000000000000000 ) ) ;
#132 =( GEOMETRIC_REPRESENTATION_CONTEXT ( 3 ) GLOBAL_UNCERTAINTY_ASSIGNED_CONTEXT ( ( #129 ) ) GLOBAL_UNIT_ASSIGNED_CONTEXT ( ( #280, #254, #91 ) ) REPRESENTATION_CONTEXT ( 'NONE', 'WORKASPACE' ) );
#133 = ADVANCED_FACE ( 'NONE', ( #18 ), #215, .T. ) ;
#134 = CARTESIAN_POINT ( 'NONE',  ( 0.000000000000000000, 0.000000000000000000, -0.1875000000000000278 ) ) ;
#135 = ORIENTED_EDGE ( 'NONE', *, *, #169, .F. ) ;
#136 = CARTESIAN_POINT ( 'NONE',  ( 0.000000000000000000, 2.000000000000000000, 0.000000000000000000 ) ) ;
#137 = ORIENTED_EDGE ( 'NONE', *, *, #227, .F. ) ;
#138 = PRODUCT ( '03390', '03390', '', ( #240 ) ) ;
#139 =( NAMED_UNIT ( * ) SI_UNIT ( $, .STERADIAN. ) SOLID_ANGLE_UNIT ( ) );
#140 = SURFACE_STYLE_USAGE ( .BOTH. , #49 ) ;
#141 = DIRECTION ( 'NONE',  ( -3.061616997868383018E-17, 1.000000000000000000, 0.000000000000000000 ) ) ;
#142 = CYLINDRICAL_SURFACE ( 'NONE', #115, 0.1875000000000000555 ) ;
#143 = COLOUR_RGB ( '',1.000000000000000000, 0.000000000000000000, 0.000000000000000000 ) ;
#144 = SURFACE_STYLE_USAGE ( .BOTH. , #54 ) ;
#145 = PLANE ( 'NONE',  #224 ) ;
#146 = PRESENTATION_STYLE_ASSIGNMENT (( #218 ) ) ;
#147 = SURFACE_SIDE_STYLE ('',( #245 ) ) ;
#148 = SURFACE_SIDE_STYLE ('',( #265 ) ) ;
#149 = EDGE_CURVE ( 'NONE', #64, #152, #199, .T. ) ;
#150 = LENGTH_MEASURE_WITH_UNIT ( LENGTH_MEASURE( 0.02539999999999999897 ), #51 );
#151 = SURFACE_STYLE_USAGE ( .BOTH. , #60 ) ;
#152 = VERTEX_POINT ( 'NONE', #39 ) ;
#153 =( NAMED_UNIT ( * ) PLANE_ANGLE_UNIT ( ) SI_UNIT ( $, .RADIAN. ) );
#154 = ORIENTED_EDGE ( 'NONE', *, *, #149, .T. ) ;
#155 = ORIENTED_EDGE ( 'NONE', *, *, #239, .F. ) ;
#156 = DIRECTION ( 'NONE',  ( 0.000000000000000000, 1.000000000000000000, 0.000000000000000000 ) ) ;
#157 = VERTEX_POINT ( 'NONE', #226 ) ;
#158 = STYLED_ITEM ( 'NONE', ( #84 ), #88 ) ;
#159 = FACE_OUTER_BOUND ( 'NONE', #306, .T. ) ;
#160 = CIRCLE ( 'NONE', #208, 0.1875000000000000833 ) ;
#161 = FACE_OUTER_BOUND ( 'NONE', #186, .T. ) ;
#162 = APPLICATION_PROTOCOL_DEFINITION ( 'draft international standard', 'automotive_design', 1998, #10 ) ;
#163 =( NAMED_UNIT ( * ) SI_UNIT ( $, .STERADIAN. ) SOLID_ANGLE_UNIT ( ) );
#164 = COLOUR_RGB ( '',1.000000000000000000, 0.000000000000000000, 0.000000000000000000 ) ;
#165 = PRESENTATION_LAYER_ASSIGNMENT (  '', '', ( #43 ) ) ;
#166 =( NAMED_UNIT ( * ) PLANE_ANGLE_UNIT ( ) SI_UNIT ( $, .RADIAN. ) );
#167 = DIRECTION ( 'NONE',  ( 1.000000000000000000, 0.000000000000000000, 0.000000000000000000 ) ) ;
#168 = DIRECTION ( 'NONE',  ( 0.000000000000000000, -0.000000000000000000, 1.000000000000000000 ) ) ;
#169 = EDGE_CURVE ( 'NONE', #123, #111, #269, .T. ) ;
#170 = LENGTH_MEASURE_WITH_UNIT ( LENGTH_MEASURE( 0.02539999999999999897 ), #103 );
#171 = PRESENTATION_LAYER_ASSIGNMENT (  '', '', ( #158 ) ) ;
#172 = FILL_AREA_STYLE_COLOUR ( '', #164 ) ;
#173 = LINE ( 'NONE', #59, #205 ) ;
#174 = DIRECTION ( 'NONE',  ( 0.000000000000000000, 0.000000000000000000, -1.000000000000000000 ) ) ;
#175 =( LENGTH_UNIT ( ) NAMED_UNIT ( * ) SI_UNIT ( $, .METRE. ) );
#176 = AXIS2_PLACEMENT_3D ( 'NONE', #272, #295, #83 ) ;
#177 = VERTEX_POINT ( 'NONE', #112 ) ;
#178 = PRODUCT_DEFINITION ( 'UNKNOWN', '', #189, #63 ) ;
#179 = LINE ( 'NONE', #230, #282 ) ;
#180 = PRESENTATION_LAYER_ASSIGNMENT (  '', '', ( #56 ) ) ;
#181 = MECHANICAL_DESIGN_GEOMETRIC_PRESENTATION_REPRESENTATION (  '', ( #241 ), #62 ) ;
#182 = MECHANICAL_DESIGN_GEOMETRIC_PRESENTATION_REPRESENTATION (  '', ( #56 ), #193 ) ;
#183 = DIRECTION ( 'NONE',  ( -3.061616997868383018E-17, 1.000000000000000000, -0.000000000000000000 ) ) ;
#184 = COLOUR_RGB ( '',0.7921568627450980005, 0.8196078431372548767, 0.9333333333333333481 ) ;
#185 = UNCERTAINTY_MEASURE_WITH_UNIT (LENGTH_MEASURE( 1.000000000000000082E-05 ), #108, 'distance_accuracy_value', 'NONE');
#186 = EDGE_LOOP ( 'NONE', ( #155, #90, #154, #258 ) ) ;
#187 = DIRECTION ( 'NONE',  ( 0.000000000000000000, 0.000000000000000000, -1.000000000000000000 ) ) ;
#188 = ORIENTED_EDGE ( 'NONE', *, *, #50, .F. ) ;
#189 = PRODUCT_DEFINITION_FORMATION_WITH_SPECIFIED_SOURCE ( 'ANY', '', #138, .NOT_KNOWN. ) ;
#190 = AXIS2_PLACEMENT_3D ( 'NONE', #273, #156, #168 ) ;
#191 = EDGE_LOOP ( 'NONE', ( #201, #86 ) ) ;
#192 = SURFACE_SIDE_STYLE ('',( #106 ) ) ;
#193 =( GEOMETRIC_REPRESENTATION_CONTEXT ( 3 ) GLOBAL_UNCERTAINTY_ASSIGNED_CONTEXT ( ( #22 ) ) GLOBAL_UNIT_ASSIGNED_CONTEXT ( ( #212, #76, #243 ) ) REPRESENTATION_CONTEXT ( 'NONE', 'WORKASPACE' ) );
#194 = ORIENTED_EDGE ( 'NONE', *, *, #96, .F. ) ;
#195 =( NAMED_UNIT ( * ) SI_UNIT ( $, .STERADIAN. ) SOLID_ANGLE_UNIT ( ) );
#196 = PRESENTATION_LAYER_ASSIGNMENT (  '', '', ( #288 ) ) ;
#197 = DIMENSIONAL_EXPONENTS ( 1.000000000000000000, 0.000000000000000000, 0.000000000000000000, 0.000000000000000000, 0.000000000000000000, 0.000000000000000000, 0.000000000000000000 ) ;
#198 =( GEOMETRIC_REPRESENTATION_CONTEXT ( 3 ) GLOBAL_UNCERTAINTY_ASSIGNED_CONTEXT ( ( #185 ) ) GLOBAL_UNIT_ASSIGNED_CONTEXT ( ( #108, #270, #163 ) ) REPRESENTATION_CONTEXT ( 'NONE', 'WORKASPACE' ) );
#199 = LINE ( 'NONE', #65, #233 ) ;
#200 = LENGTH_MEASURE_WITH_UNIT ( LENGTH_MEASURE( 0.02539999999999999897 ), #175 );
#201 = ORIENTED_EDGE ( 'NONE', *, *, #281, .T. ) ;
#202 = UNCERTAINTY_MEASURE_WITH_UNIT (LENGTH_MEASURE( 1.000000000000000082E-05 ), #71, 'distance_accuracy_value', 'NONE');
#203 = ORIENTED_EDGE ( 'NONE', *, *, #169, .T. ) ;
#204 = FACE_OUTER_BOUND ( 'NONE', #46, .T. ) ;
#205 = VECTOR ( 'NONE', #247, 39.37007874015748143 ) ;
#206 = DIRECTION ( 'NONE',  ( -1.000000000000000000, 0.000000000000000000, 0.000000000000000000 ) ) ;
#207 = ORIENTED_EDGE ( 'NONE', *, *, #5, .F. ) ;
#208 = AXIS2_PLACEMENT_3D ( 'NONE', #94, #278, #47 ) ;
#209 = DIRECTION ( 'NONE',  ( 0.000000000000000000, 0.000000000000000000, -1.000000000000000000 ) ) ;
#210 = CYLINDRICAL_SURFACE ( 'NONE', #89, 0.1875000000000000555 ) ;
#211 = ADVANCED_FACE ( 'NONE', ( #204 ), #72, .T. ) ;
#212 =( CONVERSION_BASED_UNIT ( 'INCH', #170 ) LENGTH_UNIT ( ) NAMED_UNIT ( #87 ) );
#213 = DIRECTION ( 'NONE',  ( -1.000000000000000000, 0.000000000000000000, 0.000000000000000000 ) ) ;
#214 = AXIS2_PLACEMENT_3D ( 'NONE', #279, #1, #213 ) ;
#215 = CYLINDRICAL_SURFACE ( 'NONE', #176, 0.1875000000000000278 ) ;
#216 = CARTESIAN_POINT ( 'NONE',  ( 0.000000000000000000, 2.000000000000000000, 0.000000000000000000 ) ) ;
#217 = PRESENTATION_STYLE_ASSIGNMENT (( #35 ) ) ;
#218 = SURFACE_STYLE_USAGE ( .BOTH. , #148 ) ;
#219 = CARTESIAN_POINT ( 'NONE',  ( 2.296212748401287726E-17, 0.000000000000000000, 0.1875000000000000278 ) ) ;
#220 = MANIFOLD_SOLID_BREP ( 'Revolve - Cutting Edge', #308 ) ;
#221 = FILL_AREA_STYLE_COLOUR ( '', #98 ) ;
#222 = VERTEX_POINT ( 'NONE', #309 ) ;
#223 = ADVANCED_FACE ( 'NONE', ( #28 ), #142, .T. ) ;
#224 = AXIS2_PLACEMENT_3D ( 'NONE', #260, #122, #209 ) ;
#225 = ORIENTED_EDGE ( 'NONE', *, *, #227, .T. ) ;
#226 = CARTESIAN_POINT ( 'NONE',  ( 0.000000000000000000, 2.000000000000000000, -0.1875000000000000278 ) ) ;
#227 = EDGE_CURVE ( 'NONE', #111, #123, #99, .T. ) ;
#228 = SURFACE_STYLE_FILL_AREA ( #259 ) ;
#229 = AXIS2_PLACEMENT_3D ( 'NONE', #41, #113, #187 ) ;
#230 = CARTESIAN_POINT ( 'NONE',  ( 0.1874999999999999722, 4.000000000000000000, 2.296212748401288034E-17 ) ) ;
#231 = APPLICATION_PROTOCOL_DEFINITION ( 'draft international standard', 'automotive_design', 1998, #275 ) ;
#232 = DIMENSIONAL_EXPONENTS ( 1.000000000000000000, 0.000000000000000000, 0.000000000000000000, 0.000000000000000000, 0.000000000000000000, 0.000000000000000000, 0.000000000000000000 ) ;
#233 = VECTOR ( 'NONE', #253, 39.37007874015748143 ) ;
#234 = CIRCLE ( 'NONE', #286, 0.1875000000000000278 ) ;
#235 = PRESENTATION_STYLE_ASSIGNMENT (( #140 ) ) ;
#236 = DIRECTION ( 'NONE',  ( -3.061616997868383018E-17, 1.000000000000000000, -0.000000000000000000 ) ) ;
#237 = FILL_AREA_STYLE_COLOUR ( '', #143 ) ;
#238 = AXIS2_PLACEMENT_3D ( 'NONE', #58, #12, #32 ) ;
#239 = EDGE_CURVE ( 'NONE', #292, #222, #179, .T. ) ;
#240 = PRODUCT_CONTEXT ( 'NONE', #275, 'mechanical' ) ;
#241 = STYLED_ITEM ( 'NONE', ( #78 ), #133 ) ;
#242 = UNCERTAINTY_MEASURE_WITH_UNIT (LENGTH_MEASURE( 1.000000000000000082E-05 ), #79, 'distance_accuracy_value', 'NONE');
#243 =( NAMED_UNIT ( * ) SI_UNIT ( $, .STERADIAN. ) SOLID_ANGLE_UNIT ( ) );
#244 = FILL_AREA_STYLE ('',( #172 ) ) ;
#245 = SURFACE_STYLE_FILL_AREA ( #244 ) ;
#246 = AXIS2_PLACEMENT_3D ( 'NONE', #136, #294, #174 ) ;
#247 = DIRECTION ( 'NONE',  ( -0.000000000000000000, -1.000000000000000000, -0.000000000000000000 ) ) ;
#248 = ORIENTED_EDGE ( 'NONE', *, *, #281, .F. ) ;
#249 = DIMENSIONAL_EXPONENTS ( 1.000000000000000000, 0.000000000000000000, 0.000000000000000000, 0.000000000000000000, 0.000000000000000000, 0.000000000000000000, 0.000000000000000000 ) ;
#250 = EDGE_LOOP ( 'NONE', ( #225, #203 ) ) ;
#251 = PRESENTATION_STYLE_ASSIGNMENT (( #144 ) ) ;
#252 = ADVANCED_FACE ( 'NONE', ( #159 ), #255, .F. ) ;
#253 = DIRECTION ( 'NONE',  ( -3.061616997868383018E-17, 1.000000000000000000, -0.000000000000000000 ) ) ;
#254 =( NAMED_UNIT ( * ) PLANE_ANGLE_UNIT ( ) SI_UNIT ( $, .RADIAN. ) );
#255 = PLANE ( 'NONE',  #52 ) ;
#256 = FACE_OUTER_BOUND ( 'NONE', #191, .T. ) ;
#257 = CARTESIAN_POINT ( 'NONE',  ( 0.000000000000000000, 0.000000000000000000, 0.000000000000000000 ) ) ;
#258 = ORIENTED_EDGE ( 'NONE', *, *, #97, .F. ) ;
#259 = FILL_AREA_STYLE ('',( #7 ) ) ;
#260 = CARTESIAN_POINT ( 'NONE',  ( 0.000000000000000000, 0.000000000000000000, 0.000000000000000000 ) ) ;
#261 = SURFACE_STYLE_FILL_AREA ( #31 ) ;
#262 = FILL_AREA_STYLE ('',( #100 ) ) ;
#263 = EDGE_LOOP ( 'NONE', ( #53, #20, #248, #105 ) ) ;
#264 = AXIS2_PLACEMENT_3D ( 'NONE', #55, #74, #167 ) ;
#265 = SURFACE_STYLE_FILL_AREA ( #262 ) ;
#266 = PRESENTATION_LAYER_ASSIGNMENT (  '', '', ( #241 ) ) ;
#267 = SURFACE_STYLE_FILL_AREA ( #81 ) ;
#268 = CARTESIAN_POINT ( 'NONE',  ( 0.000000000000000000, 2.000000000000000000, 0.000000000000000000 ) ) ;
#269 = CIRCLE ( 'NONE', #48, 0.1875000000000000278 ) ;
#270 =( NAMED_UNIT ( * ) PLANE_ANGLE_UNIT ( ) SI_UNIT ( $, .RADIAN. ) );
#271 =( NAMED_UNIT ( * ) PLANE_ANGLE_UNIT ( ) SI_UNIT ( $, .RADIAN. ) );
#272 = CARTESIAN_POINT ( 'NONE',  ( 0.000000000000000000, 0.000000000000000000, 0.000000000000000000 ) ) ;
#273 = CARTESIAN_POINT ( 'NONE',  ( 0.000000000000000000, 2.000000000000000000, 0.000000000000000000 ) ) ;
#274 = CARTESIAN_POINT ( 'NONE',  ( -6.123233995736766036E-17, 4.000000000000000000, 0.000000000000000000 ) ) ;
#275 = APPLICATION_CONTEXT ( 'automotive_design' ) ;
#276 = PRESENTATION_LAYER_ASSIGNMENT (  '', '', ( #121 ) ) ;
#277 = MECHANICAL_DESIGN_GEOMETRIC_PRESENTATION_REPRESENTATION (  '', ( #158 ), #198 ) ;
#278 = DIRECTION ( 'NONE',  ( -3.061616997868383018E-17, 1.000000000000000000, -0.000000000000000000 ) ) ;
#279 = CARTESIAN_POINT ( 'NONE',  ( 0.000000000000000000, 2.000000000000000000, 0.000000000000000000 ) ) ;
#280 =( CONVERSION_BASED_UNIT ( 'INCH', #124 ) LENGTH_UNIT ( ) NAMED_UNIT ( #232 ) );
#281 = EDGE_CURVE ( 'NONE', #152, #222, #160, .T. ) ;
#282 = VECTOR ( 'NONE', #68, 39.37007874015748143 ) ;
#283 = DIRECTION ( 'NONE',  ( -0.000000000000000000, -1.000000000000000000, -0.000000000000000000 ) ) ;
#284 =( LENGTH_UNIT ( ) NAMED_UNIT ( * ) SI_UNIT ( $, .METRE. ) );
#285 = COLOUR_RGB ( '',0.7921568627450980005, 0.8196078431372548767, 0.9333333333333333481 ) ;
#286 = AXIS2_PLACEMENT_3D ( 'NONE', #216, #24, #109 ) ;
#287 = FILL_AREA_STYLE ('',( #13 ) ) ;
#288 = STYLED_ITEM ( 'NONE', ( #251 ), #290 ) ;
#289 = CARTESIAN_POINT ( 'NONE',  ( -0.1875000000000000278, 2.000000000000000000, 0.000000000000000000 ) ) ;
#290 = ADVANCED_FACE ( 'NONE', ( #120 ), #145, .T. ) ;
#291 = AXIS2_PLACEMENT_3D ( 'NONE', #131, #104, #130 ) ;
#292 = VERTEX_POINT ( 'NONE', #4 ) ;
#293 = DIMENSIONAL_EXPONENTS ( 1.000000000000000000, 0.000000000000000000, 0.000000000000000000, 0.000000000000000000, 0.000000000000000000, 0.000000000000000000, 0.000000000000000000 ) ;
#294 = DIRECTION ( 'NONE',  ( -0.000000000000000000, -1.000000000000000000, -0.000000000000000000 ) ) ;
#295 = DIRECTION ( 'NONE',  ( -0.000000000000000000, -1.000000000000000000, -0.000000000000000000 ) ) ;
#296 = FACE_OUTER_BOUND ( 'NONE', #82, .T. ) ;
#297 = CLOSED_SHELL ( 'NONE', ( #223, #252, #304, #40 ) ) ;
#298 = CIRCLE ( 'NONE', #214, 0.1875000000000000278 ) ;
#299 = EDGE_LOOP ( 'NONE', ( #107, #6, #137, #188 ) ) ;
#300 = DIRECTION ( 'NONE',  ( 0.000000000000000000, 0.000000000000000000, -1.000000000000000000 ) ) ;
#301 = UNCERTAINTY_MEASURE_WITH_UNIT (LENGTH_MEASURE( 1.000000000000000082E-05 ), #85, 'distance_accuracy_value', 'NONE');
#302 = ORIENTED_EDGE ( 'NONE', *, *, #17, .F. ) ;
#303 = DIMENSIONAL_EXPONENTS ( 1.000000000000000000, 0.000000000000000000, 0.000000000000000000, 0.000000000000000000, 0.000000000000000000, 0.000000000000000000, 0.000000000000000000 ) ;
#304 = ADVANCED_FACE ( 'NONE', ( #161 ), #210, .T. ) ;
#305 = PRODUCT_RELATED_PRODUCT_CATEGORY ( 'part', '', ( #138 ) ) ;
#306 = EDGE_LOOP ( 'NONE', ( #194, #93 ) ) ;
#307 = CARTESIAN_POINT ( 'NONE',  ( 0.000000000000000000, 0.000000000000000000, 0.000000000000000000 ) ) ;
#308 = CLOSED_SHELL ( 'NONE', ( #133, #88, #211, #290 ) ) ;
#309 = CARTESIAN_POINT ( 'NONE',  ( 0.1875000000000000278, 4.000000000000000000, 2.296212748401288342E-17 ) ) ;
ENDSEC;
END-ISO-10303-21;
