ISO-10303-21;
HEADER;
FILE_DESCRIPTION (( 'STEP AP214' ),
    '1' );
FILE_NAME ('Micro_RSC-250-220X.STEP',
    '2021-09-03T17:48:55',
    ( '' ),
    ( '' ),
    'SwSTEP 2.0',
    'SolidWorks 2020',
    '' );
FILE_SCHEMA (( 'AUTOMOTIVE_DESIGN' ));
ENDSEC;

DATA;
#1 = CARTESIAN_POINT ( 'NONE',  ( 0.1250000000000000000, 1.530808498934191509E-17, 0.1991858428704201822 ) ) ;
#2 = AXIS2_PLACEMENT_3D ( 'NONE', #203, #103, #162 ) ;
#3 = SHAPE_DEFINITION_REPRESENTATION ( #160, #246 ) ;
#4 = ORIENTED_EDGE ( 'NONE', *, *, #190, .T. ) ;
#5 = EDGE_CURVE ( 'NONE', #96, #25, #178, .T. ) ;
#6 = PRESENTATION_STYLE_ASSIGNMENT (( #43 ) ) ;
#7 = EDGE_LOOP ( 'NONE', ( #198, #171, #136, #212 ) ) ;
#8 = MECHANICAL_DESIGN_GEOMETRIC_PRESENTATION_REPRESENTATION (  '', ( #182 ), #16 ) ;
#9 = DIRECTION ( 'NONE',  ( -1.000000000000000000, 0.0000000000000000000, 0.0000000000000000000 ) ) ;
#10 = FACE_OUTER_BOUND ( 'NONE', #97, .T. ) ;
#11 = DIRECTION ( 'NONE',  ( 0.0000000000000000000, 0.0000000000000000000, 1.000000000000000000 ) ) ;
#12 = AXIS2_PLACEMENT_3D ( 'NONE', #128, #37, #107 ) ;
#13 = DIRECTION ( 'NONE',  ( -0.0000000000000000000, -0.0000000000000000000, -1.000000000000000000 ) ) ;
#14 = DIRECTION ( 'NONE',  ( 1.000000000000000000, 0.0000000000000000000, 0.0000000000000000000 ) ) ;
#15 = CARTESIAN_POINT ( 'NONE',  ( 0.0000000000000000000, 0.0000000000000000000, 2.500000000000000000 ) ) ;
#16 =( GEOMETRIC_REPRESENTATION_CONTEXT ( 3 ) GLOBAL_UNCERTAINTY_ASSIGNED_CONTEXT ( ( #240 ) ) GLOBAL_UNIT_ASSIGNED_CONTEXT ( ( #130, #168, #208 ) ) REPRESENTATION_CONTEXT ( 'NONE', 'WORKASPACE' ) );
#17 = FILL_AREA_STYLE ('',( #229 ) ) ;
#18 = CONICAL_SURFACE ( 'NONE', #12, 0.01000000000000000021, 0.5235987755983003700 ) ;
#19 = CONICAL_SURFACE ( 'NONE', #121, 0.01000000000000000021, 0.5235987755983003700 ) ;
#20 = ADVANCED_FACE ( 'NONE', ( #60 ), #132, .T. ) ;
#21 = PRODUCT_CONTEXT ( 'NONE', #122, 'mechanical' ) ;
#22 = ORIENTED_EDGE ( 'NONE', *, *, #144, .T. ) ;
#23 = PRODUCT_DEFINITION_CONTEXT ( 'detailed design', #232, 'design' ) ;
#24 = EDGE_CURVE ( 'NONE', #61, #25, #181, .T. ) ;
#25 = VERTEX_POINT ( 'NONE', #179 ) ;
#26 =( NAMED_UNIT ( * ) PLANE_ANGLE_UNIT ( ) SI_UNIT ( $, .RADIAN. ) );
#27 = EDGE_LOOP ( 'NONE', ( #59, #175, #40, #99 ) ) ;
#28 = EDGE_CURVE ( 'NONE', #155, #215, #86, .T. ) ;
#29 = AXIS2_PLACEMENT_3D ( 'NONE', #66, #34, #87 ) ;
#30 = ORIENTED_EDGE ( 'NONE', *, *, #190, .F. ) ;
#31 = DIRECTION ( 'NONE',  ( 0.5000000000000012212, 0.0000000000000000000, 0.8660254037844377084 ) ) ;
#32 = LINE ( 'NONE', #139, #244 ) ;
#33 = CARTESIAN_POINT ( 'NONE',  ( 0.0000000000000000000, 0.0000000000000000000, 0.0000000000000000000 ) ) ;
#34 = DIRECTION ( 'NONE',  ( 0.0000000000000000000, 0.0000000000000000000, 1.000000000000000000 ) ) ;
#35 = DIRECTION ( 'NONE',  ( -0.5000000000000012212, -6.123233995736780827E-17, -0.8660254037844377084 ) ) ;
#36 = AXIS2_PLACEMENT_3D ( 'NONE', #64, #11, #14 ) ;
#37 = DIRECTION ( 'NONE',  ( 0.0000000000000000000, 0.0000000000000000000, -1.000000000000000000 ) ) ;
#38 =( CONVERSION_BASED_UNIT ( 'INCH', #89 ) LENGTH_UNIT ( ) NAMED_UNIT ( #196 ) );
#39 = SURFACE_SIDE_STYLE ('',( #115 ) ) ;
#40 = ORIENTED_EDGE ( 'NONE', *, *, #165, .F. ) ;
#41 = EDGE_CURVE ( 'NONE', #61, #155, #53, .T. ) ;
#42 = ORIENTED_EDGE ( 'NONE', *, *, #68, .T. ) ;
#43 = SURFACE_STYLE_USAGE ( .BOTH. , #39 ) ;
#44 = EDGE_LOOP ( 'NONE', ( #216, #45, #194, #149 ) ) ;
#45 = ORIENTED_EDGE ( 'NONE', *, *, #5, .T. ) ;
#46 = ORIENTED_EDGE ( 'NONE', *, *, #5, .F. ) ;
#47 = CONICAL_SURFACE ( 'NONE', #36, 0.01000000000000000021, 0.5235987755983003700 ) ;
#48 = CYLINDRICAL_SURFACE ( 'NONE', #150, 0.1250000000000000000 ) ;
#49 = DIRECTION ( 'NONE',  ( -0.0000000000000000000, -0.0000000000000000000, -1.000000000000000000 ) ) ;
#50 = DIRECTION ( 'NONE',  ( -1.000000000000000000, 0.0000000000000000000, 0.0000000000000000000 ) ) ;
#51 = PRODUCT_DEFINITION_FORMATION_WITH_SPECIFIED_SOURCE ( 'ANY', '', #75, .NOT_KNOWN. ) ;
#52 = LINE ( 'NONE', #126, #138 ) ;
#53 = CIRCLE ( 'NONE', #90, 0.1250000000000000000 ) ;
#54 = AXIS2_PLACEMENT_3D ( 'NONE', #249, #111, #145 ) ;
#55 = FACE_OUTER_BOUND ( 'NONE', #118, .T. ) ;
#56 = CARTESIAN_POINT ( 'NONE',  ( 0.0000000000000000000, 0.0000000000000000000, 0.0000000000000000000 ) ) ;
#57 =( LENGTH_UNIT ( ) NAMED_UNIT ( * ) SI_UNIT ( $, .METRE. ) );
#58 =( NAMED_UNIT ( * ) SI_UNIT ( $, .STERADIAN. ) SOLID_ANGLE_UNIT ( ) );
#59 = ORIENTED_EDGE ( 'NONE', *, *, #41, .T. ) ;
#60 = FACE_OUTER_BOUND ( 'NONE', #27, .T. ) ;
#61 = VERTEX_POINT ( 'NONE', #220 ) ;
#62 = CARTESIAN_POINT ( 'NONE',  ( -0.01000000000000000021, 8.266365894244632793E-18, 0.0000000000000000000 ) ) ;
#63 = AXIS2_PLACEMENT_3D ( 'NONE', #100, #67, #204 ) ;
#64 = CARTESIAN_POINT ( 'NONE',  ( 0.0000000000000000000, 0.0000000000000000000, 0.0000000000000000000 ) ) ;
#65 = CARTESIAN_POINT ( 'NONE',  ( 0.0000000000000000000, 0.0000000000000000000, 2.300814157129579929 ) ) ;
#66 = CARTESIAN_POINT ( 'NONE',  ( 0.0000000000000000000, 0.0000000000000000000, 0.0000000000000000000 ) ) ;
#67 = DIRECTION ( 'NONE',  ( -0.0000000000000000000, -0.0000000000000000000, -1.000000000000000000 ) ) ;
#68 = EDGE_CURVE ( 'NONE', #116, #61, #104, .T. ) ;
#69 = DIRECTION ( 'NONE',  ( 1.000000000000000000, 0.0000000000000000000, 0.0000000000000000000 ) ) ;
#70 = CIRCLE ( 'NONE', #187, 0.1250000000000000000 ) ;
#71 = PRESENTATION_STYLE_ASSIGNMENT (( #186 ) ) ;
#72 = VERTEX_POINT ( 'NONE', #157 ) ;
#73 = CIRCLE ( 'NONE', #218, 0.1250000000000000000 ) ;
#74 = ORIENTED_EDGE ( 'NONE', *, *, #91, .F. ) ;
#75 = PRODUCT ( 'Micro_RSC-250-220X', 'Micro_RSC-250-220X', '', ( #21 ) ) ;
#76 = DIMENSIONAL_EXPONENTS ( 1.000000000000000000, 0.0000000000000000000, 0.0000000000000000000, 0.0000000000000000000, 0.0000000000000000000, 0.0000000000000000000, 0.0000000000000000000 ) ;
#77 = ORIENTED_EDGE ( 'NONE', *, *, #152, .T. ) ;
#78 = VECTOR ( 'NONE', #13, 39.37007874015748143 ) ;
#79 = ORIENTED_EDGE ( 'NONE', *, *, #156, .F. ) ;
#80 = CARTESIAN_POINT ( 'NONE',  ( 0.1250000000000000000, 1.530808498934191509E-17, 2.500000000000000000 ) ) ;
#81 = DIRECTION ( 'NONE',  ( -1.000000000000000000, 0.0000000000000000000, 0.0000000000000000000 ) ) ;
#82 = EDGE_CURVE ( 'NONE', #96, #72, #223, .T. ) ;
#83 = AXIS2_PLACEMENT_3D ( 'NONE', #84, #106, #9 ) ;
#84 = CARTESIAN_POINT ( 'NONE',  ( 0.0000000000000000000, 0.0000000000000000000, 2.500000000000000000 ) ) ;
#85 = CONICAL_SURFACE ( 'NONE', #213, 0.01000000000000000021, 0.5235987755983003700 ) ;
#86 = LINE ( 'NONE', #80, #231 ) ;
#87 = DIRECTION ( 'NONE',  ( 1.000000000000000000, 0.0000000000000000000, -0.0000000000000000000 ) ) ;
#88 =( GEOMETRIC_REPRESENTATION_CONTEXT ( 3 ) GLOBAL_UNCERTAINTY_ASSIGNED_CONTEXT ( ( #137 ) ) GLOBAL_UNIT_ASSIGNED_CONTEXT ( ( #134, #26, #113 ) ) REPRESENTATION_CONTEXT ( 'NONE', 'WORKASPACE' ) );
#89 = LENGTH_MEASURE_WITH_UNIT ( LENGTH_MEASURE( 0.02539999999999999897 ), #57 );
#90 = AXIS2_PLACEMENT_3D ( 'NONE', #65, #242, #81 ) ;
#91 = EDGE_CURVE ( 'NONE', #114, #155, #32, .T. ) ;
#92 = SURFACE_SIDE_STYLE ('',( #228 ) ) ;
#93 = DIRECTION ( 'NONE',  ( 0.0000000000000000000, 0.0000000000000000000, 1.000000000000000000 ) ) ;
#94 = ORIENTED_EDGE ( 'NONE', *, *, #82, .T. ) ;
#95 = LENGTH_MEASURE_WITH_UNIT ( LENGTH_MEASURE( 0.02539999999999999897 ), #197 );
#96 = VERTEX_POINT ( 'NONE', #62 ) ;
#97 = EDGE_LOOP ( 'NONE', ( #4, #94 ) ) ;
#98 = AXIS2_PLACEMENT_3D ( 'NONE', #33, #49, #183 ) ;
#99 = ORIENTED_EDGE ( 'NONE', *, *, #24, .F. ) ;
#100 = CARTESIAN_POINT ( 'NONE',  ( 0.0000000000000000000, 0.0000000000000000000, 0.1991858428704201822 ) ) ;
#101 = ADVANCED_FACE ( 'NONE', ( #10 ), #140, .F. ) ;
#102 = CARTESIAN_POINT ( 'NONE',  ( 0.01000000000000000021, 0.0000000000000000000, 2.500000000000000000 ) ) ;
#103 = DIRECTION ( 'NONE',  ( 0.0000000000000000000, 0.0000000000000000000, -1.000000000000000000 ) ) ;
#104 = LINE ( 'NONE', #239, #185 ) ;
#105 = PRODUCT_RELATED_PRODUCT_CATEGORY ( 'part', '', ( #75 ) ) ;
#106 = DIRECTION ( 'NONE',  ( 0.0000000000000000000, 0.0000000000000000000, -1.000000000000000000 ) ) ;
#107 = DIRECTION ( 'NONE',  ( 1.000000000000000000, 0.0000000000000000000, 0.0000000000000000000 ) ) ;
#108 = CIRCLE ( 'NONE', #2, 0.01000000000000000021 ) ;
#109 = PRODUCT_DEFINITION ( 'UNKNOWN', '', #51, #23 ) ;
#110 = DIRECTION ( 'NONE',  ( 0.0000000000000000000, 0.0000000000000000000, 1.000000000000000000 ) ) ;
#111 = DIRECTION ( 'NONE',  ( 0.0000000000000000000, 0.0000000000000000000, 1.000000000000000000 ) ) ;
#112 = ADVANCED_FACE ( 'NONE', ( #217 ), #48, .T. ) ;
#113 =( NAMED_UNIT ( * ) SI_UNIT ( $, .STERADIAN. ) SOLID_ANGLE_UNIT ( ) );
#114 = VERTEX_POINT ( 'NONE', #102 ) ;
#115 = SURFACE_STYLE_FILL_AREA ( #188 ) ;
#116 = VERTEX_POINT ( 'NONE', #120 ) ;
#117 = STYLED_ITEM ( 'NONE', ( #6 ), #246 ) ;
#118 = EDGE_LOOP ( 'NONE', ( #22, #42, #135, #74 ) ) ;
#119 = UNCERTAINTY_MEASURE_WITH_UNIT (LENGTH_MEASURE( 1.000000000000000082E-05 ), #38, 'distance_accuracy_value', 'NONE');
#120 = CARTESIAN_POINT ( 'NONE',  ( -0.01000000000000000021, -8.266365894244628170E-18, 2.500000000000000000 ) ) ;
#121 = AXIS2_PLACEMENT_3D ( 'NONE', #56, #110, #69 ) ;
#122 = APPLICATION_CONTEXT ( 'automotive_design' ) ;
#123 = DIRECTION ( 'NONE',  ( -1.000000000000000000, 0.0000000000000000000, 0.0000000000000000000 ) ) ;
#124 = CARTESIAN_POINT ( 'NONE',  ( 0.1250000000000000000, 1.530808498934191509E-17, 2.300814157129579929 ) ) ;
#125 = VECTOR ( 'NONE', #233, 39.37007874015748854 ) ;
#126 = CARTESIAN_POINT ( 'NONE',  ( 0.01000000000000000021, 0.0000000000000000000, 0.0000000000000000000 ) ) ;
#127 = ADVANCED_FACE ( 'NONE', ( #163 ), #47, .T. ) ;
#128 = CARTESIAN_POINT ( 'NONE',  ( 0.0000000000000000000, 0.0000000000000000000, 2.500000000000000000 ) ) ;
#129 = FILL_AREA_STYLE_COLOUR ( '', #241 ) ;
#130 =( CONVERSION_BASED_UNIT ( 'INCH', #207 ) LENGTH_UNIT ( ) NAMED_UNIT ( #76 ) );
#131 = DIRECTION ( 'NONE',  ( -1.000000000000000000, 0.0000000000000000000, 0.0000000000000000000 ) ) ;
#132 = CYLINDRICAL_SURFACE ( 'NONE', #176, 0.1250000000000000000 ) ;
#133 = EDGE_LOOP ( 'NONE', ( #46, #30, #211, #153 ) ) ;
#134 =( CONVERSION_BASED_UNIT ( 'INCH', #95 ) LENGTH_UNIT ( ) NAMED_UNIT ( #195 ) );
#135 = ORIENTED_EDGE ( 'NONE', *, *, #152, .F. ) ;
#136 = ORIENTED_EDGE ( 'NONE', *, *, #91, .T. ) ;
#137 = UNCERTAINTY_MEASURE_WITH_UNIT (LENGTH_MEASURE( 1.000000000000000082E-05 ), #134, 'distance_accuracy_value', 'NONE');
#138 = VECTOR ( 'NONE', #31, 39.37007874015748854 ) ;
#139 = CARTESIAN_POINT ( 'NONE',  ( 0.01000000000000000021, 0.0000000000000000000, 2.500000000000000000 ) ) ;
#140 = PLANE ( 'NONE',  #29 ) ;
#141 = DIRECTION ( 'NONE',  ( -0.0000000000000000000, -0.0000000000000000000, -1.000000000000000000 ) ) ;
#142 = CIRCLE ( 'NONE', #177, 0.01000000000000000021 ) ;
#143 = DIRECTION ( 'NONE',  ( -0.0000000000000000000, -0.0000000000000000000, -1.000000000000000000 ) ) ;
#144 = EDGE_CURVE ( 'NONE', #114, #116, #164, .T. ) ;
#145 = DIRECTION ( 'NONE',  ( 1.000000000000000000, 0.0000000000000000000, -0.0000000000000000000 ) ) ;
#146 = PLANE ( 'NONE',  #54 ) ;
#147 = COLOUR_RGB ( '',0.7921568627450980005, 0.8196078431372548767, 0.9333333333333333481 ) ;
#148 = AXIS2_PLACEMENT_3D ( 'NONE', #174, #93, #193 ) ;
#149 = ORIENTED_EDGE ( 'NONE', *, *, #161, .F. ) ;
#150 = AXIS2_PLACEMENT_3D ( 'NONE', #222, #221, #238 ) ;
#151 = CARTESIAN_POINT ( 'NONE',  ( -0.01000000000000000021, 1.224646799147353384E-18, 0.0000000000000000000 ) ) ;
#152 = EDGE_CURVE ( 'NONE', #155, #61, #73, .T. ) ;
#153 = ORIENTED_EDGE ( 'NONE', *, *, #230, .T. ) ;
#154 = EDGE_LOOP ( 'NONE', ( #173, #79 ) ) ;
#155 = VERTEX_POINT ( 'NONE', #124 ) ;
#156 = EDGE_CURVE ( 'NONE', #116, #114, #108, .T. ) ;
#157 = CARTESIAN_POINT ( 'NONE',  ( 0.01000000000000000021, 0.0000000000000000000, 0.0000000000000000000 ) ) ;
#158 = DIRECTION ( 'NONE',  ( 0.5000000000000012212, 0.0000000000000000000, -0.8660254037844377084 ) ) ;
#159 = DIRECTION ( 'NONE',  ( 0.0000000000000000000, 0.0000000000000000000, -1.000000000000000000 ) ) ;
#160 = PRODUCT_DEFINITION_SHAPE ( 'NONE', 'NONE',  #109 ) ;
#161 = EDGE_CURVE ( 'NONE', #72, #215, #52, .T. ) ;
#162 = DIRECTION ( 'NONE',  ( -1.000000000000000000, 0.0000000000000000000, 0.0000000000000000000 ) ) ;
#163 = FACE_OUTER_BOUND ( 'NONE', #44, .T. ) ;
#164 = CIRCLE ( 'NONE', #83, 0.01000000000000000021 ) ;
#165 = EDGE_CURVE ( 'NONE', #25, #215, #170, .T. ) ;
#166 = FACE_OUTER_BOUND ( 'NONE', #133, .T. ) ;
#167 =( LENGTH_UNIT ( ) NAMED_UNIT ( * ) SI_UNIT ( $, .METRE. ) );
#168 =( NAMED_UNIT ( * ) PLANE_ANGLE_UNIT ( ) SI_UNIT ( $, .RADIAN. ) );
#169 = ORIENTED_EDGE ( 'NONE', *, *, #28, .F. ) ;
#170 = CIRCLE ( 'NONE', #63, 0.1250000000000000000 ) ;
#171 = ORIENTED_EDGE ( 'NONE', *, *, #156, .T. ) ;
#172 = APPLICATION_PROTOCOL_DEFINITION ( 'draft international standard', 'automotive_design', 1998, #232 ) ;
#173 = ORIENTED_EDGE ( 'NONE', *, *, #144, .F. ) ;
#174 = CARTESIAN_POINT ( 'NONE',  ( 0.0000000000000000000, 0.0000000000000000000, 0.0000000000000000000 ) ) ;
#175 = ORIENTED_EDGE ( 'NONE', *, *, #28, .T. ) ;
#176 = AXIS2_PLACEMENT_3D ( 'NONE', #180, #141, #123 ) ;
#177 = AXIS2_PLACEMENT_3D ( 'NONE', #243, #143, #225 ) ;
#178 = LINE ( 'NONE', #151, #125 ) ;
#179 = CARTESIAN_POINT ( 'NONE',  ( -0.1250000000000000000, 0.0000000000000000000, 0.1991858428704201822 ) ) ;
#180 = CARTESIAN_POINT ( 'NONE',  ( 0.0000000000000000000, 0.0000000000000000000, 2.500000000000000000 ) ) ;
#181 = LINE ( 'NONE', #237, #78 ) ;
#182 = STYLED_ITEM ( 'NONE', ( #71 ), #219 ) ;
#183 = DIRECTION ( 'NONE',  ( -1.000000000000000000, 0.0000000000000000000, 0.0000000000000000000 ) ) ;
#184 = FACE_OUTER_BOUND ( 'NONE', #154, .T. ) ;
#185 = VECTOR ( 'NONE', #35, 39.37007874015748854 ) ;
#186 = SURFACE_STYLE_USAGE ( .BOTH. , #92 ) ;
#187 = AXIS2_PLACEMENT_3D ( 'NONE', #245, #192, #131 ) ;
#188 = FILL_AREA_STYLE ('',( #129 ) ) ;
#189 = DIRECTION ( 'NONE',  ( 1.000000000000000000, 0.0000000000000000000, 0.0000000000000000000 ) ) ;
#190 = EDGE_CURVE ( 'NONE', #72, #96, #142, .T. ) ;
#191 = CLOSED_SHELL ( 'NONE', ( #202, #127, #20, #112, #248, #101, #234, #210 ) ) ;
#192 = DIRECTION ( 'NONE',  ( -0.0000000000000000000, -0.0000000000000000000, -1.000000000000000000 ) ) ;
#193 = DIRECTION ( 'NONE',  ( 1.000000000000000000, 0.0000000000000000000, 0.0000000000000000000 ) ) ;
#194 = ORIENTED_EDGE ( 'NONE', *, *, #165, .T. ) ;
#195 = DIMENSIONAL_EXPONENTS ( 1.000000000000000000, 0.0000000000000000000, 0.0000000000000000000, 0.0000000000000000000, 0.0000000000000000000, 0.0000000000000000000, 0.0000000000000000000 ) ;
#196 = DIMENSIONAL_EXPONENTS ( 1.000000000000000000, 0.0000000000000000000, 0.0000000000000000000, 0.0000000000000000000, 0.0000000000000000000, 0.0000000000000000000, 0.0000000000000000000 ) ;
#197 =( LENGTH_UNIT ( ) NAMED_UNIT ( * ) SI_UNIT ( $, .METRE. ) );
#198 = ORIENTED_EDGE ( 'NONE', *, *, #68, .F. ) ;
#199 = EDGE_LOOP ( 'NONE', ( #169, #77, #235, #236 ) ) ;
#200 = CARTESIAN_POINT ( 'NONE',  ( 0.0000000000000000000, 0.0000000000000000000, 2.300814157129579929 ) ) ;
#201 = DIRECTION ( 'NONE',  ( -0.0000000000000000000, -0.0000000000000000000, -1.000000000000000000 ) ) ;
#202 = ADVANCED_FACE ( 'NONE', ( #55 ), #18, .T. ) ;
#203 = CARTESIAN_POINT ( 'NONE',  ( 0.0000000000000000000, 0.0000000000000000000, 2.500000000000000000 ) ) ;
#204 = DIRECTION ( 'NONE',  ( -1.000000000000000000, 0.0000000000000000000, 0.0000000000000000000 ) ) ;
#205 = PRESENTATION_LAYER_ASSIGNMENT (  '', '', ( #117 ) ) ;
#206 = FACE_OUTER_BOUND ( 'NONE', #7, .T. ) ;
#207 = LENGTH_MEASURE_WITH_UNIT ( LENGTH_MEASURE( 0.02539999999999999897 ), #167 );
#208 =( NAMED_UNIT ( * ) SI_UNIT ( $, .STERADIAN. ) SOLID_ANGLE_UNIT ( ) );
#209 = DIRECTION ( 'NONE',  ( 0.0000000000000000000, 0.0000000000000000000, -1.000000000000000000 ) ) ;
#210 = ADVANCED_FACE ( 'NONE', ( #184 ), #146, .T. ) ;
#211 = ORIENTED_EDGE ( 'NONE', *, *, #161, .T. ) ;
#212 = ORIENTED_EDGE ( 'NONE', *, *, #41, .F. ) ;
#213 = AXIS2_PLACEMENT_3D ( 'NONE', #15, #209, #189 ) ;
#214 =( GEOMETRIC_REPRESENTATION_CONTEXT ( 3 ) GLOBAL_UNCERTAINTY_ASSIGNED_CONTEXT ( ( #119 ) ) GLOBAL_UNIT_ASSIGNED_CONTEXT ( ( #38, #247, #58 ) ) REPRESENTATION_CONTEXT ( 'NONE', 'WORKASPACE' ) );
#215 = VERTEX_POINT ( 'NONE', #1 ) ;
#216 = ORIENTED_EDGE ( 'NONE', *, *, #82, .F. ) ;
#217 = FACE_OUTER_BOUND ( 'NONE', #199, .T. ) ;
#218 = AXIS2_PLACEMENT_3D ( 'NONE', #200, #159, #50 ) ;
#219 = MANIFOLD_SOLID_BREP ( 'Mirror1', #191 ) ;
#220 = CARTESIAN_POINT ( 'NONE',  ( -0.1250000000000000000, 0.0000000000000000000, 2.300814157129579929 ) ) ;
#221 = DIRECTION ( 'NONE',  ( -0.0000000000000000000, -0.0000000000000000000, -1.000000000000000000 ) ) ;
#222 = CARTESIAN_POINT ( 'NONE',  ( 0.0000000000000000000, 0.0000000000000000000, 2.500000000000000000 ) ) ;
#223 = CIRCLE ( 'NONE', #98, 0.01000000000000000021 ) ;
#224 = PRESENTATION_LAYER_ASSIGNMENT (  '', '', ( #182 ) ) ;
#225 = DIRECTION ( 'NONE',  ( -1.000000000000000000, 0.0000000000000000000, 0.0000000000000000000 ) ) ;
#226 = APPLICATION_PROTOCOL_DEFINITION ( 'draft international standard', 'automotive_design', 1998, #122 ) ;
#227 = MECHANICAL_DESIGN_GEOMETRIC_PRESENTATION_REPRESENTATION (  '', ( #117 ), #88 ) ;
#228 = SURFACE_STYLE_FILL_AREA ( #17 ) ;
#229 = FILL_AREA_STYLE_COLOUR ( '', #147 ) ;
#230 = EDGE_CURVE ( 'NONE', #215, #25, #70, .T. ) ;
#231 = VECTOR ( 'NONE', #201, 39.37007874015748143 ) ;
#232 = APPLICATION_CONTEXT ( 'automotive_design' ) ;
#233 = DIRECTION ( 'NONE',  ( -0.5000000000000012212, 6.123233995736780827E-17, 0.8660254037844377084 ) ) ;
#234 = ADVANCED_FACE ( 'NONE', ( #206 ), #85, .T. ) ;
#235 = ORIENTED_EDGE ( 'NONE', *, *, #24, .T. ) ;
#236 = ORIENTED_EDGE ( 'NONE', *, *, #230, .F. ) ;
#237 = CARTESIAN_POINT ( 'NONE',  ( -0.1250000000000000000, 0.0000000000000000000, 2.500000000000000000 ) ) ;
#238 = DIRECTION ( 'NONE',  ( -1.000000000000000000, 0.0000000000000000000, 0.0000000000000000000 ) ) ;
#239 = CARTESIAN_POINT ( 'NONE',  ( -0.01000000000000000021, -1.224646799147353384E-18, 2.500000000000000000 ) ) ;
#240 = UNCERTAINTY_MEASURE_WITH_UNIT (LENGTH_MEASURE( 1.000000000000000082E-05 ), #130, 'distance_accuracy_value', 'NONE');
#241 = COLOUR_RGB ( '',0.7921568627450980005, 0.8196078431372548767, 0.9333333333333333481 ) ;
#242 = DIRECTION ( 'NONE',  ( 0.0000000000000000000, 0.0000000000000000000, -1.000000000000000000 ) ) ;
#243 = CARTESIAN_POINT ( 'NONE',  ( 0.0000000000000000000, 0.0000000000000000000, 0.0000000000000000000 ) ) ;
#244 = VECTOR ( 'NONE', #158, 39.37007874015748854 ) ;
#245 = CARTESIAN_POINT ( 'NONE',  ( 0.0000000000000000000, 0.0000000000000000000, 0.1991858428704201822 ) ) ;
#246 = ADVANCED_BREP_SHAPE_REPRESENTATION ( 'Micro_RSC-250-220X', ( #219, #148 ), #214 ) ;
#247 =( NAMED_UNIT ( * ) PLANE_ANGLE_UNIT ( ) SI_UNIT ( $, .RADIAN. ) );
#248 = ADVANCED_FACE ( 'NONE', ( #166 ), #19, .T. ) ;
#249 = CARTESIAN_POINT ( 'NONE',  ( 0.0000000000000000000, 0.0000000000000000000, 2.500000000000000000 ) ) ;
ENDSEC;
END-ISO-10303-21;
