ISO-10303-21;
HEADER;
FILE_DESCRIPTION (( 'STEP AP214' ),
    '1' );
FILE_NAME ('Micro_RDB-100.STEP',
    '2021-08-31T16:59:27',
    ( '' ),
    ( '' ),
    'SwSTEP 2.0',
    'SolidWorks 2020',
    '' );
FILE_SCHEMA (( 'AUTOMOTIVE_DESIGN' ));
ENDSEC;

DATA;
#1 =( LENGTH_UNIT ( ) NAMED_UNIT ( * ) SI_UNIT ( $, .METRE. ) );
#2 = DIRECTION ( 'NONE',  ( 0.0000000000000000000, 0.0000000000000000000, 1.000000000000000000 ) ) ;
#3 = CIRCLE ( 'NONE', #132, 0.1873124999999999929 ) ;
#4 = CYLINDRICAL_SURFACE ( 'NONE', #61, 0.1875000000000000278 ) ;
#5 = CARTESIAN_POINT ( 'NONE',  ( 0.1875000000000001388, 2.296212748401289266E-17, 1.001063365341178679 ) ) ;
#6 = CARTESIAN_POINT ( 'NONE',  ( 0.0000000000000000000, 0.0000000000000000000, 2.500000000000000000 ) ) ;
#7 = DIRECTION ( 'NONE',  ( -1.224646799147353207E-16, -0.0000000000000000000, -1.000000000000000000 ) ) ;
#8 = PRODUCT_DEFINITION_CONTEXT ( 'detailed design', #199, 'design' ) ;
#9 = EDGE_CURVE ( 'NONE', #23, #275, #95, .T. ) ;
#10 = CARTESIAN_POINT ( 'NONE',  ( 0.1724999999999995981, 2.204364238465233357E-17, 2.500000000000000000 ) ) ;
#11 = AXIS2_PLACEMENT_3D ( 'NONE', #128, #200, #16 ) ;
#12 = EDGE_CURVE ( 'NONE', #181, #137, #142, .T. ) ;
#13 = DIRECTION ( 'NONE',  ( 0.0000000000000000000, 0.0000000000000000000, 1.000000000000000000 ) ) ;
#14 = DIRECTION ( 'NONE',  ( 0.0000000000000000000, 0.0000000000000000000, 1.000000000000000000 ) ) ;
#15 = ORIENTED_EDGE ( 'NONE', *, *, #226, .T. ) ;
#16 = DIRECTION ( 'NONE',  ( -1.000000000000000000, 0.0000000000000000000, 0.0000000000000000000 ) ) ;
#17 = EDGE_LOOP ( 'NONE', ( #135, #46, #15, #140 ) ) ;
#18 = CIRCLE ( 'NONE', #188, 0.1873124999999999929 ) ;
#19 = AXIS2_PLACEMENT_3D ( 'NONE', #91, #14, #160 ) ;
#20 = DIMENSIONAL_EXPONENTS ( 1.000000000000000000, 0.0000000000000000000, 0.0000000000000000000, 0.0000000000000000000, 0.0000000000000000000, 0.0000000000000000000, 0.0000000000000000000 ) ;
#21 = ORIENTED_EDGE ( 'NONE', *, *, #226, .F. ) ;
#22 = EDGE_LOOP ( 'NONE', ( #205, #273 ) ) ;
#23 = VERTEX_POINT ( 'NONE', #163 ) ;
#24 = EDGE_CURVE ( 'NONE', #232, #84, #281, .T. ) ;
#25 = PRESENTATION_STYLE_ASSIGNMENT (( #210 ) ) ;
#26 = LINE ( 'NONE', #260, #164 ) ;
#27 = DIRECTION ( 'NONE',  ( 0.0000000000000000000, 0.0000000000000000000, -1.000000000000000000 ) ) ;
#28 = AXIS2_PLACEMENT_3D ( 'NONE', #218, #7, #150 ) ;
#29 = MECHANICAL_DESIGN_GEOMETRIC_PRESENTATION_REPRESENTATION (  '', ( #90 ), #276 ) ;
#30 =( CONVERSION_BASED_UNIT ( 'INCH', #74 ) LENGTH_UNIT ( ) NAMED_UNIT ( #242 ) );
#31 = DIRECTION ( 'NONE',  ( -0.0000000000000000000, -0.0000000000000000000, -1.000000000000000000 ) ) ;
#32 = FACE_OUTER_BOUND ( 'NONE', #22, .T. ) ;
#33 = AXIS2_PLACEMENT_3D ( 'NONE', #141, #27, #94 ) ;
#34 = FACE_OUTER_BOUND ( 'NONE', #208, .T. ) ;
#35 = CARTESIAN_POINT ( 'NONE',  ( 0.0000000000000000000, 0.0000000000000000000, 2.484999999999999432 ) ) ;
#36 = CARTESIAN_POINT ( 'NONE',  ( 0.1873125000000000762, 0.0000000000000000000, 1.000000000000000000 ) ) ;
#37 = ADVANCED_FACE ( 'NONE', ( #144 ), #4, .T. ) ;
#38 = AXIS2_PLACEMENT_3D ( 'NONE', #180, #178, #222 ) ;
#39 = DIRECTION ( 'NONE',  ( -1.000000000000000000, 0.0000000000000000000, 1.224646799147352961E-16 ) ) ;
#40 = CIRCLE ( 'NONE', #216, 0.1873124999999999374 ) ;
#41 = LENGTH_MEASURE_WITH_UNIT ( LENGTH_MEASURE( 0.02539999999999999897 ), #66 );
#42 = ORIENTED_EDGE ( 'NONE', *, *, #136, .F. ) ;
#43 = SURFACE_SIDE_STYLE ('',( #64 ) ) ;
#44 = DIRECTION ( 'NONE',  ( -0.0000000000000000000, -0.0000000000000000000, -1.000000000000000000 ) ) ;
#45 = ORIENTED_EDGE ( 'NONE', *, *, #9, .T. ) ;
#46 = ORIENTED_EDGE ( 'NONE', *, *, #24, .T. ) ;
#47 = PRODUCT_CONTEXT ( 'NONE', #165, 'mechanical' ) ;
#48 = DIRECTION ( 'NONE',  ( -1.000000000000000000, 0.0000000000000000000, 0.0000000000000000000 ) ) ;
#49 = CONICAL_SURFACE ( 'NONE', #33, 0.1724999999999995981, 0.7853981633974357335 ) ;
#50 = DIRECTION ( 'NONE',  ( -0.0000000000000000000, -0.0000000000000000000, -1.000000000000000000 ) ) ;
#51 = DIRECTION ( 'NONE',  ( -1.000000000000000000, 0.0000000000000000000, 0.0000000000000000000 ) ) ;
#52 = FACE_OUTER_BOUND ( 'NONE', #185, .T. ) ;
#53 = CIRCLE ( 'NONE', #38, 0.1875000000000000278 ) ;
#54 = DIRECTION ( 'NONE',  ( -1.224646799147353207E-16, -0.0000000000000000000, -1.000000000000000000 ) ) ;
#55 = CARTESIAN_POINT ( 'NONE',  ( 2.809237542898491532E-33, 0.0000000000000000000, 2.293916535652885596E-17 ) ) ;
#56 = DIRECTION ( 'NONE',  ( 0.0000000000000000000, 0.0000000000000000000, 1.000000000000000000 ) ) ;
#57 = CARTESIAN_POINT ( 'NONE',  ( -0.1873124999999998264, 2.295064642027086199E-17, 1.000000000000000000 ) ) ;
#58 = DIRECTION ( 'NONE',  ( -1.224646799147353207E-16, -0.0000000000000000000, -1.000000000000000000 ) ) ;
#59 = DIRECTION ( 'NONE',  ( -0.7071067811865385799, 0.0000000000000000000, -0.7071067811865563435 ) ) ;
#60 =( NAMED_UNIT ( * ) SI_UNIT ( $, .STERADIAN. ) SOLID_ANGLE_UNIT ( ) );
#61 = AXIS2_PLACEMENT_3D ( 'NONE', #138, #31, #48 ) ;
#62 = ORIENTED_EDGE ( 'NONE', *, *, #71, .T. ) ;
#63 = LENGTH_MEASURE_WITH_UNIT ( LENGTH_MEASURE( 0.02539999999999999897 ), #109 );
#64 = SURFACE_STYLE_FILL_AREA ( #83 ) ;
#65 = EDGE_CURVE ( 'NONE', #241, #84, #26, .T. ) ;
#66 =( LENGTH_UNIT ( ) NAMED_UNIT ( * ) SI_UNIT ( $, .METRE. ) );
#67 = ORIENTED_EDGE ( 'NONE', *, *, #259, .T. ) ;
#68 = VECTOR ( 'NONE', #97, 39.37007874015748854 ) ;
#69 = PRESENTATION_LAYER_ASSIGNMENT (  '', '', ( #90 ) ) ;
#70 = LINE ( 'NONE', #131, #184 ) ;
#71 = EDGE_CURVE ( 'NONE', #137, #110, #214, .T. ) ;
#72 = FACE_OUTER_BOUND ( 'NONE', #189, .T. ) ;
#73 = VERTEX_POINT ( 'NONE', #5 ) ;
#74 = LENGTH_MEASURE_WITH_UNIT ( LENGTH_MEASURE( 0.02539999999999999897 ), #1 );
#75 = DIRECTION ( 'NONE',  ( -1.000000000000000000, 0.0000000000000000000, 0.0000000000000000000 ) ) ;
#76 = EDGE_CURVE ( 'NONE', #23, #232, #40, .T. ) ;
#77 = FACE_OUTER_BOUND ( 'NONE', #17, .T. ) ;
#78 =( NAMED_UNIT ( * ) SI_UNIT ( $, .STERADIAN. ) SOLID_ANGLE_UNIT ( ) );
#79 = FACE_OUTER_BOUND ( 'NONE', #229, .T. ) ;
#80 = AXIS2_PLACEMENT_3D ( 'NONE', #292, #56, #145 ) ;
#81 = CYLINDRICAL_SURFACE ( 'NONE', #294, 0.1873124999999999929 ) ;
#82 = CARTESIAN_POINT ( 'NONE',  ( -0.1724999999999995981, 0.0000000000000000000, 2.500000000000000000 ) ) ;
#83 = FILL_AREA_STYLE ('',( #201 ) ) ;
#84 = VERTEX_POINT ( 'NONE', #114 ) ;
#85 = SURFACE_STYLE_USAGE ( .BOTH. , #43 ) ;
#86 = ORIENTED_EDGE ( 'NONE', *, *, #119, .F. ) ;
#87 = EDGE_CURVE ( 'NONE', #232, #204, #233, .T. ) ;
#88 = ORIENTED_EDGE ( 'NONE', *, *, #76, .T. ) ;
#89 = ADVANCED_FACE ( 'NONE', ( #72 ), #193, .T. ) ;
#90 = STYLED_ITEM ( 'NONE', ( #177 ), #228 ) ;
#91 = CARTESIAN_POINT ( 'NONE',  ( 0.0000000000000000000, 0.0000000000000000000, 0.0000000000000000000 ) ) ;
#92 = ORIENTED_EDGE ( 'NONE', *, *, #173, .T. ) ;
#93 = ORIENTED_EDGE ( 'NONE', *, *, #12, .F. ) ;
#94 = DIRECTION ( 'NONE',  ( -1.000000000000000000, 0.0000000000000000000, 0.0000000000000000000 ) ) ;
#95 = LINE ( 'NONE', #234, #244 ) ;
#96 = ADVANCED_FACE ( 'NONE', ( #52 ), #49, .T. ) ;
#97 = DIRECTION ( 'NONE',  ( 0.7071067811865385799, 8.659560562354823157E-17, -0.7071067811865563435 ) ) ;
#98 = DIRECTION ( 'NONE',  ( -1.224646799147353207E-16, -0.0000000000000000000, -1.000000000000000000 ) ) ;
#99 = MECHANICAL_DESIGN_GEOMETRIC_PRESENTATION_REPRESENTATION (  '', ( #287 ), #262 ) ;
#100 = MANIFOLD_SOLID_BREP ( 'Cut-Revolve1', #253 ) ;
#101 = DIRECTION ( 'NONE',  ( -1.224646799147353207E-16, -0.0000000000000000000, -1.000000000000000000 ) ) ;
#102 = DIRECTION ( 'NONE',  ( -1.000000000000000000, 0.0000000000000000000, 0.0000000000000000000 ) ) ;
#103 = DIRECTION ( 'NONE',  ( 0.0000000000000000000, 0.0000000000000000000, -1.000000000000000000 ) ) ;
#104 =( GEOMETRIC_REPRESENTATION_CONTEXT ( 3 ) GLOBAL_UNCERTAINTY_ASSIGNED_CONTEXT ( ( #248 ) ) GLOBAL_UNIT_ASSIGNED_CONTEXT ( ( #153, #183, #60 ) ) REPRESENTATION_CONTEXT ( 'NONE', 'WORKASPACE' ) );
#105 = DIRECTION ( 'NONE',  ( 1.000000000000000000, 0.0000000000000000000, -0.0000000000000000000 ) ) ;
#106 = EDGE_LOOP ( 'NONE', ( #299, #298 ) ) ;
#107 = VECTOR ( 'NONE', #149, 39.37007874015748143 ) ;
#108 = ORIENTED_EDGE ( 'NONE', *, *, #151, .F. ) ;
#109 =( LENGTH_UNIT ( ) NAMED_UNIT ( * ) SI_UNIT ( $, .METRE. ) );
#110 = VERTEX_POINT ( 'NONE', #268 ) ;
#111 = EDGE_CURVE ( 'NONE', #23, #73, #139, .T. ) ;
#112 = SHAPE_DEFINITION_REPRESENTATION ( #213, #228 ) ;
#113 = ORIENTED_EDGE ( 'NONE', *, *, #9, .F. ) ;
#114 = CARTESIAN_POINT ( 'NONE',  ( -0.1874999999999998890, 0.0000000000000000000, 1.001063365341178679 ) ) ;
#115 = SURFACE_STYLE_FILL_AREA ( #162 ) ;
#116 = ADVANCED_FACE ( 'NONE', ( #32 ), #174, .T. ) ;
#117 = CIRCLE ( 'NONE', #291, 0.1875000000000000278 ) ;
#118 = ORIENTED_EDGE ( 'NONE', *, *, #87, .T. ) ;
#119 = EDGE_CURVE ( 'NONE', #275, #204, #18, .T. ) ;
#120 = CARTESIAN_POINT ( 'NONE',  ( -0.1873124999999998264, 2.293916535652885288E-17, 1.000000000000000000 ) ) ;
#121 = DIRECTION ( 'NONE',  ( 1.000000000000000000, 0.0000000000000000000, 0.0000000000000000000 ) ) ;
#122 = FACE_OUTER_BOUND ( 'NONE', #130, .T. ) ;
#123 = CARTESIAN_POINT ( 'NONE',  ( -0.1724999999999995981, 0.0000000000000000000, 2.500000000000000000 ) ) ;
#124 = DIRECTION ( 'NONE',  ( -1.224646799147353207E-16, -0.0000000000000000000, -1.000000000000000000 ) ) ;
#125 = EDGE_CURVE ( 'NONE', #181, #241, #245, .T. ) ;
#126 = DIRECTION ( 'NONE',  ( -1.000000000000000000, 0.0000000000000000000, 1.224646799147352961E-16 ) ) ;
#127 = UNCERTAINTY_MEASURE_WITH_UNIT (LENGTH_MEASURE( 1.000000000000000082E-05 ), #225, 'distance_accuracy_value', 'NONE');
#128 = CARTESIAN_POINT ( 'NONE',  ( 1.224646799147353207E-16, 0.0000000000000000000, 1.000000000000000000 ) ) ;
#129 = ORIENTED_EDGE ( 'NONE', *, *, #111, .T. ) ;
#130 = EDGE_LOOP ( 'NONE', ( #92, #179, #21, #156 ) ) ;
#131 = CARTESIAN_POINT ( 'NONE',  ( 0.1875000000000000278, 2.296212748401287726E-17, 2.500000000000000000 ) ) ;
#132 = AXIS2_PLACEMENT_3D ( 'NONE', #147, #269, #126 ) ;
#133 = EDGE_LOOP ( 'NONE', ( #159, #297, #129, #202 ) ) ;
#134 =( NAMED_UNIT ( * ) SI_UNIT ( $, .STERADIAN. ) SOLID_ANGLE_UNIT ( ) );
#135 = ORIENTED_EDGE ( 'NONE', *, *, #266, .F. ) ;
#136 = EDGE_CURVE ( 'NONE', #73, #84, #239, .T. ) ;
#137 = VERTEX_POINT ( 'NONE', #10 ) ;
#138 = CARTESIAN_POINT ( 'NONE',  ( 0.0000000000000000000, 0.0000000000000000000, 2.500000000000000000 ) ) ;
#139 = LINE ( 'NONE', #36, #107 ) ;
#140 = ORIENTED_EDGE ( 'NONE', *, *, #111, .F. ) ;
#141 = CARTESIAN_POINT ( 'NONE',  ( 0.0000000000000000000, 0.0000000000000000000, 2.500000000000000000 ) ) ;
#142 = CIRCLE ( 'NONE', #257, 0.1724999999999995981 ) ;
#143 = CIRCLE ( 'NONE', #11, 0.1873124999999999374 ) ;
#144 = FACE_OUTER_BOUND ( 'NONE', #191, .T. ) ;
#145 = DIRECTION ( 'NONE',  ( 1.000000000000000000, 0.0000000000000000000, -0.0000000000000000000 ) ) ;
#146 = AXIS2_PLACEMENT_3D ( 'NONE', #246, #221, #105 ) ;
#147 = CARTESIAN_POINT ( 'NONE',  ( 2.809237542898491532E-33, 0.0000000000000000000, 2.293916535652885596E-17 ) ) ;
#148 = ADVANCED_FACE ( 'NONE', ( #34 ), #247, .T. ) ;
#149 = DIRECTION ( 'NONE',  ( 0.1736481776669314137, 0.0000000000000000000, 0.9848077530122077983 ) ) ;
#150 = DIRECTION ( 'NONE',  ( 1.000000000000000000, 0.0000000000000000000, 0.0000000000000000000 ) ) ;
#151 = EDGE_CURVE ( 'NONE', #204, #275, #3, .T. ) ;
#152 = AXIS2_PLACEMENT_3D ( 'NONE', #289, #13, #192 ) ;
#153 =( CONVERSION_BASED_UNIT ( 'INCH', #63 ) LENGTH_UNIT ( ) NAMED_UNIT ( #198 ) );
#154 = ORIENTED_EDGE ( 'NONE', *, *, #125, .T. ) ;
#155 = PRODUCT_DEFINITION ( 'UNKNOWN', '', #220, #8 ) ;
#156 = ORIENTED_EDGE ( 'NONE', *, *, #65, .F. ) ;
#157 = AXIS2_PLACEMENT_3D ( 'NONE', #209, #235, #51 ) ;
#158 = COLOUR_RGB ( '',0.7921568627450980005, 0.8196078431372548767, 0.9333333333333333481 ) ;
#159 = ORIENTED_EDGE ( 'NONE', *, *, #24, .F. ) ;
#160 = DIRECTION ( 'NONE',  ( 1.000000000000000000, 0.0000000000000000000, 0.0000000000000000000 ) ) ;
#161 = ORIENTED_EDGE ( 'NONE', *, *, #173, .F. ) ;
#162 = FILL_AREA_STYLE ('',( #282 ) ) ;
#163 = CARTESIAN_POINT ( 'NONE',  ( 0.1873125000000000762, 0.0000000000000000000, 1.000000000000000000 ) ) ;
#164 = VECTOR ( 'NONE', #50, 39.37007874015748143 ) ;
#165 = APPLICATION_CONTEXT ( 'automotive_design' ) ;
#166 = DIRECTION ( 'NONE',  ( 1.000000000000000000, 0.0000000000000000000, 0.0000000000000000000 ) ) ;
#167 = AXIS2_PLACEMENT_3D ( 'NONE', #271, #196, #121 ) ;
#168 = PLANE ( 'NONE',  #80 ) ;
#169 = DIRECTION ( 'NONE',  ( 1.224646799147353207E-16, 0.0000000000000000000, 1.000000000000000000 ) ) ;
#170 = DIRECTION ( 'NONE',  ( -0.0000000000000000000, -0.0000000000000000000, -1.000000000000000000 ) ) ;
#171 = ADVANCED_FACE ( 'NONE', ( #77 ), #212, .T. ) ;
#172 = CARTESIAN_POINT ( 'NONE',  ( 0.0000000000000000000, 0.0000000000000000000, 0.0000000000000000000 ) ) ;
#173 = EDGE_CURVE ( 'NONE', #241, #110, #117, .T. ) ;
#174 = PLANE ( 'NONE',  #146 ) ;
#175 = UNCERTAINTY_MEASURE_WITH_UNIT (LENGTH_MEASURE( 1.000000000000000082E-05 ), #30, 'distance_accuracy_value', 'NONE');
#176 = VECTOR ( 'NONE', #98, 39.37007874015748143 ) ;
#177 = PRESENTATION_STYLE_ASSIGNMENT (( #85 ) ) ;
#178 = DIRECTION ( 'NONE',  ( 0.0000000000000000000, 0.0000000000000000000, -1.000000000000000000 ) ) ;
#179 = ORIENTED_EDGE ( 'NONE', *, *, #279, .T. ) ;
#180 = CARTESIAN_POINT ( 'NONE',  ( 0.0000000000000000000, 0.0000000000000000000, 2.484999999999999432 ) ) ;
#181 = VERTEX_POINT ( 'NONE', #82 ) ;
#182 = CIRCLE ( 'NONE', #152, 0.1724999999999995981 ) ;
#183 =( NAMED_UNIT ( * ) PLANE_ANGLE_UNIT ( ) SI_UNIT ( $, .RADIAN. ) );
#184 = VECTOR ( 'NONE', #44, 39.37007874015748143 ) ;
#185 = EDGE_LOOP ( 'NONE', ( #223, #62, #161, #224 ) ) ;
#186 = ORIENTED_EDGE ( 'NONE', *, *, #71, .F. ) ;
#187 = DIRECTION ( 'NONE',  ( -1.224646799147353207E-16, -0.0000000000000000000, -1.000000000000000000 ) ) ;
#188 = AXIS2_PLACEMENT_3D ( 'NONE', #55, #101, #267 ) ;
#189 = EDGE_LOOP ( 'NONE', ( #186, #93, #154, #296 ) ) ;
#190 = PRODUCT_RELATED_PRODUCT_CATEGORY ( 'part', '', ( #265 ) ) ;
#191 = EDGE_LOOP ( 'NONE', ( #207, #67, #254, #42 ) ) ;
#192 = DIRECTION ( 'NONE',  ( 1.000000000000000000, 0.0000000000000000000, 0.0000000000000000000 ) ) ;
#193 = CONICAL_SURFACE ( 'NONE', #157, 0.1724999999999995981, 0.7853981633974357335 ) ;
#194 = DIRECTION ( 'NONE',  ( 1.000000000000000000, 0.0000000000000000000, 0.0000000000000000000 ) ) ;
#195 = DIRECTION ( 'NONE',  ( 1.000000000000000000, 0.0000000000000000000, 0.0000000000000000000 ) ) ;
#196 = DIRECTION ( 'NONE',  ( -1.224646799147353207E-16, -0.0000000000000000000, -1.000000000000000000 ) ) ;
#197 = CARTESIAN_POINT ( 'NONE',  ( 0.0000000000000000000, 0.0000000000000000000, 0.0000000000000000000 ) ) ;
#198 = DIMENSIONAL_EXPONENTS ( 1.000000000000000000, 0.0000000000000000000, 0.0000000000000000000, 0.0000000000000000000, 0.0000000000000000000, 0.0000000000000000000, 0.0000000000000000000 ) ;
#199 = APPLICATION_CONTEXT ( 'automotive_design' ) ;
#200 = DIRECTION ( 'NONE',  ( -1.224646799147353207E-16, -0.0000000000000000000, -1.000000000000000000 ) ) ;
#201 = FILL_AREA_STYLE_COLOUR ( '', #158 ) ;
#202 = ORIENTED_EDGE ( 'NONE', *, *, #136, .T. ) ;
#203 =( NAMED_UNIT ( * ) PLANE_ANGLE_UNIT ( ) SI_UNIT ( $, .RADIAN. ) );
#204 = VERTEX_POINT ( 'NONE', #215 ) ;
#205 = ORIENTED_EDGE ( 'NONE', *, *, #12, .T. ) ;
#206 = EDGE_CURVE ( 'NONE', #137, #181, #182, .T. ) ;
#207 = ORIENTED_EDGE ( 'NONE', *, *, #279, .F. ) ;
#208 = EDGE_LOOP ( 'NONE', ( #258, #45, #108, #255 ) ) ;
#209 = CARTESIAN_POINT ( 'NONE',  ( 0.0000000000000000000, 0.0000000000000000000, 2.500000000000000000 ) ) ;
#210 = SURFACE_STYLE_USAGE ( .BOTH. , #256 ) ;
#211 = CARTESIAN_POINT ( 'NONE',  ( 1.224646799147353207E-16, 0.0000000000000000000, 1.000000000000000000 ) ) ;
#212 = CONICAL_SURFACE ( 'NONE', #264, 0.1873124999999999374, 0.1745329251994339192 ) ;
#213 = PRODUCT_DEFINITION_SHAPE ( 'NONE', 'NONE',  #155 ) ;
#214 = LINE ( 'NONE', #284, #68 ) ;
#215 = CARTESIAN_POINT ( 'NONE',  ( -0.1873124999999999929, 0.0000000000000000000, 4.587833071305771192E-17 ) ) ;
#216 = AXIS2_PLACEMENT_3D ( 'NONE', #211, #54, #75 ) ;
#217 = CYLINDRICAL_SURFACE ( 'NONE', #286, 0.1875000000000000278 ) ;
#218 = CARTESIAN_POINT ( 'NONE',  ( 1.225949046108751947E-16, 0.0000000000000000000, 1.001063365341178679 ) ) ;
#219 = DIRECTION ( 'NONE',  ( -1.000000000000000000, 0.0000000000000000000, 1.224646799147352961E-16 ) ) ;
#220 = PRODUCT_DEFINITION_FORMATION_WITH_SPECIFIED_SOURCE ( 'ANY', '', #265, .NOT_KNOWN. ) ;
#221 = DIRECTION ( 'NONE',  ( 0.0000000000000000000, 0.0000000000000000000, 1.000000000000000000 ) ) ;
#222 = DIRECTION ( 'NONE',  ( 1.000000000000000000, 0.0000000000000000000, 0.0000000000000000000 ) ) ;
#223 = ORIENTED_EDGE ( 'NONE', *, *, #206, .F. ) ;
#224 = ORIENTED_EDGE ( 'NONE', *, *, #125, .F. ) ;
#225 =( CONVERSION_BASED_UNIT ( 'INCH', #41 ) LENGTH_UNIT ( ) NAMED_UNIT ( #20 ) );
#226 = EDGE_CURVE ( 'NONE', #84, #73, #261, .T. ) ;
#227 = DIRECTION ( 'NONE',  ( 1.224646799147353207E-16, 0.0000000000000000000, 1.000000000000000000 ) ) ;
#228 = ADVANCED_BREP_SHAPE_REPRESENTATION ( 'Micro_RDB-100', ( #100, #19 ), #104 ) ;
#229 = EDGE_LOOP ( 'NONE', ( #113, #88, #118, #86 ) ) ;
#230 = ADVANCED_FACE ( 'NONE', ( #288 ), #168, .F. ) ;
#231 = APPLICATION_PROTOCOL_DEFINITION ( 'draft international standard', 'automotive_design', 1998, #199 ) ;
#232 = VERTEX_POINT ( 'NONE', #57 ) ;
#233 = LINE ( 'NONE', #280, #176 ) ;
#234 = CARTESIAN_POINT ( 'NONE',  ( 0.1873124999999999929, 2.293916535652885596E-17, -2.293916535652885596E-17 ) ) ;
#235 = DIRECTION ( 'NONE',  ( 0.0000000000000000000, 0.0000000000000000000, -1.000000000000000000 ) ) ;
#236 = CONICAL_SURFACE ( 'NONE', #249, 0.1873124999999999374, 0.1745329251994339192 ) ;
#237 = PRESENTATION_LAYER_ASSIGNMENT (  '', '', ( #287 ) ) ;
#238 = CARTESIAN_POINT ( 'NONE',  ( 0.0000000000000000000, 0.0000000000000000000, 2.500000000000000000 ) ) ;
#239 = CIRCLE ( 'NONE', #28, 0.1875000000000000278 ) ;
#240 = ADVANCED_FACE ( 'NONE', ( #122 ), #217, .T. ) ;
#241 = VERTEX_POINT ( 'NONE', #290 ) ;
#242 = DIMENSIONAL_EXPONENTS ( 1.000000000000000000, 0.0000000000000000000, 0.0000000000000000000, 0.0000000000000000000, 0.0000000000000000000, 0.0000000000000000000, 0.0000000000000000000 ) ;
#243 = CARTESIAN_POINT ( 'NONE',  ( 1.224646799147353207E-16, 0.0000000000000000000, 1.000000000000000000 ) ) ;
#244 = VECTOR ( 'NONE', #187, 39.37007874015748143 ) ;
#245 = LINE ( 'NONE', #123, #278 ) ;
#246 = CARTESIAN_POINT ( 'NONE',  ( 0.0000000000000000000, 0.0000000000000000000, 2.500000000000000000 ) ) ;
#247 = CYLINDRICAL_SURFACE ( 'NONE', #270, 0.1873124999999999929 ) ;
#248 = UNCERTAINTY_MEASURE_WITH_UNIT (LENGTH_MEASURE( 1.000000000000000082E-05 ), #153, 'distance_accuracy_value', 'NONE');
#249 = AXIS2_PLACEMENT_3D ( 'NONE', #295, #227, #274 ) ;
#250 = FACE_OUTER_BOUND ( 'NONE', #133, .T. ) ;
#251 = ADVANCED_FACE ( 'NONE', ( #79 ), #81, .T. ) ;
#252 = APPLICATION_PROTOCOL_DEFINITION ( 'draft international standard', 'automotive_design', 1998, #165 ) ;
#253 = CLOSED_SHELL ( 'NONE', ( #148, #171, #96, #240, #37, #116, #89, #283, #251, #230 ) ) ;
#254 = ORIENTED_EDGE ( 'NONE', *, *, #65, .T. ) ;
#255 = ORIENTED_EDGE ( 'NONE', *, *, #87, .F. ) ;
#256 = SURFACE_SIDE_STYLE ('',( #115 ) ) ;
#257 = AXIS2_PLACEMENT_3D ( 'NONE', #238, #2, #166 ) ;
#258 = ORIENTED_EDGE ( 'NONE', *, *, #266, .T. ) ;
#259 = EDGE_CURVE ( 'NONE', #110, #241, #53, .T. ) ;
#260 = CARTESIAN_POINT ( 'NONE',  ( -0.1875000000000000278, 0.0000000000000000000, 2.500000000000000000 ) ) ;
#261 = CIRCLE ( 'NONE', #167, 0.1875000000000000278 ) ;
#262 =( GEOMETRIC_REPRESENTATION_CONTEXT ( 3 ) GLOBAL_UNCERTAINTY_ASSIGNED_CONTEXT ( ( #175 ) ) GLOBAL_UNIT_ASSIGNED_CONTEXT ( ( #30, #285, #78 ) ) REPRESENTATION_CONTEXT ( 'NONE', 'WORKASPACE' ) );
#263 = DIRECTION ( 'NONE',  ( -0.1736481776669312194, 2.126576849575783625E-17, 0.9848077530122080203 ) ) ;
#264 = AXIS2_PLACEMENT_3D ( 'NONE', #243, #169, #195 ) ;
#265 = PRODUCT ( 'Micro_RDB-100', 'Micro_RDB-100', '', ( #47 ) ) ;
#266 = EDGE_CURVE ( 'NONE', #232, #23, #143, .T. ) ;
#267 = DIRECTION ( 'NONE',  ( -1.000000000000000000, 0.0000000000000000000, 1.224646799147352961E-16 ) ) ;
#268 = CARTESIAN_POINT ( 'NONE',  ( 0.1875000000000000278, 2.296212748401287726E-17, 2.484999999999999432 ) ) ;
#269 = DIRECTION ( 'NONE',  ( -1.224646799147353207E-16, -0.0000000000000000000, -1.000000000000000000 ) ) ;
#270 = AXIS2_PLACEMENT_3D ( 'NONE', #197, #124, #39 ) ;
#271 = CARTESIAN_POINT ( 'NONE',  ( 1.225949046108751947E-16, 0.0000000000000000000, 1.001063365341178679 ) ) ;
#272 = CARTESIAN_POINT ( 'NONE',  ( 0.1873124999999999929, 2.293916535652885596E-17, 0.0000000000000000000 ) ) ;
#273 = ORIENTED_EDGE ( 'NONE', *, *, #206, .T. ) ;
#274 = DIRECTION ( 'NONE',  ( 1.000000000000000000, 0.0000000000000000000, 0.0000000000000000000 ) ) ;
#275 = VERTEX_POINT ( 'NONE', #272 ) ;
#276 =( GEOMETRIC_REPRESENTATION_CONTEXT ( 3 ) GLOBAL_UNCERTAINTY_ASSIGNED_CONTEXT ( ( #127 ) ) GLOBAL_UNIT_ASSIGNED_CONTEXT ( ( #225, #203, #134 ) ) REPRESENTATION_CONTEXT ( 'NONE', 'WORKASPACE' ) );
#277 = COLOUR_RGB ( '',0.7921568627450980005, 0.8196078431372548767, 0.9333333333333333481 ) ;
#278 = VECTOR ( 'NONE', #59, 39.37007874015748854 ) ;
#279 = EDGE_CURVE ( 'NONE', #110, #73, #70, .T. ) ;
#280 = CARTESIAN_POINT ( 'NONE',  ( -0.1873124999999999929, 0.0000000000000000000, 2.293916535652885596E-17 ) ) ;
#281 = LINE ( 'NONE', #120, #293 ) ;
#282 = FILL_AREA_STYLE_COLOUR ( '', #277 ) ;
#283 = ADVANCED_FACE ( 'NONE', ( #250 ), #236, .T. ) ;
#284 = CARTESIAN_POINT ( 'NONE',  ( 0.1724999999999995981, 2.112515728529179297E-17, 2.500000000000000000 ) ) ;
#285 =( NAMED_UNIT ( * ) PLANE_ANGLE_UNIT ( ) SI_UNIT ( $, .RADIAN. ) );
#286 = AXIS2_PLACEMENT_3D ( 'NONE', #6, #170, #102 ) ;
#287 = STYLED_ITEM ( 'NONE', ( #25 ), #100 ) ;
#288 = FACE_OUTER_BOUND ( 'NONE', #106, .T. ) ;
#289 = CARTESIAN_POINT ( 'NONE',  ( 0.0000000000000000000, 0.0000000000000000000, 2.500000000000000000 ) ) ;
#290 = CARTESIAN_POINT ( 'NONE',  ( -0.1875000000000000278, 0.0000000000000000000, 2.484999999999999432 ) ) ;
#291 = AXIS2_PLACEMENT_3D ( 'NONE', #35, #103, #194 ) ;
#292 = CARTESIAN_POINT ( 'NONE',  ( 0.0000000000000000000, 0.0000000000000000000, 0.0000000000000000000 ) ) ;
#293 = VECTOR ( 'NONE', #263, 39.37007874015747433 ) ;
#294 = AXIS2_PLACEMENT_3D ( 'NONE', #172, #58, #219 ) ;
#295 = CARTESIAN_POINT ( 'NONE',  ( 1.224646799147353207E-16, 0.0000000000000000000, 1.000000000000000000 ) ) ;
#296 = ORIENTED_EDGE ( 'NONE', *, *, #259, .F. ) ;
#297 = ORIENTED_EDGE ( 'NONE', *, *, #76, .F. ) ;
#298 = ORIENTED_EDGE ( 'NONE', *, *, #119, .T. ) ;
#299 = ORIENTED_EDGE ( 'NONE', *, *, #151, .T. ) ;
ENDSEC;
END-ISO-10303-21;
