ISO-10303-21;
HEADER;
FILE_DESCRIPTION (( 'STEP AP214' ),
    '1' );
FILE_NAME ('Micro_GEM-312-4.STEP',
    '2021-09-01T20:31:53',
    ( '' ),
    ( '' ),
    'SwSTEP 2.0',
    'SolidWorks 2020',
    '' );
FILE_SCHEMA (( 'AUTOMOTIVE_DESIGN' ));
ENDSEC;

DATA;
#1 = CONICAL_SURFACE ( 'NONE', #250, 0.1560937499999999756, 0.1745329251994338915 ) ;
#2 = FACE_OUTER_BOUND ( 'NONE', #42, .T. ) ;
#3 = FILL_AREA_STYLE ('',( #93 ) ) ;
#4 = FACE_OUTER_BOUND ( 'NONE', #19, .T. ) ;
#5 = EDGE_CURVE ( 'NONE', #136, #105, #155, .T. ) ;
#6 =( LENGTH_UNIT ( ) NAMED_UNIT ( * ) SI_UNIT ( $, .METRE. ) );
#7 = DIMENSIONAL_EXPONENTS ( 1.000000000000000000, 0.0000000000000000000, 0.0000000000000000000, 0.0000000000000000000, 0.0000000000000000000, 0.0000000000000000000, 0.0000000000000000000 ) ;
#8 = VECTOR ( 'NONE', #80, 39.37007874015748143 ) ;
#9 = DIRECTION ( 'NONE',  ( -0.0000000000000000000, -0.0000000000000000000, -1.000000000000000000 ) ) ;
#10 = DIRECTION ( 'NONE',  ( -1.000000000000000000, 0.0000000000000000000, 1.224646799147353454E-16 ) ) ;
#11 = DIRECTION ( 'NONE',  ( 1.000000000000000000, 0.0000000000000000000, 0.0000000000000000000 ) ) ;
#12 = EDGE_CURVE ( 'NONE', #291, #112, #249, .T. ) ;
#13 = ORIENTED_EDGE ( 'NONE', *, *, #164, .T. ) ;
#14 = AXIS2_PLACEMENT_3D ( 'NONE', #172, #216, #123 ) ;
#15 = FACE_OUTER_BOUND ( 'NONE', #293, .T. ) ;
#16 = VERTEX_POINT ( 'NONE', #157 ) ;
#17 = EDGE_LOOP ( 'NONE', ( #13, #85 ) ) ;
#18 = APPLICATION_PROTOCOL_DEFINITION ( 'draft international standard', 'automotive_design', 1998, #106 ) ;
#19 = EDGE_LOOP ( 'NONE', ( #247, #132 ) ) ;
#20 = FILL_AREA_STYLE_COLOUR ( '', #103 ) ;
#21 = ORIENTED_EDGE ( 'NONE', *, *, #198, .T. ) ;
#22 = DIRECTION ( 'NONE',  ( 0.0000000000000000000, 0.0000000000000000000, 1.000000000000000000 ) ) ;
#23 = AXIS2_PLACEMENT_3D ( 'NONE', #145, #27, #205 ) ;
#24 = AXIS2_PLACEMENT_3D ( 'NONE', #268, #147, #10 ) ;
#25 = CARTESIAN_POINT ( 'NONE',  ( 9.967230535079632947E-17, 0.0000000000000000000, 0.8138861377843152889 ) ) ;
#26 = CARTESIAN_POINT ( 'NONE',  ( 0.0000000000000000000, 0.0000000000000000000, 0.0000000000000000000 ) ) ;
#27 = DIRECTION ( 'NONE',  ( 0.0000000000000000000, 0.0000000000000000000, 1.000000000000000000 ) ) ;
#28 = CARTESIAN_POINT ( 'NONE',  ( 0.1560937499999999756, 1.911597113044071690E-17, -1.911597113044071690E-17 ) ) ;
#29 =( GEOMETRIC_REPRESENTATION_CONTEXT ( 3 ) GLOBAL_UNCERTAINTY_ASSIGNED_CONTEXT ( ( #190 ) ) GLOBAL_UNIT_ASSIGNED_CONTEXT ( ( #158, #53, #122 ) ) REPRESENTATION_CONTEXT ( 'NONE', 'WORKASPACE' ) );
#30 = AXIS2_PLACEMENT_3D ( 'NONE', #191, #84, #174 ) ;
#31 = DIRECTION ( 'NONE',  ( -0.1736481776669311916, 2.126576849575783316E-17, 0.9848077530122080203 ) ) ;
#32 = DIRECTION ( 'NONE',  ( 0.0000000000000000000, 0.0000000000000000000, 1.000000000000000000 ) ) ;
#33 = EDGE_LOOP ( 'NONE', ( #269, #297, #196, #275 ) ) ;
#34 = FACE_OUTER_BOUND ( 'NONE', #33, .T. ) ;
#35 = ORIENTED_EDGE ( 'NONE', *, *, #254, .F. ) ;
#36 = CIRCLE ( 'NONE', #72, 0.1560937499999999756 ) ;
#37 = DIRECTION ( 'NONE',  ( -1.224646799147353207E-16, -0.0000000000000000000, -1.000000000000000000 ) ) ;
#38 = EDGE_LOOP ( 'NONE', ( #35, #134, #239, #202 ) ) ;
#39 = CLOSED_SHELL ( 'NONE', ( #92, #220, #168, #258, #286, #43, #119, #222, #161, #121 ) ) ;
#40 = ORIENTED_EDGE ( 'NONE', *, *, #48, .T. ) ;
#41 = LENGTH_MEASURE_WITH_UNIT ( LENGTH_MEASURE( 0.02539999999999999897 ), #6 );
#42 = EDGE_LOOP ( 'NONE', ( #65, #171, #86, #271 ) ) ;
#43 = ADVANCED_FACE ( 'NONE', ( #207 ), #71, .T. ) ;
#44 = STYLED_ITEM ( 'NONE', ( #279 ), #46 ) ;
#45 = AXIS2_PLACEMENT_3D ( 'NONE', #79, #99, #169 ) ;
#46 = MANIFOLD_SOLID_BREP ( 'Cut-Revolve1', #39 ) ;
#47 = DIRECTION ( 'NONE',  ( -1.224646799147353207E-16, -0.0000000000000000000, -1.000000000000000000 ) ) ;
#48 = EDGE_CURVE ( 'NONE', #175, #291, #257, .T. ) ;
#49 =( NAMED_UNIT ( * ) SI_UNIT ( $, .STERADIAN. ) SOLID_ANGLE_UNIT ( ) );
#50 = PRODUCT_DEFINITION_FORMATION_WITH_SPECIFIED_SOURCE ( 'ANY', '', #101, .NOT_KNOWN. ) ;
#51 = CARTESIAN_POINT ( 'NONE',  ( 0.1562500000000001110, 1.913510623667740388E-17, 0.8138861377843152889 ) ) ;
#52 = DIRECTION ( 'NONE',  ( 0.0000000000000000000, 0.0000000000000000000, -1.000000000000000000 ) ) ;
#53 =( NAMED_UNIT ( * ) PLANE_ANGLE_UNIT ( ) SI_UNIT ( $, .RADIAN. ) );
#54 = CIRCLE ( 'NONE', #45, 0.1560937499999999756 ) ;
#55 = LINE ( 'NONE', #251, #211 ) ;
#56 = FACE_OUTER_BOUND ( 'NONE', #215, .T. ) ;
#57 = CARTESIAN_POINT ( 'NONE',  ( 0.0000000000000000000, 0.0000000000000000000, 2.500000000000000000 ) ) ;
#58 = VECTOR ( 'NONE', #183, 39.37007874015748143 ) ;
#59 = CARTESIAN_POINT ( 'NONE',  ( -0.1560937499999998923, 1.911597113044071690E-17, 0.8129999999999999449 ) ) ;
#60 = VERTEX_POINT ( 'NONE', #51 ) ;
#61 = FACE_OUTER_BOUND ( 'NONE', #38, .T. ) ;
#62 = VERTEX_POINT ( 'NONE', #281 ) ;
#63 = ORIENTED_EDGE ( 'NONE', *, *, #142, .F. ) ;
#64 = VECTOR ( 'NONE', #259, 39.37007874015748854 ) ;
#65 = ORIENTED_EDGE ( 'NONE', *, *, #149, .T. ) ;
#66 = VECTOR ( 'NONE', #177, 39.37007874015748143 ) ;
#67 = ORIENTED_EDGE ( 'NONE', *, *, #227, .F. ) ;
#68 = DIRECTION ( 'NONE',  ( 1.000000000000000000, 0.0000000000000000000, 0.0000000000000000000 ) ) ;
#69 = APPLICATION_PROTOCOL_DEFINITION ( 'draft international standard', 'automotive_design', 1998, #187 ) ;
#70 = EDGE_CURVE ( 'NONE', #60, #62, #87, .T. ) ;
#71 = PLANE ( 'NONE',  #23 ) ;
#72 = AXIS2_PLACEMENT_3D ( 'NONE', #236, #167, #240 ) ;
#73 = CARTESIAN_POINT ( 'NONE',  ( -0.1560937499999999756, 0.0000000000000000000, 3.823194226088143379E-17 ) ) ;
#74 = DIRECTION ( 'NONE',  ( -1.000000000000000000, 0.0000000000000000000, 1.224646799147353454E-16 ) ) ;
#75 = FACE_OUTER_BOUND ( 'NONE', #241, .T. ) ;
#76 = AXIS2_PLACEMENT_3D ( 'NONE', #130, #108, #218 ) ;
#77 = AXIS2_PLACEMENT_3D ( 'NONE', #292, #9, #98 ) ;
#78 = LINE ( 'NONE', #214, #8 ) ;
#79 = CARTESIAN_POINT ( 'NONE',  ( 9.956378477067980482E-17, 0.0000000000000000000, 0.8129999999999999449 ) ) ;
#80 = DIRECTION ( 'NONE',  ( 0.1736481776669313859, 0.0000000000000000000, 0.9848077530122077983 ) ) ;
#81 = STYLED_ITEM ( 'NONE', ( #230 ), #255 ) ;
#82 = CYLINDRICAL_SURFACE ( 'NONE', #14, 0.1562500000000000000 ) ;
#83 = ORIENTED_EDGE ( 'NONE', *, *, #5, .T. ) ;
#84 = DIRECTION ( 'NONE',  ( -1.224646799147353207E-16, -0.0000000000000000000, -1.000000000000000000 ) ) ;
#85 = ORIENTED_EDGE ( 'NONE', *, *, #254, .T. ) ;
#86 = ORIENTED_EDGE ( 'NONE', *, *, #288, .F. ) ;
#87 = CIRCLE ( 'NONE', #223, 0.1562500000000000000 ) ;
#88 = EDGE_LOOP ( 'NONE', ( #221, #156, #219, #294 ) ) ;
#89 = CARTESIAN_POINT ( 'NONE',  ( 9.967230535079632947E-17, 0.0000000000000000000, 0.8138861377843152889 ) ) ;
#90 = CIRCLE ( 'NONE', #115, 0.1562500000000000000 ) ;
#91 = DIMENSIONAL_EXPONENTS ( 1.000000000000000000, 0.0000000000000000000, 0.0000000000000000000, 0.0000000000000000000, 0.0000000000000000000, 0.0000000000000000000, 0.0000000000000000000 ) ;
#92 = ADVANCED_FACE ( 'NONE', ( #2 ), #162, .T. ) ;
#93 = FILL_AREA_STYLE_COLOUR ( '', #273 ) ;
#94 =( LENGTH_UNIT ( ) NAMED_UNIT ( * ) SI_UNIT ( $, .METRE. ) );
#95 = DIRECTION ( 'NONE',  ( 0.7071067811865410224, 8.659560562354852739E-17, -0.7071067811865539010 ) ) ;
#96 = DIRECTION ( 'NONE',  ( 1.000000000000000000, 0.0000000000000000000, 0.0000000000000000000 ) ) ;
#97 = AXIS2_PLACEMENT_3D ( 'NONE', #284, #238, #11 ) ;
#98 = DIRECTION ( 'NONE',  ( -1.000000000000000000, 0.0000000000000000000, 0.0000000000000000000 ) ) ;
#99 = DIRECTION ( 'NONE',  ( -1.224646799147353207E-16, -0.0000000000000000000, -1.000000000000000000 ) ) ;
#100 = CARTESIAN_POINT ( 'NONE',  ( 0.0000000000000000000, 0.0000000000000000000, 0.0000000000000000000 ) ) ;
#101 = PRODUCT ( 'Micro_GEM-312-4', 'Micro_GEM-312-4', '', ( #272 ) ) ;
#102 = ORIENTED_EDGE ( 'NONE', *, *, #182, .T. ) ;
#103 = COLOUR_RGB ( '',0.7921568627450980005, 0.8196078431372548767, 0.9333333333333333481 ) ;
#104 = DIRECTION ( 'NONE',  ( 1.000000000000000000, 0.0000000000000000000, 0.0000000000000000000 ) ) ;
#105 = VERTEX_POINT ( 'NONE', #73 ) ;
#106 = APPLICATION_CONTEXT ( 'automotive_design' ) ;
#107 = SHAPE_DEFINITION_REPRESENTATION ( #229, #255 ) ;
#108 = DIRECTION ( 'NONE',  ( 0.0000000000000000000, 0.0000000000000000000, -1.000000000000000000 ) ) ;
#109 = ORIENTED_EDGE ( 'NONE', *, *, #129, .F. ) ;
#110 = MECHANICAL_DESIGN_GEOMETRIC_PRESENTATION_REPRESENTATION (  '', ( #81 ), #181 ) ;
#111 = SURFACE_STYLE_USAGE ( .BOTH. , #133 ) ;
#112 = VERTEX_POINT ( 'NONE', #282 ) ;
#113 = CARTESIAN_POINT ( 'NONE',  ( 0.1562500000000000000, 1.913510623667739463E-17, 2.500000000000000000 ) ) ;
#114 = CARTESIAN_POINT ( 'NONE',  ( 0.0000000000000000000, 0.0000000000000000000, 0.0000000000000000000 ) ) ;
#115 = AXIS2_PLACEMENT_3D ( 'NONE', #89, #47, #138 ) ;
#116 = DIRECTION ( 'NONE',  ( -1.224646799147353207E-16, -0.0000000000000000000, -1.000000000000000000 ) ) ;
#117 = CARTESIAN_POINT ( 'NONE',  ( 0.1412499999999994871, 1.729813603795630110E-17, 2.500000000000000000 ) ) ;
#118 = VECTOR ( 'NONE', #95, 39.37007874015748854 ) ;
#119 = ADVANCED_FACE ( 'NONE', ( #75 ), #184, .T. ) ;
#120 = SURFACE_STYLE_USAGE ( .BOTH. , #163 ) ;
#121 = ADVANCED_FACE ( 'NONE', ( #4 ), #277, .F. ) ;
#122 =( NAMED_UNIT ( * ) SI_UNIT ( $, .STERADIAN. ) SOLID_ANGLE_UNIT ( ) );
#123 = DIRECTION ( 'NONE',  ( -1.000000000000000000, 0.0000000000000000000, 0.0000000000000000000 ) ) ;
#124 = EDGE_CURVE ( 'NONE', #244, #112, #233, .T. ) ;
#125 = CARTESIAN_POINT ( 'NONE',  ( 9.956378477067980482E-17, 0.0000000000000000000, 0.8129999999999999449 ) ) ;
#126 = CARTESIAN_POINT ( 'NONE',  ( 0.0000000000000000000, 0.0000000000000000000, 2.484999999999999432 ) ) ;
#127 = ORIENTED_EDGE ( 'NONE', *, *, #143, .T. ) ;
#128 = FACE_OUTER_BOUND ( 'NONE', #298, .T. ) ;
#129 = EDGE_CURVE ( 'NONE', #291, #62, #55, .T. ) ;
#130 = CARTESIAN_POINT ( 'NONE',  ( 0.0000000000000000000, 0.0000000000000000000, 2.484999999999999432 ) ) ;
#131 = CIRCLE ( 'NONE', #296, 0.1412499999999994871 ) ;
#132 = ORIENTED_EDGE ( 'NONE', *, *, #227, .T. ) ;
#133 = SURFACE_SIDE_STYLE ('',( #203 ) ) ;
#134 = ORIENTED_EDGE ( 'NONE', *, *, #124, .T. ) ;
#135 =( NAMED_UNIT ( * ) PLANE_ANGLE_UNIT ( ) SI_UNIT ( $, .RADIAN. ) );
#136 = VERTEX_POINT ( 'NONE', #146 ) ;
#137 = PRODUCT_DEFINITION_CONTEXT ( 'detailed design', #187, 'design' ) ;
#138 = DIRECTION ( 'NONE',  ( 1.000000000000000000, 0.0000000000000000000, 0.0000000000000000000 ) ) ;
#139 =( CONVERSION_BASED_UNIT ( 'INCH', #41 ) LENGTH_UNIT ( ) NAMED_UNIT ( #280 ) );
#140 = PRESENTATION_LAYER_ASSIGNMENT (  '', '', ( #44 ) ) ;
#141 = AXIS2_PLACEMENT_3D ( 'NONE', #100, #242, #266 ) ;
#142 = EDGE_CURVE ( 'NONE', #62, #60, #90, .T. ) ;
#143 = EDGE_CURVE ( 'NONE', #112, #60, #228, .T. ) ;
#144 = SURFACE_STYLE_FILL_AREA ( #3 ) ;
#145 = CARTESIAN_POINT ( 'NONE',  ( 0.0000000000000000000, 0.0000000000000000000, 2.500000000000000000 ) ) ;
#146 = CARTESIAN_POINT ( 'NONE',  ( -0.1560937499999998923, 1.912553868355905422E-17, 0.8129999999999999449 ) ) ;
#147 = DIRECTION ( 'NONE',  ( -1.224646799147353207E-16, -0.0000000000000000000, -1.000000000000000000 ) ) ;
#148 = DIRECTION ( 'NONE',  ( -1.000000000000000000, 0.0000000000000000000, 0.0000000000000000000 ) ) ;
#149 = EDGE_CURVE ( 'NONE', #136, #194, #54, .T. ) ;
#150 = LINE ( 'NONE', #28, #225 ) ;
#151 = ORIENTED_EDGE ( 'NONE', *, *, #70, .F. ) ;
#152 = DIRECTION ( 'NONE',  ( 1.000000000000000000, 0.0000000000000000000, 0.0000000000000000000 ) ) ;
#153 = ORIENTED_EDGE ( 'NONE', *, *, #164, .F. ) ;
#154 = LINE ( 'NONE', #59, #159 ) ;
#155 = LINE ( 'NONE', #276, #66 ) ;
#156 = ORIENTED_EDGE ( 'NONE', *, *, #197, .T. ) ;
#157 = CARTESIAN_POINT ( 'NONE',  ( 0.1560937499999999756, 1.911597113044071690E-17, 0.0000000000000000000 ) ) ;
#158 =( CONVERSION_BASED_UNIT ( 'INCH', #185 ) LENGTH_UNIT ( ) NAMED_UNIT ( #7 ) );
#159 = VECTOR ( 'NONE', #31, 39.37007874015747433 ) ;
#160 = FILL_AREA_STYLE ('',( #20 ) ) ;
#161 = ADVANCED_FACE ( 'NONE', ( #56 ), #264, .T. ) ;
#162 = CYLINDRICAL_SURFACE ( 'NONE', #201, 0.1560937499999999756 ) ;
#163 = SURFACE_SIDE_STYLE ('',( #144 ) ) ;
#164 = EDGE_CURVE ( 'NONE', #175, #244, #131, .T. ) ;
#165 = CARTESIAN_POINT ( 'NONE',  ( 0.0000000000000000000, 0.0000000000000000000, 2.500000000000000000 ) ) ;
#166 = CIRCLE ( 'NONE', #97, 0.1412499999999994871 ) ;
#167 = DIRECTION ( 'NONE',  ( -1.224646799147353207E-16, -0.0000000000000000000, -1.000000000000000000 ) ) ;
#168 = ADVANCED_FACE ( 'NONE', ( #61 ), #217, .T. ) ;
#169 = DIRECTION ( 'NONE',  ( -1.000000000000000000, 0.0000000000000000000, 0.0000000000000000000 ) ) ;
#170 = DIRECTION ( 'NONE',  ( 0.0000000000000000000, 0.0000000000000000000, -1.000000000000000000 ) ) ;
#171 = ORIENTED_EDGE ( 'NONE', *, *, #248, .T. ) ;
#172 = CARTESIAN_POINT ( 'NONE',  ( 0.0000000000000000000, 0.0000000000000000000, 2.500000000000000000 ) ) ;
#173 = ORIENTED_EDGE ( 'NONE', *, *, #182, .F. ) ;
#174 = DIRECTION ( 'NONE',  ( -1.000000000000000000, 0.0000000000000000000, 1.224646799147353454E-16 ) ) ;
#175 = VERTEX_POINT ( 'NONE', #234 ) ;
#176 = MECHANICAL_DESIGN_GEOMETRIC_PRESENTATION_REPRESENTATION (  '', ( #44 ), #29 ) ;
#177 = DIRECTION ( 'NONE',  ( -1.224646799147353207E-16, -0.0000000000000000000, -1.000000000000000000 ) ) ;
#178 = AXIS2_PLACEMENT_3D ( 'NONE', #114, #253, #299 ) ;
#179 = ORIENTED_EDGE ( 'NONE', *, *, #143, .F. ) ;
#180 = CARTESIAN_POINT ( 'NONE',  ( 0.0000000000000000000, 0.0000000000000000000, 0.0000000000000000000 ) ) ;
#181 =( GEOMETRIC_REPRESENTATION_CONTEXT ( 3 ) GLOBAL_UNCERTAINTY_ASSIGNED_CONTEXT ( ( #199 ) ) GLOBAL_UNIT_ASSIGNED_CONTEXT ( ( #295, #252, #49 ) ) REPRESENTATION_CONTEXT ( 'NONE', 'WORKASPACE' ) );
#182 = EDGE_CURVE ( 'NONE', #112, #291, #256, .T. ) ;
#183 = DIRECTION ( 'NONE',  ( -0.0000000000000000000, -0.0000000000000000000, -1.000000000000000000 ) ) ;
#184 = CONICAL_SURFACE ( 'NONE', #261, 0.1412499999999994871, 0.7853981633974391752 ) ;
#185 = LENGTH_MEASURE_WITH_UNIT ( LENGTH_MEASURE( 0.02539999999999999897 ), #94 );
#186 = DIRECTION ( 'NONE',  ( -1.000000000000000000, 0.0000000000000000000, 0.0000000000000000000 ) ) ;
#187 = APPLICATION_CONTEXT ( 'automotive_design' ) ;
#188 = DIRECTION ( 'NONE',  ( 1.224646799147353207E-16, 0.0000000000000000000, 1.000000000000000000 ) ) ;
#189 = PRESENTATION_LAYER_ASSIGNMENT (  '', '', ( #81 ) ) ;
#190 = UNCERTAINTY_MEASURE_WITH_UNIT (LENGTH_MEASURE( 1.000000000000000082E-05 ), #158, 'distance_accuracy_value', 'NONE');
#191 = CARTESIAN_POINT ( 'NONE',  ( 2.341031285748743514E-33, 0.0000000000000000000, 1.911597113044071690E-17 ) ) ;
#192 = DIRECTION ( 'NONE',  ( 0.0000000000000000000, 0.0000000000000000000, -1.000000000000000000 ) ) ;
#193 = CARTESIAN_POINT ( 'NONE',  ( 0.1412499999999994871, 1.821662113731684786E-17, 2.500000000000000000 ) ) ;
#194 = VERTEX_POINT ( 'NONE', #285 ) ;
#195 = CARTESIAN_POINT ( 'NONE',  ( 0.0000000000000000000, 0.0000000000000000000, 2.500000000000000000 ) ) ;
#196 = ORIENTED_EDGE ( 'NONE', *, *, #212, .T. ) ;
#197 = EDGE_CURVE ( 'NONE', #136, #62, #154, .T. ) ;
#198 = EDGE_CURVE ( 'NONE', #194, #136, #36, .T. ) ;
#199 = UNCERTAINTY_MEASURE_WITH_UNIT (LENGTH_MEASURE( 1.000000000000000082E-05 ), #295, 'distance_accuracy_value', 'NONE');
#200 = ORIENTED_EDGE ( 'NONE', *, *, #124, .F. ) ;
#201 = AXIS2_PLACEMENT_3D ( 'NONE', #180, #232, #74 ) ;
#202 = ORIENTED_EDGE ( 'NONE', *, *, #48, .F. ) ;
#203 = SURFACE_STYLE_FILL_AREA ( #160 ) ;
#204 = CIRCLE ( 'NONE', #24, 0.1560937499999999756 ) ;
#205 = DIRECTION ( 'NONE',  ( 1.000000000000000000, 0.0000000000000000000, -0.0000000000000000000 ) ) ;
#206 = UNCERTAINTY_MEASURE_WITH_UNIT (LENGTH_MEASURE( 1.000000000000000082E-05 ), #139, 'distance_accuracy_value', 'NONE');
#207 = FACE_OUTER_BOUND ( 'NONE', #17, .T. ) ;
#208 = AXIS2_PLACEMENT_3D ( 'NONE', #57, #192, #148 ) ;
#209 = DIRECTION ( 'NONE',  ( -0.0000000000000000000, -0.0000000000000000000, -1.000000000000000000 ) ) ;
#210 = CYLINDRICAL_SURFACE ( 'NONE', #77, 0.1562500000000000000 ) ;
#211 = VECTOR ( 'NONE', #209, 39.37007874015748143 ) ;
#212 = EDGE_CURVE ( 'NONE', #194, #60, #78, .T. ) ;
#213 = DIRECTION ( 'NONE',  ( 1.000000000000000000, 0.0000000000000000000, 0.0000000000000000000 ) ) ;
#214 = CARTESIAN_POINT ( 'NONE',  ( 0.1560937500000000866, 0.0000000000000000000, 0.8129999999999999449 ) ) ;
#215 = EDGE_LOOP ( 'NONE', ( #246, #21, #83, #67 ) ) ;
#216 = DIRECTION ( 'NONE',  ( -0.0000000000000000000, -0.0000000000000000000, -1.000000000000000000 ) ) ;
#217 = CONICAL_SURFACE ( 'NONE', #208, 0.1412499999999994871, 0.7853981633974391752 ) ;
#218 = DIRECTION ( 'NONE',  ( 1.000000000000000000, 0.0000000000000000000, 0.0000000000000000000 ) ) ;
#219 = ORIENTED_EDGE ( 'NONE', *, *, #142, .T. ) ;
#220 = ADVANCED_FACE ( 'NONE', ( #289 ), #237, .T. ) ;
#221 = ORIENTED_EDGE ( 'NONE', *, *, #149, .F. ) ;
#222 = ADVANCED_FACE ( 'NONE', ( #34 ), #1, .T. ) ;
#223 = AXIS2_PLACEMENT_3D ( 'NONE', #25, #116, #68 ) ;
#224 = ORIENTED_EDGE ( 'NONE', *, *, #12, .T. ) ;
#225 = VECTOR ( 'NONE', #37, 39.37007874015748143 ) ;
#226 = LENGTH_MEASURE_WITH_UNIT ( LENGTH_MEASURE( 0.02539999999999999897 ), #278 );
#227 = EDGE_CURVE ( 'NONE', #16, #105, #204, .T. ) ;
#228 = LINE ( 'NONE', #113, #58 ) ;
#229 = PRODUCT_DEFINITION_SHAPE ( 'NONE', 'NONE',  #235 ) ;
#230 = PRESENTATION_STYLE_ASSIGNMENT (( #111 ) ) ;
#231 =( GEOMETRIC_REPRESENTATION_CONTEXT ( 3 ) GLOBAL_UNCERTAINTY_ASSIGNED_CONTEXT ( ( #206 ) ) GLOBAL_UNIT_ASSIGNED_CONTEXT ( ( #139, #135, #245 ) ) REPRESENTATION_CONTEXT ( 'NONE', 'WORKASPACE' ) );
#232 = DIRECTION ( 'NONE',  ( -1.224646799147353207E-16, -0.0000000000000000000, -1.000000000000000000 ) ) ;
#233 = LINE ( 'NONE', #117, #118 ) ;
#234 = CARTESIAN_POINT ( 'NONE',  ( -0.1412499999999994871, 0.0000000000000000000, 2.500000000000000000 ) ) ;
#235 = PRODUCT_DEFINITION ( 'UNKNOWN', '', #50, #137 ) ;
#236 = CARTESIAN_POINT ( 'NONE',  ( 9.956378477067980482E-17, 0.0000000000000000000, 0.8129999999999999449 ) ) ;
#237 = CONICAL_SURFACE ( 'NONE', #265, 0.1560937499999999756, 0.1745329251994338915 ) ;
#238 = DIRECTION ( 'NONE',  ( 0.0000000000000000000, 0.0000000000000000000, 1.000000000000000000 ) ) ;
#239 = ORIENTED_EDGE ( 'NONE', *, *, #12, .F. ) ;
#240 = DIRECTION ( 'NONE',  ( -1.000000000000000000, 0.0000000000000000000, 0.0000000000000000000 ) ) ;
#241 = EDGE_LOOP ( 'NONE', ( #200, #153, #40, #173 ) ) ;
#242 = DIRECTION ( 'NONE',  ( -1.224646799147353207E-16, -0.0000000000000000000, -1.000000000000000000 ) ) ;
#243 = AXIS2_PLACEMENT_3D ( 'NONE', #26, #22, #262 ) ;
#244 = VERTEX_POINT ( 'NONE', #193 ) ;
#245 =( NAMED_UNIT ( * ) SI_UNIT ( $, .STERADIAN. ) SOLID_ANGLE_UNIT ( ) );
#246 = ORIENTED_EDGE ( 'NONE', *, *, #248, .F. ) ;
#247 = ORIENTED_EDGE ( 'NONE', *, *, #288, .T. ) ;
#248 = EDGE_CURVE ( 'NONE', #194, #16, #150, .T. ) ;
#249 = CIRCLE ( 'NONE', #76, 0.1562500000000000000 ) ;
#250 = AXIS2_PLACEMENT_3D ( 'NONE', #125, #287, #213 ) ;
#251 = CARTESIAN_POINT ( 'NONE',  ( -0.1562500000000000000, 0.0000000000000000000, 2.500000000000000000 ) ) ;
#252 =( NAMED_UNIT ( * ) PLANE_ANGLE_UNIT ( ) SI_UNIT ( $, .RADIAN. ) );
#253 = DIRECTION ( 'NONE',  ( 0.0000000000000000000, 0.0000000000000000000, 1.000000000000000000 ) ) ;
#254 = EDGE_CURVE ( 'NONE', #244, #175, #166, .T. ) ;
#255 = ADVANCED_BREP_SHAPE_REPRESENTATION ( 'Micro_GEM-312-4', ( #46, #178 ), #231 ) ;
#256 = CIRCLE ( 'NONE', #274, 0.1562500000000000000 ) ;
#257 = LINE ( 'NONE', #260, #64 ) ;
#258 = ADVANCED_FACE ( 'NONE', ( #128 ), #82, .T. ) ;
#259 = DIRECTION ( 'NONE',  ( -0.7071067811865410224, 0.0000000000000000000, -0.7071067811865539010 ) ) ;
#260 = CARTESIAN_POINT ( 'NONE',  ( -0.1412499999999994871, 0.0000000000000000000, 2.500000000000000000 ) ) ;
#261 = AXIS2_PLACEMENT_3D ( 'NONE', #165, #52, #186 ) ;
#262 = DIRECTION ( 'NONE',  ( 1.000000000000000000, 0.0000000000000000000, -0.0000000000000000000 ) ) ;
#263 = CARTESIAN_POINT ( 'NONE',  ( 9.956378477067980482E-17, 0.0000000000000000000, 0.8129999999999999449 ) ) ;
#264 = CYLINDRICAL_SURFACE ( 'NONE', #141, 0.1560937499999999756 ) ;
#265 = AXIS2_PLACEMENT_3D ( 'NONE', #263, #188, #96 ) ;
#266 = DIRECTION ( 'NONE',  ( -1.000000000000000000, 0.0000000000000000000, 1.224646799147353454E-16 ) ) ;
#267 = ORIENTED_EDGE ( 'NONE', *, *, #129, .T. ) ;
#268 = CARTESIAN_POINT ( 'NONE',  ( 2.341031285748743514E-33, 0.0000000000000000000, 1.911597113044071690E-17 ) ) ;
#269 = ORIENTED_EDGE ( 'NONE', *, *, #197, .F. ) ;
#270 = CARTESIAN_POINT ( 'NONE',  ( -0.1562500000000000000, 0.0000000000000000000, 2.484999999999999432 ) ) ;
#271 = ORIENTED_EDGE ( 'NONE', *, *, #5, .F. ) ;
#272 = PRODUCT_CONTEXT ( 'NONE', #106, 'mechanical' ) ;
#273 = COLOUR_RGB ( '',0.7921568627450980005, 0.8196078431372548767, 0.9333333333333333481 ) ;
#274 = AXIS2_PLACEMENT_3D ( 'NONE', #126, #170, #152 ) ;
#275 = ORIENTED_EDGE ( 'NONE', *, *, #70, .T. ) ;
#276 = CARTESIAN_POINT ( 'NONE',  ( -0.1560937499999999756, 0.0000000000000000000, 1.911597113044071690E-17 ) ) ;
#277 = PLANE ( 'NONE',  #243 ) ;
#278 =( LENGTH_UNIT ( ) NAMED_UNIT ( * ) SI_UNIT ( $, .METRE. ) );
#279 = PRESENTATION_STYLE_ASSIGNMENT (( #120 ) ) ;
#280 = DIMENSIONAL_EXPONENTS ( 1.000000000000000000, 0.0000000000000000000, 0.0000000000000000000, 0.0000000000000000000, 0.0000000000000000000, 0.0000000000000000000, 0.0000000000000000000 ) ;
#281 = CARTESIAN_POINT ( 'NONE',  ( -0.1562499999999999167, 0.0000000000000000000, 0.8138861377843152889 ) ) ;
#282 = CARTESIAN_POINT ( 'NONE',  ( 0.1562500000000000000, 1.913510623667739463E-17, 2.484999999999999432 ) ) ;
#283 = CIRCLE ( 'NONE', #30, 0.1560937499999999756 ) ;
#284 = CARTESIAN_POINT ( 'NONE',  ( 0.0000000000000000000, 0.0000000000000000000, 2.500000000000000000 ) ) ;
#285 = CARTESIAN_POINT ( 'NONE',  ( 0.1560937500000000866, 0.0000000000000000000, 0.8129999999999999449 ) ) ;
#286 = ADVANCED_FACE ( 'NONE', ( #15 ), #210, .T. ) ;
#287 = DIRECTION ( 'NONE',  ( 1.224646799147353207E-16, 0.0000000000000000000, 1.000000000000000000 ) ) ;
#288 = EDGE_CURVE ( 'NONE', #105, #16, #283, .T. ) ;
#289 = FACE_OUTER_BOUND ( 'NONE', #88, .T. ) ;
#290 = PRODUCT_RELATED_PRODUCT_CATEGORY ( 'part', '', ( #101 ) ) ;
#291 = VERTEX_POINT ( 'NONE', #270 ) ;
#292 = CARTESIAN_POINT ( 'NONE',  ( 0.0000000000000000000, 0.0000000000000000000, 2.500000000000000000 ) ) ;
#293 = EDGE_LOOP ( 'NONE', ( #179, #102, #267, #151 ) ) ;
#294 = ORIENTED_EDGE ( 'NONE', *, *, #212, .F. ) ;
#295 =( CONVERSION_BASED_UNIT ( 'INCH', #226 ) LENGTH_UNIT ( ) NAMED_UNIT ( #91 ) );
#296 = AXIS2_PLACEMENT_3D ( 'NONE', #195, #32, #104 ) ;
#297 = ORIENTED_EDGE ( 'NONE', *, *, #198, .F. ) ;
#298 = EDGE_LOOP ( 'NONE', ( #224, #127, #63, #109 ) ) ;
#299 = DIRECTION ( 'NONE',  ( 1.000000000000000000, 0.0000000000000000000, 0.0000000000000000000 ) ) ;
ENDSEC;
END-ISO-10303-21;
