ISO-10303-21;
HEADER;
FILE_DESCRIPTION (( 'STEP AP214' ),
    '1' );
FILE_NAME ('59824.STEP',
    '2023-07-12T13:06:33',
    ( '' ),
    ( '' ),
    'SwSTEP 2.0',
    'SolidWorks 2023',
    '' );
FILE_SCHEMA (( 'AUTOMOTIVE_DESIGN' ));
ENDSEC;

DATA;
#1 = ORIENTED_EDGE ( 'NONE', *, *, #179, .T. ) ;
#2 = MANIFOLD_SOLID_BREP ( 'Revolve - Cutting Edge', #18 ) ;
#3 = VERTEX_POINT ( 'NONE', #275 ) ;
#4 =( GEOMETRIC_REPRESENTATION_CONTEXT ( 3 ) GLOBAL_UNCERTAINTY_ASSIGNED_CONTEXT ( ( #238 ) ) GLOBAL_UNIT_ASSIGNED_CONTEXT ( ( #150, #109, #90 ) ) REPRESENTATION_CONTEXT ( 'NONE', 'WORKASPACE' ) );
#5 = UNCERTAINTY_MEASURE_WITH_UNIT (LENGTH_MEASURE( 1.000000000000000082E-05 ), #194, 'distance_accuracy_value', 'NONE');
#6 = FILL_AREA_STYLE_COLOUR ( '', #257 ) ;
#7 = PRODUCT_DEFINITION ( 'UNKNOWN', '', #142, #235 ) ;
#8 = FACE_OUTER_BOUND ( 'NONE', #258, .T. ) ;
#9 = DIMENSIONAL_EXPONENTS ( 1.000000000000000000, 0.000000000000000000, 0.000000000000000000, 0.000000000000000000, 0.000000000000000000, 0.000000000000000000, 0.000000000000000000 ) ;
#10 = SURFACE_STYLE_USAGE ( .BOTH. , #60 ) ;
#11 = DIMENSIONAL_EXPONENTS ( 1.000000000000000000, 0.000000000000000000, 0.000000000000000000, 0.000000000000000000, 0.000000000000000000, 0.000000000000000000, 0.000000000000000000 ) ;
#12 = CIRCLE ( 'NONE', #153, 0.3750000000000000555 ) ;
#13 = FILL_AREA_STYLE ('',( #6 ) ) ;
#14 = DIRECTION ( 'NONE',  ( -1.000000000000000000, 4.461471180108419361E-18, 0.000000000000000000 ) ) ;
#15 = DIRECTION ( 'NONE',  ( -1.000000000000000000, -1.821231995776177205E-16, 0.000000000000000000 ) ) ;
#16 = DIRECTION ( 'NONE',  ( 1.000000000000000000, 0.000000000000000000, 0.000000000000000000 ) ) ;
#17 = LINE ( 'NONE', #250, #308 ) ;
#18 = CLOSED_SHELL ( 'NONE', ( #89, #56, #246, #184 ) ) ;
#19 = VECTOR ( 'NONE', #198, 39.37007874015748854 ) ;
#20 = CARTESIAN_POINT ( 'NONE',  ( 4.976181272734503357E-37, 1.115367795027105033E-19, 0.000000000000000000 ) ) ;
#21 = EDGE_CURVE ( 'NONE', #3, #162, #189, .T. ) ;
#22 = CIRCLE ( 'NONE', #61, 0.3749999999999996669 ) ;
#23 = CARTESIAN_POINT ( 'NONE',  ( 9.952362545469006714E-37, 2.230735590054210066E-19, 0.000000000000000000 ) ) ;
#24 = ORIENTED_EDGE ( 'NONE', *, *, #296, .T. ) ;
#25 = DIRECTION ( 'NONE',  ( 1.000000000000000000, -4.461471180108420132E-18, 0.000000000000000000 ) ) ;
#26 = SURFACE_SIDE_STYLE ('',( #161 ) ) ;
#27 = FILL_AREA_STYLE_COLOUR ( '', #140 ) ;
#28 = EDGE_LOOP ( 'NONE', ( #114, #165, #159, #116 ) ) ;
#29 = STYLED_ITEM ( 'NONE', ( #105 ), #246 ) ;
#30 = ADVANCED_FACE ( 'NONE', ( #204 ), #244, .F. ) ;
#31 = CYLINDRICAL_SURFACE ( 'NONE', #160, 0.3749999999999998890 ) ;
#32 = CARTESIAN_POINT ( 'NONE',  ( -0.05000000000000000278, 4.461471180108420132E-19, 0.000000000000000000 ) ) ;
#33 = DIMENSIONAL_EXPONENTS ( 1.000000000000000000, 0.000000000000000000, 0.000000000000000000, 0.000000000000000000, 0.000000000000000000, 0.000000000000000000, 0.000000000000000000 ) ;
#34 = CARTESIAN_POINT ( 'NONE',  ( 3.220105682913145355E-16, 0.3249999999999988454, 0.000000000000000000 ) ) ;
#35 = CARTESIAN_POINT ( 'NONE',  ( 9.952362545469006714E-37, 2.230735590054210066E-19, 0.000000000000000000 ) ) ;
#36 = MECHANICAL_DESIGN_GEOMETRIC_PRESENTATION_REPRESENTATION (  '', ( #53 ), #148 ) ;
#37 =( NAMED_UNIT ( * ) SI_UNIT ( $, .STERADIAN. ) SOLID_ANGLE_UNIT ( ) );
#38 = COLOUR_RGB ( '',1.000000000000000000, 0.000000000000000000, 0.000000000000000000 ) ;
#39 = FILL_AREA_STYLE_COLOUR ( '', #167 ) ;
#40 =( CONVERSION_BASED_UNIT ( 'INCH', #185 ) LENGTH_UNIT ( ) NAMED_UNIT ( #33 ) );
#41 = DIRECTION ( 'NONE',  ( -1.432683769153951563E-16, 1.000000000000000000, -0.000000000000000000 ) ) ;
#42 = LENGTH_MEASURE_WITH_UNIT ( LENGTH_MEASURE( 0.02539999999999999897 ), #43 );
#43 =( LENGTH_UNIT ( ) NAMED_UNIT ( * ) SI_UNIT ( $, .METRE. ) );
#44 = ORIENTED_EDGE ( 'NONE', *, *, #164, .F. ) ;
#45 = PRODUCT_CONTEXT ( 'NONE', #178, 'mechanical' ) ;
#46 = COLOUR_RGB ( '',1.000000000000000000, 0.000000000000000000, 0.000000000000000000 ) ;
#47 = AXIS2_PLACEMENT_3D ( 'NONE', #268, #193, #289 ) ;
#48 = DIRECTION ( 'NONE',  ( -4.461471180108419361E-18, -1.000000000000000000, -0.000000000000000000 ) ) ;
#49 =( LENGTH_UNIT ( ) NAMED_UNIT ( * ) SI_UNIT ( $, .METRE. ) );
#50 =( CONVERSION_BASED_UNIT ( 'INCH', #42 ) LENGTH_UNIT ( ) NAMED_UNIT ( #11 ) );
#51 = EDGE_CURVE ( 'NONE', #231, #305, #17, .T. ) ;
#52 = ORIENTED_EDGE ( 'NONE', *, *, #284, .F. ) ;
#53 = STYLED_ITEM ( 'NONE', ( #190 ), #206 ) ;
#54 = EDGE_LOOP ( 'NONE', ( #212, #191, #256, #283 ) ) ;
#55 = STYLED_ITEM ( 'NONE', ( #125 ), #56 ) ;
#56 = ADVANCED_FACE ( 'NONE', ( #225 ), #217, .T. ) ;
#57 = DIRECTION ( 'NONE',  ( -4.461471180108419361E-18, -1.000000000000000000, -0.000000000000000000 ) ) ;
#58 =( NAMED_UNIT ( * ) PLANE_ANGLE_UNIT ( ) SI_UNIT ( $, .RADIAN. ) );
#59 = SURFACE_SIDE_STYLE ('',( #108 ) ) ;
#60 = SURFACE_SIDE_STYLE ('',( #243 ) ) ;
#61 = AXIS2_PLACEMENT_3D ( 'NONE', #115, #192, #15 ) ;
#62 = DIRECTION ( 'NONE',  ( -1.432683769153951563E-16, 1.000000000000000000, 0.000000000000000000 ) ) ;
#63 = DIRECTION ( 'NONE',  ( 1.432683769153951563E-16, -1.000000000000000000, 0.000000000000000000 ) ) ;
#64 = UNCERTAINTY_MEASURE_WITH_UNIT (LENGTH_MEASURE( 1.000000000000000082E-05 ), #50, 'distance_accuracy_value', 'NONE');
#65 = LENGTH_MEASURE_WITH_UNIT ( LENGTH_MEASURE( 0.02539999999999999897 ), #292 );
#66 = CARTESIAN_POINT ( 'NONE',  ( -6.123233995736770966E-17, 3.000000000000000444, 0.000000000000000000 ) ) ;
#67 = PRESENTATION_LAYER_ASSIGNMENT (  '', '', ( #84 ) ) ;
#68 = APPLICATION_PROTOCOL_DEFINITION ( 'draft international standard', 'automotive_design', 1998, #178 ) ;
#69 =( GEOMETRIC_REPRESENTATION_CONTEXT ( 3 ) GLOBAL_UNCERTAINTY_ASSIGNED_CONTEXT ( ( #166 ) ) GLOBAL_UNIT_ASSIGNED_CONTEXT ( ( #122, #298, #222 ) ) REPRESENTATION_CONTEXT ( 'NONE', 'WORKASPACE' ) );
#70 = DIMENSIONAL_EXPONENTS ( 1.000000000000000000, 0.000000000000000000, 0.000000000000000000, 0.000000000000000000, 0.000000000000000000, 0.000000000000000000, 0.000000000000000000 ) ;
#71 = SURFACE_STYLE_USAGE ( .BOTH. , #93 ) ;
#72 = DIRECTION ( 'NONE',  ( -1.432683769153951563E-16, 1.000000000000000000, -0.000000000000000000 ) ) ;
#73 = ORIENTED_EDGE ( 'NONE', *, *, #21, .T. ) ;
#74 =( LENGTH_UNIT ( ) NAMED_UNIT ( * ) SI_UNIT ( $, .METRE. ) );
#75 = EDGE_LOOP ( 'NONE', ( #80, #1 ) ) ;
#76 = FILL_AREA_STYLE ('',( #39 ) ) ;
#77 = VERTEX_POINT ( 'NONE', #196 ) ;
#78 = SURFACE_SIDE_STYLE ('',( #119 ) ) ;
#79 = ORIENTED_EDGE ( 'NONE', *, *, #81, .T. ) ;
#80 = ORIENTED_EDGE ( 'NONE', *, *, #132, .T. ) ;
#81 = EDGE_CURVE ( 'NONE', #77, #137, #145, .T. ) ;
#82 = DIRECTION ( 'NONE',  ( 4.461471180108419361E-18, 1.000000000000000000, 0.000000000000000000 ) ) ;
#83 = CARTESIAN_POINT ( 'NONE',  ( 9.952362545469006714E-37, 2.230735590054210066E-19, 0.000000000000000000 ) ) ;
#84 = STYLED_ITEM ( 'NONE', ( #117 ), #2 ) ;
#85 = CARTESIAN_POINT ( 'NONE',  ( 1.449978133535231054E-18, 0.3249999999999988454, 0.000000000000000000 ) ) ;
#86 = PRESENTATION_STYLE_ASSIGNMENT (( #10 ) ) ;
#87 =( LENGTH_UNIT ( ) NAMED_UNIT ( * ) SI_UNIT ( $, .METRE. ) );
#88 = PLANE ( 'NONE',  #104 ) ;
#89 = ADVANCED_FACE ( 'NONE', ( #199 ), #277, .T. ) ;
#90 =( NAMED_UNIT ( * ) SI_UNIT ( $, .STERADIAN. ) SOLID_ANGLE_UNIT ( ) );
#91 = PRESENTATION_LAYER_ASSIGNMENT (  '', '', ( #269 ) ) ;
#92 = CARTESIAN_POINT ( 'NONE',  ( -6.123233995736772199E-17, 3.000000000000000444, 0.000000000000000000 ) ) ;
#93 = SURFACE_SIDE_STYLE ('',( #123 ) ) ;
#94 = CIRCLE ( 'NONE', #47, 0.3749999999999996669 ) ;
#95 = PRODUCT_DEFINITION_SHAPE ( 'NONE', 'NONE',  #7 ) ;
#96 = DIRECTION ( 'NONE',  ( -1.000000000000000000, 0.000000000000000000, 0.000000000000000000 ) ) ;
#97 = ORIENTED_EDGE ( 'NONE', *, *, #164, .T. ) ;
#98 = VERTEX_POINT ( 'NONE', #127 ) ;
#99 = VECTOR ( 'NONE', #202, 39.37007874015748143 ) ;
#100 = CONICAL_SURFACE ( 'NONE', #279, 0.05000000000000000278, 0.7853981633974500554 ) ;
#101 = PRESENTATION_STYLE_ASSIGNMENT (( #209 ) ) ;
#102 = ORIENTED_EDGE ( 'NONE', *, *, #132, .F. ) ;
#103 = DIMENSIONAL_EXPONENTS ( 1.000000000000000000, 0.000000000000000000, 0.000000000000000000, 0.000000000000000000, 0.000000000000000000, 0.000000000000000000, 0.000000000000000000 ) ;
#104 = AXIS2_PLACEMENT_3D ( 'NONE', #34, #62, #215 ) ;
#105 = PRESENTATION_STYLE_ASSIGNMENT (( #197 ) ) ;
#106 = LENGTH_MEASURE_WITH_UNIT ( LENGTH_MEASURE( 0.02539999999999999897 ), #87 );
#107 = AXIS2_PLACEMENT_3D ( 'NONE', #20, #155, #113 ) ;
#108 = SURFACE_STYLE_FILL_AREA ( #13 ) ;
#109 =( NAMED_UNIT ( * ) PLANE_ANGLE_UNIT ( ) SI_UNIT ( $, .RADIAN. ) );
#110 = CLOSED_SHELL ( 'NONE', ( #135, #236, #234, #30 ) ) ;
#111 = CARTESIAN_POINT ( 'NONE',  ( 1.449978133535231054E-18, 0.3249999999999988454, 0.000000000000000000 ) ) ;
#112 = DIRECTION ( 'NONE',  ( -4.461471180108419361E-18, -1.000000000000000000, -0.000000000000000000 ) ) ;
#113 = DIRECTION ( 'NONE',  ( 1.000000000000000000, -4.461471180108419361E-18, 0.000000000000000000 ) ) ;
#114 = ORIENTED_EDGE ( 'NONE', *, *, #296, .F. ) ;
#115 = CARTESIAN_POINT ( 'NONE',  ( 3.220105682913145355E-16, 0.3249999999999988454, 0.000000000000000000 ) ) ;
#116 = ORIENTED_EDGE ( 'NONE', *, *, #81, .F. ) ;
#117 = PRESENTATION_STYLE_ASSIGNMENT (( #138 ) ) ;
#118 = ORIENTED_EDGE ( 'NONE', *, *, #242, .F. ) ;
#119 = SURFACE_STYLE_FILL_AREA ( #309 ) ;
#120 = CIRCLE ( 'NONE', #248, 0.3750000000000001110 ) ;
#121 = CARTESIAN_POINT ( 'NONE',  ( 0.05000000000000000278, 0.000000000000000000, 2.602374448188125966E-17 ) ) ;
#122 =( CONVERSION_BASED_UNIT ( 'INCH', #177 ) LENGTH_UNIT ( ) NAMED_UNIT ( #226 ) );
#123 = SURFACE_STYLE_FILL_AREA ( #173 ) ;
#124 = DIRECTION ( 'NONE',  ( 1.000000000000000000, 0.000000000000000000, 0.000000000000000000 ) ) ;
#125 = PRESENTATION_STYLE_ASSIGNMENT (( #71 ) ) ;
#126 = CARTESIAN_POINT ( 'NONE',  ( 0.3749999999999998335, 3.000000000000000444, 4.592425496802572986E-17 ) ) ;
#127 = CARTESIAN_POINT ( 'NONE',  ( 0.3750000000000000555, 0.3249999999999988454, 4.592425496802574219E-17 ) ) ;
#128 = VECTOR ( 'NONE', #252, 39.37007874015748854 ) ;
#129 =( GEOMETRIC_REPRESENTATION_CONTEXT ( 3 ) GLOBAL_UNCERTAINTY_ASSIGNED_CONTEXT ( ( #294 ) ) GLOBAL_UNIT_ASSIGNED_CONTEXT ( ( #40, #205, #251 ) ) REPRESENTATION_CONTEXT ( 'NONE', 'WORKASPACE' ) );
#130 = FACE_OUTER_BOUND ( 'NONE', #281, .T. ) ;
#131 = ORIENTED_EDGE ( 'NONE', *, *, #147, .F. ) ;
#132 = EDGE_CURVE ( 'NONE', #305, #162, #195, .T. ) ;
#133 = DIRECTION ( 'NONE',  ( 1.000000000000000000, 0.000000000000000000, 0.000000000000000000 ) ) ;
#134 = EDGE_LOOP ( 'NONE', ( #163, #73, #102, #253 ) ) ;
#135 = ADVANCED_FACE ( 'NONE', ( #304 ), #207, .T. ) ;
#136 = SURFACE_STYLE_USAGE ( .BOTH. , #78 ) ;
#137 = VERTEX_POINT ( 'NONE', #188 ) ;
#138 = SURFACE_STYLE_USAGE ( .BOTH. , #210 ) ;
#139 = UNCERTAINTY_MEASURE_WITH_UNIT (LENGTH_MEASURE( 1.000000000000000082E-05 ), #265, 'distance_accuracy_value', 'NONE');
#140 = COLOUR_RGB ( '',0.7921568627450980005, 0.8196078431372548767, 0.9333333333333333481 ) ;
#141 =( GEOMETRIC_REPRESENTATION_CONTEXT ( 3 ) GLOBAL_UNCERTAINTY_ASSIGNED_CONTEXT ( ( #64 ) ) GLOBAL_UNIT_ASSIGNED_CONTEXT ( ( #50, #151, #228 ) ) REPRESENTATION_CONTEXT ( 'NONE', 'WORKASPACE' ) );
#142 = PRODUCT_DEFINITION_FORMATION_WITH_SPECIFIED_SOURCE ( 'ANY', '', #266, .NOT_KNOWN. ) ;
#143 = AXIS2_PLACEMENT_3D ( 'NONE', #180, #63, #154 ) ;
#144 = DIRECTION ( 'NONE',  ( -1.000000000000000000, 4.461471180108420132E-18, 0.000000000000000000 ) ) ;
#145 = LINE ( 'NONE', #32, #19 ) ;
#146 = FACE_OUTER_BOUND ( 'NONE', #54, .T. ) ;
#147 = EDGE_CURVE ( 'NONE', #285, #98, #156, .T. ) ;
#148 =( GEOMETRIC_REPRESENTATION_CONTEXT ( 3 ) GLOBAL_UNCERTAINTY_ASSIGNED_CONTEXT ( ( #139 ) ) GLOBAL_UNIT_ASSIGNED_CONTEXT ( ( #265, #232, #267 ) ) REPRESENTATION_CONTEXT ( 'NONE', 'WORKASPACE' ) );
#149 =( NAMED_UNIT ( * ) SI_UNIT ( $, .STERADIAN. ) SOLID_ANGLE_UNIT ( ) );
#150 =( CONVERSION_BASED_UNIT ( 'INCH', #65 ) LENGTH_UNIT ( ) NAMED_UNIT ( #103 ) );
#151 =( NAMED_UNIT ( * ) PLANE_ANGLE_UNIT ( ) SI_UNIT ( $, .RADIAN. ) );
#152 = ADVANCED_BREP_SHAPE_REPRESENTATION ( '59824', ( #2, #206, #249 ), #129 ) ;
#153 = AXIS2_PLACEMENT_3D ( 'NONE', #158, #48, #133 ) ;
#154 = DIRECTION ( 'NONE',  ( 1.000000000000000000, 1.432683769153951563E-16, 0.000000000000000000 ) ) ;
#155 = DIRECTION ( 'NONE',  ( -4.461471180108419361E-18, -1.000000000000000000, 0.000000000000000000 ) ) ;
#156 = LINE ( 'NONE', #255, #128 ) ;
#157 = ORIENTED_EDGE ( 'NONE', *, *, #227, .F. ) ;
#158 = CARTESIAN_POINT ( 'NONE',  ( 1.449978133535231054E-18, 0.3249999999999988454, 0.000000000000000000 ) ) ;
#159 = ORIENTED_EDGE ( 'NONE', *, *, #242, .T. ) ;
#160 = AXIS2_PLACEMENT_3D ( 'NONE', #240, #170, #271 ) ;
#161 = SURFACE_STYLE_FILL_AREA ( #76 ) ;
#162 = VERTEX_POINT ( 'NONE', #181 ) ;
#163 = ORIENTED_EDGE ( 'NONE', *, *, #284, .T. ) ;
#164 = EDGE_CURVE ( 'NONE', #77, #285, #291, .T. ) ;
#165 = ORIENTED_EDGE ( 'NONE', *, *, #147, .T. ) ;
#166 = UNCERTAINTY_MEASURE_WITH_UNIT (LENGTH_MEASURE( 1.000000000000000082E-05 ), #122, 'distance_accuracy_value', 'NONE');
#167 = COLOUR_RGB ( '',1.000000000000000000, 0.000000000000000000, 0.000000000000000000 ) ;
#168 =( LENGTH_UNIT ( ) NAMED_UNIT ( * ) SI_UNIT ( $, .METRE. ) );
#169 = LENGTH_MEASURE_WITH_UNIT ( LENGTH_MEASURE( 0.02539999999999999897 ), #49 );
#170 = DIRECTION ( 'NONE',  ( -1.432683769153951563E-16, 1.000000000000000000, -0.000000000000000000 ) ) ;
#171 = AXIS2_PLACEMENT_3D ( 'NONE', #23, #230, #25 ) ;
#172 =( CONVERSION_BASED_UNIT ( 'INCH', #169 ) LENGTH_UNIT ( ) NAMED_UNIT ( #245 ) );
#173 = FILL_AREA_STYLE ('',( #293 ) ) ;
#174 =( LENGTH_UNIT ( ) NAMED_UNIT ( * ) SI_UNIT ( $, .METRE. ) );
#175 = PRODUCT_RELATED_PRODUCT_CATEGORY ( 'part', '', ( #266 ) ) ;
#176 = AXIS2_PLACEMENT_3D ( 'NONE', #85, #57, #124 ) ;
#177 = LENGTH_MEASURE_WITH_UNIT ( LENGTH_MEASURE( 0.02539999999999999897 ), #174 );
#178 = APPLICATION_CONTEXT ( 'automotive_design' ) ;
#179 = EDGE_CURVE ( 'NONE', #162, #305, #120, .T. ) ;
#180 = CARTESIAN_POINT ( 'NONE',  ( 0.3750000000000000555, 3.000000000000000444, 0.000000000000000000 ) ) ;
#181 = CARTESIAN_POINT ( 'NONE',  ( 0.3750000000000000555, 3.000000000000000444, 4.592425496802573602E-17 ) ) ;
#182 = APPLICATION_CONTEXT ( 'automotive_design' ) ;
#183 = MECHANICAL_DESIGN_GEOMETRIC_PRESENTATION_REPRESENTATION (  '', ( #269 ), #141 ) ;
#184 = ADVANCED_FACE ( 'NONE', ( #130 ), #302, .T. ) ;
#185 = LENGTH_MEASURE_WITH_UNIT ( LENGTH_MEASURE( 0.02539999999999999897 ), #74 );
#186 = FILL_AREA_STYLE ('',( #27 ) ) ;
#187 = MECHANICAL_DESIGN_GEOMETRIC_PRESENTATION_REPRESENTATION (  '', ( #233 ), #4 ) ;
#188 = CARTESIAN_POINT ( 'NONE',  ( -0.3750000000000000555, 0.3249999999999988454, 0.000000000000000000 ) ) ;
#189 = LINE ( 'NONE', #126, #99 ) ;
#190 = PRESENTATION_STYLE_ASSIGNMENT (( #136 ) ) ;
#191 = ORIENTED_EDGE ( 'NONE', *, *, #227, .T. ) ;
#192 = DIRECTION ( 'NONE',  ( -1.432683769153951563E-16, 1.000000000000000000, -0.000000000000000000 ) ) ;
#193 = DIRECTION ( 'NONE',  ( -1.432683769153951563E-16, 1.000000000000000000, -0.000000000000000000 ) ) ;
#194 =( CONVERSION_BASED_UNIT ( 'INCH', #106 ) LENGTH_UNIT ( ) NAMED_UNIT ( #9 ) );
#195 = CIRCLE ( 'NONE', #287, 0.3750000000000001110 ) ;
#196 = CARTESIAN_POINT ( 'NONE',  ( -0.05000000000000000278, 4.461471180108420132E-19, 0.000000000000000000 ) ) ;
#197 = SURFACE_STYLE_USAGE ( .BOTH. , #59 ) ;
#198 = DIRECTION ( 'NONE',  ( -0.7071067811865486830, 0.7071067811865462405, 0.000000000000000000 ) ) ;
#199 = FACE_OUTER_BOUND ( 'NONE', #28, .T. ) ;
#200 = APPLICATION_PROTOCOL_DEFINITION ( 'draft international standard', 'automotive_design', 1998, #182 ) ;
#201 = EDGE_CURVE ( 'NONE', #137, #98, #12, .T. ) ;
#202 = DIRECTION ( 'NONE',  ( -1.432683769153951563E-16, 1.000000000000000000, -0.000000000000000000 ) ) ;
#203 = PRESENTATION_LAYER_ASSIGNMENT (  '', '', ( #29 ) ) ;
#204 = FACE_OUTER_BOUND ( 'NONE', #75, .T. ) ;
#205 =( NAMED_UNIT ( * ) PLANE_ANGLE_UNIT ( ) SI_UNIT ( $, .RADIAN. ) );
#206 = MANIFOLD_SOLID_BREP ( 'Revolve - Tool Body (Tipped Off)', #110 ) ;
#207 = CYLINDRICAL_SURFACE ( 'NONE', #263, 0.3749999999999998890 ) ;
#208 = AXIS2_PLACEMENT_3D ( 'NONE', #111, #270, #14 ) ;
#209 = SURFACE_STYLE_USAGE ( .BOTH. , #26 ) ;
#210 = SURFACE_SIDE_STYLE ('',( #260 ) ) ;
#211 = PRESENTATION_LAYER_ASSIGNMENT (  '', '', ( #233 ) ) ;
#212 = ORIENTED_EDGE ( 'NONE', *, *, #21, .F. ) ;
#213 = ORIENTED_EDGE ( 'NONE', *, *, #201, .T. ) ;
#214 = COLOUR_RGB ( '',0.7921568627450980005, 0.8196078431372548767, 0.9333333333333333481 ) ;
#215 = DIRECTION ( 'NONE',  ( -1.000000000000000000, -1.432683769153951563E-16, 0.000000000000000000 ) ) ;
#216 = CARTESIAN_POINT ( 'NONE',  ( -0.3749999999999993339, 0.3249999999999987899, 0.000000000000000000 ) ) ;
#217 = PLANE ( 'NONE',  #208 ) ;
#218 = FACE_OUTER_BOUND ( 'NONE', #303, .T. ) ;
#219 = PRESENTATION_LAYER_ASSIGNMENT (  '', '', ( #53 ) ) ;
#220 = AXIS2_PLACEMENT_3D ( 'NONE', #83, #112, #276 ) ;
#221 =( GEOMETRIC_REPRESENTATION_CONTEXT ( 3 ) GLOBAL_UNCERTAINTY_ASSIGNED_CONTEXT ( ( #5 ) ) GLOBAL_UNIT_ASSIGNED_CONTEXT ( ( #194, #58, #37 ) ) REPRESENTATION_CONTEXT ( 'NONE', 'WORKASPACE' ) );
#222 =( NAMED_UNIT ( * ) SI_UNIT ( $, .STERADIAN. ) SOLID_ANGLE_UNIT ( ) );
#223 = CARTESIAN_POINT ( 'NONE',  ( 9.952362545469006714E-37, 2.230735590054210066E-19, 0.000000000000000000 ) ) ;
#224 = DIRECTION ( 'NONE',  ( -1.000000000000000000, 4.461471180108420132E-18, 0.000000000000000000 ) ) ;
#225 = FACE_OUTER_BOUND ( 'NONE', #262, .T. ) ;
#226 = DIMENSIONAL_EXPONENTS ( 1.000000000000000000, 0.000000000000000000, 0.000000000000000000, 0.000000000000000000, 0.000000000000000000, 0.000000000000000000, 0.000000000000000000 ) ;
#227 = EDGE_CURVE ( 'NONE', #3, #231, #22, .T. ) ;
#228 =( NAMED_UNIT ( * ) SI_UNIT ( $, .STERADIAN. ) SOLID_ANGLE_UNIT ( ) );
#229 = AXIS2_PLACEMENT_3D ( 'NONE', #35, #239, #224 ) ;
#230 = DIRECTION ( 'NONE',  ( -4.461471180108419361E-18, -1.000000000000000000, -0.000000000000000000 ) ) ;
#231 = VERTEX_POINT ( 'NONE', #216 ) ;
#232 =( NAMED_UNIT ( * ) PLANE_ANGLE_UNIT ( ) SI_UNIT ( $, .RADIAN. ) );
#233 = STYLED_ITEM ( 'NONE', ( #86 ), #89 ) ;
#234 = ADVANCED_FACE ( 'NONE', ( #146 ), #31, .T. ) ;
#235 = PRODUCT_DEFINITION_CONTEXT ( 'detailed design', #182, 'design' ) ;
#236 = ADVANCED_FACE ( 'NONE', ( #8 ), #88, .F. ) ;
#237 = MECHANICAL_DESIGN_GEOMETRIC_PRESENTATION_REPRESENTATION (  '', ( #29 ), #221 ) ;
#238 = UNCERTAINTY_MEASURE_WITH_UNIT (LENGTH_MEASURE( 1.000000000000000082E-05 ), #150, 'distance_accuracy_value', 'NONE');
#239 = DIRECTION ( 'NONE',  ( 4.461471180108419361E-18, 1.000000000000000000, 0.000000000000000000 ) ) ;
#240 = CARTESIAN_POINT ( 'NONE',  ( -6.123233995736772199E-17, 3.000000000000000444, 0.000000000000000000 ) ) ;
#241 =( GEOMETRIC_REPRESENTATION_CONTEXT ( 3 ) GLOBAL_UNCERTAINTY_ASSIGNED_CONTEXT ( ( #288 ) ) GLOBAL_UNIT_ASSIGNED_CONTEXT ( ( #172, #290, #149 ) ) REPRESENTATION_CONTEXT ( 'NONE', 'WORKASPACE' ) );
#242 = EDGE_CURVE ( 'NONE', #98, #137, #272, .T. ) ;
#243 = SURFACE_STYLE_FILL_AREA ( #295 ) ;
#244 = PLANE ( 'NONE',  #143 ) ;
#245 = DIMENSIONAL_EXPONENTS ( 1.000000000000000000, 0.000000000000000000, 0.000000000000000000, 0.000000000000000000, 0.000000000000000000, 0.000000000000000000, 0.000000000000000000 ) ;
#246 = ADVANCED_FACE ( 'NONE', ( #218 ), #100, .T. ) ;
#247 = DIRECTION ( 'NONE',  ( 0.000000000000000000, 0.000000000000000000, 1.000000000000000000 ) ) ;
#248 = AXIS2_PLACEMENT_3D ( 'NONE', #66, #278, #306 ) ;
#249 = AXIS2_PLACEMENT_3D ( 'NONE', #254, #247, #16 ) ;
#250 = CARTESIAN_POINT ( 'NONE',  ( -0.3749999999999999445, 3.000000000000000444, 0.000000000000000000 ) ) ;
#251 =( NAMED_UNIT ( * ) SI_UNIT ( $, .STERADIAN. ) SOLID_ANGLE_UNIT ( ) );
#252 = DIRECTION ( 'NONE',  ( 0.7071067811865486830, 0.7071067811865462405, 8.659560562354947649E-17 ) ) ;
#253 = ORIENTED_EDGE ( 'NONE', *, *, #51, .F. ) ;
#254 = CARTESIAN_POINT ( 'NONE',  ( 0.000000000000000000, 0.000000000000000000, 0.000000000000000000 ) ) ;
#255 = CARTESIAN_POINT ( 'NONE',  ( 0.05000000000000000278, 0.000000000000000000, 6.123233995736766344E-18 ) ) ;
#256 = ORIENTED_EDGE ( 'NONE', *, *, #51, .T. ) ;
#257 = COLOUR_RGB ( '',1.000000000000000000, 0.000000000000000000, 0.000000000000000000 ) ;
#258 = EDGE_LOOP ( 'NONE', ( #52, #157 ) ) ;
#259 = LENGTH_MEASURE_WITH_UNIT ( LENGTH_MEASURE( 0.02539999999999999897 ), #168 );
#260 = SURFACE_STYLE_FILL_AREA ( #186 ) ;
#261 = FILL_AREA_STYLE_COLOUR ( '', #214 ) ;
#262 = EDGE_LOOP ( 'NONE', ( #307, #118 ) ) ;
#263 = AXIS2_PLACEMENT_3D ( 'NONE', #92, #282, #301 ) ;
#264 = CIRCLE ( 'NONE', #220, 0.05000000000000000278 ) ;
#265 =( CONVERSION_BASED_UNIT ( 'INCH', #259 ) LENGTH_UNIT ( ) NAMED_UNIT ( #70 ) );
#266 = PRODUCT ( '59824', '59824', '', ( #45 ) ) ;
#267 =( NAMED_UNIT ( * ) SI_UNIT ( $, .STERADIAN. ) SOLID_ANGLE_UNIT ( ) );
#268 = CARTESIAN_POINT ( 'NONE',  ( 3.220105682913145355E-16, 0.3249999999999988454, 0.000000000000000000 ) ) ;
#269 = STYLED_ITEM ( 'NONE', ( #101 ), #184 ) ;
#270 = DIRECTION ( 'NONE',  ( 4.461471180108419361E-18, 1.000000000000000000, 0.000000000000000000 ) ) ;
#271 = DIRECTION ( 'NONE',  ( -1.000000000000000000, 0.000000000000000000, 0.000000000000000000 ) ) ;
#272 = CIRCLE ( 'NONE', #176, 0.3750000000000000555 ) ;
#273 = FILL_AREA_STYLE_COLOUR ( '', #38 ) ;
#274 = SHAPE_DEFINITION_REPRESENTATION ( #95, #152 ) ;
#275 = CARTESIAN_POINT ( 'NONE',  ( 0.3750000000000000555, 0.3249999999999989009, 4.592425496802573602E-17 ) ) ;
#276 = DIRECTION ( 'NONE',  ( 1.000000000000000000, -4.461471180108420132E-18, 0.000000000000000000 ) ) ;
#277 = CONICAL_SURFACE ( 'NONE', #229, 0.05000000000000000278, 0.7853981633974500554 ) ;
#278 = DIRECTION ( 'NONE',  ( -1.432683769153951563E-16, 1.000000000000000000, -0.000000000000000000 ) ) ;
#279 = AXIS2_PLACEMENT_3D ( 'NONE', #223, #82, #144 ) ;
#280 = CARTESIAN_POINT ( 'NONE',  ( -6.123233995736770966E-17, 3.000000000000000444, 0.000000000000000000 ) ) ;
#281 = EDGE_LOOP ( 'NONE', ( #97, #24 ) ) ;
#282 = DIRECTION ( 'NONE',  ( -1.432683769153951563E-16, 1.000000000000000000, -0.000000000000000000 ) ) ;
#283 = ORIENTED_EDGE ( 'NONE', *, *, #179, .F. ) ;
#284 = EDGE_CURVE ( 'NONE', #231, #3, #94, .T. ) ;
#285 = VERTEX_POINT ( 'NONE', #121 ) ;
#286 = MECHANICAL_DESIGN_GEOMETRIC_PRESENTATION_REPRESENTATION (  '', ( #84 ), #241 ) ;
#287 = AXIS2_PLACEMENT_3D ( 'NONE', #280, #72, #96 ) ;
#288 = UNCERTAINTY_MEASURE_WITH_UNIT (LENGTH_MEASURE( 1.000000000000000082E-05 ), #172, 'distance_accuracy_value', 'NONE');
#289 = DIRECTION ( 'NONE',  ( -1.000000000000000000, -1.821231995776177205E-16, 0.000000000000000000 ) ) ;
#290 =( NAMED_UNIT ( * ) PLANE_ANGLE_UNIT ( ) SI_UNIT ( $, .RADIAN. ) );
#291 = CIRCLE ( 'NONE', #171, 0.05000000000000000278 ) ;
#292 =( LENGTH_UNIT ( ) NAMED_UNIT ( * ) SI_UNIT ( $, .METRE. ) );
#293 = FILL_AREA_STYLE_COLOUR ( '', #46 ) ;
#294 = UNCERTAINTY_MEASURE_WITH_UNIT (LENGTH_MEASURE( 1.000000000000000082E-05 ), #40, 'distance_accuracy_value', 'NONE');
#295 = FILL_AREA_STYLE ('',( #273 ) ) ;
#296 = EDGE_CURVE ( 'NONE', #285, #77, #264, .T. ) ;
#297 = PRESENTATION_LAYER_ASSIGNMENT (  '', '', ( #55 ) ) ;
#298 =( NAMED_UNIT ( * ) PLANE_ANGLE_UNIT ( ) SI_UNIT ( $, .RADIAN. ) );
#299 = CARTESIAN_POINT ( 'NONE',  ( -0.3750000000000001665, 3.000000000000000444, 0.000000000000000000 ) ) ;
#300 = MECHANICAL_DESIGN_GEOMETRIC_PRESENTATION_REPRESENTATION (  '', ( #55 ), #69 ) ;
#301 = DIRECTION ( 'NONE',  ( -1.000000000000000000, 0.000000000000000000, 0.000000000000000000 ) ) ;
#302 = PLANE ( 'NONE',  #107 ) ;
#303 = EDGE_LOOP ( 'NONE', ( #131, #44, #79, #213 ) ) ;
#304 = FACE_OUTER_BOUND ( 'NONE', #134, .T. ) ;
#305 = VERTEX_POINT ( 'NONE', #299 ) ;
#306 = DIRECTION ( 'NONE',  ( -1.000000000000000000, 0.000000000000000000, 0.000000000000000000 ) ) ;
#307 = ORIENTED_EDGE ( 'NONE', *, *, #201, .F. ) ;
#308 = VECTOR ( 'NONE', #41, 39.37007874015748143 ) ;
#309 = FILL_AREA_STYLE ('',( #261 ) ) ;
ENDSEC;
END-ISO-10303-21;
