ISO-10303-21;
HEADER;
FILE_DESCRIPTION (( 'STEP AP214' ),
    '1' );
FILE_NAME ('Micro_RME-017-2X.STEP',
    '2021-09-01T22:39:48',
    ( '' ),
    ( '' ),
    'SwSTEP 2.0',
    'SolidWorks 2020',
    '' );
FILE_SCHEMA (( 'AUTOMOTIVE_DESIGN' ));
ENDSEC;

DATA;
#1 = CONICAL_SURFACE ( 'NONE', #24, 0.008491499999999999049, 0.1745329251994338915 ) ;
#2 = CIRCLE ( 'NONE', #96, 0.04750000000000064587 ) ;
#3 = DIRECTION ( 'NONE',  ( 0.0000000000000000000, 0.0000000000000000000, 1.000000000000000000 ) ) ;
#4 = CARTESIAN_POINT ( 'NONE',  ( 0.0000000000000000000, 0.0000000000000000000, 0.0000000000000000000 ) ) ;
#5 = DIRECTION ( 'NONE',  ( 0.1736481776669313859, 0.0000000000000000000, 0.9848077530122077983 ) ) ;
#6 = EDGE_CURVE ( 'NONE', #55, #264, #241, .T. ) ;
#7 = ORIENTED_EDGE ( 'NONE', *, *, #130, .F. ) ;
#8 = AXIS2_PLACEMENT_3D ( 'NONE', #108, #45, #234 ) ;
#9 = ORIENTED_EDGE ( 'NONE', *, *, #33, .T. ) ;
#10 = ORIENTED_EDGE ( 'NONE', *, *, #6, .F. ) ;
#11 = ADVANCED_FACE ( 'NONE', ( #57 ), #56, .T. ) ;
#12 = ORIENTED_EDGE ( 'NONE', *, *, #25, .F. ) ;
#13 = AXIS2_PLACEMENT_3D ( 'NONE', #205, #72, #111 ) ;
#14 = CARTESIAN_POINT ( 'NONE',  ( 0.0000000000000000000, 0.0000000000000000000, 1.500000000000000222 ) ) ;
#15 = FACE_OUTER_BOUND ( 'NONE', #245, .T. ) ;
#16 =( LENGTH_UNIT ( ) NAMED_UNIT ( * ) SI_UNIT ( $, .METRE. ) );
#17 = EDGE_CURVE ( 'NONE', #236, #264, #280, .T. ) ;
#18 = CARTESIAN_POINT ( 'NONE',  ( 0.0000000000000000000, 0.0000000000000000000, 1.500000000000000222 ) ) ;
#19 = CARTESIAN_POINT ( 'NONE',  ( -0.008491499999999993845, 1.039908829495974867E-18, 0.05099999999999999672 ) ) ;
#20 = PRODUCT_DEFINITION_CONTEXT ( 'detailed design', #59, 'design' ) ;
#21 = AXIS2_PLACEMENT_3D ( 'NONE', #246, #35, #288 ) ;
#22 = VERTEX_POINT ( 'NONE', #148 ) ;
#23 = EDGE_LOOP ( 'NONE', ( #197, #79 ) ) ;
#24 = AXIS2_PLACEMENT_3D ( 'NONE', #90, #191, #167 ) ;
#25 = EDGE_CURVE ( 'NONE', #264, #236, #215, .T. ) ;
#26 = LENGTH_MEASURE_WITH_UNIT ( LENGTH_MEASURE( 0.02539999999999999897 ), #16 );
#27 = VERTEX_POINT ( 'NONE', #243 ) ;
#28 = LINE ( 'NONE', #220, #68 ) ;
#29 = CARTESIAN_POINT ( 'NONE',  ( 1.273521019447317588E-34, 0.0000000000000000000, 1.039908829495975638E-18 ) ) ;
#30 =( LENGTH_UNIT ( ) NAMED_UNIT ( * ) SI_UNIT ( $, .METRE. ) );
#31 = MANIFOLD_SOLID_BREP ( 'Cut-Revolve1', #248 ) ;
#32 = VECTOR ( 'NONE', #210, 39.37007874015747433 ) ;
#33 = EDGE_CURVE ( 'NONE', #55, #213, #121, .T. ) ;
#34 = ORIENTED_EDGE ( 'NONE', *, *, #52, .F. ) ;
#35 = DIRECTION ( 'NONE',  ( 0.0000000000000000000, 0.0000000000000000000, 1.000000000000000000 ) ) ;
#36 = VERTEX_POINT ( 'NONE', #282 ) ;
#37 = LINE ( 'NONE', #70, #39 ) ;
#38 =( CONVERSION_BASED_UNIT ( 'INCH', #189 ) LENGTH_UNIT ( ) NAMED_UNIT ( #164 ) );
#39 = VECTOR ( 'NONE', #185, 39.37007874015748143 ) ;
#40 = DIRECTION ( 'NONE',  ( -1.000000000000000000, 0.0000000000000000000, 0.0000000000000000000 ) ) ;
#41 = FACE_OUTER_BOUND ( 'NONE', #169, .T. ) ;
#42 = AXIS2_PLACEMENT_3D ( 'NONE', #155, #151, #180 ) ;
#43 = STYLED_ITEM ( 'NONE', ( #291 ), #207 ) ;
#44 = APPLICATION_CONTEXT ( 'automotive_design' ) ;
#45 = DIRECTION ( 'NONE',  ( 0.0000000000000000000, 0.0000000000000000000, -1.000000000000000000 ) ) ;
#46 = EDGE_LOOP ( 'NONE', ( #237, #257 ) ) ;
#47 = ADVANCED_FACE ( 'NONE', ( #75 ), #171, .T. ) ;
#48 = EDGE_CURVE ( 'NONE', #22, #299, #216, .T. ) ;
#49 = VECTOR ( 'NONE', #203, 39.37007874015748854 ) ;
#50 = ORIENTED_EDGE ( 'NONE', *, *, #99, .T. ) ;
#51 = ORIENTED_EDGE ( 'NONE', *, *, #48, .F. ) ;
#52 = EDGE_CURVE ( 'NONE', #55, #299, #277, .T. ) ;
#53 = ORIENTED_EDGE ( 'NONE', *, *, #212, .T. ) ;
#54 = AXIS2_PLACEMENT_3D ( 'NONE', #87, #186, #40 ) ;
#55 = VERTEX_POINT ( 'NONE', #91 ) ;
#56 = CYLINDRICAL_SURFACE ( 'NONE', #182, 0.008491500000000002518 ) ;
#57 = FACE_OUTER_BOUND ( 'NONE', #168, .T. ) ;
#58 =( NAMED_UNIT ( * ) SI_UNIT ( $, .STERADIAN. ) SOLID_ANGLE_UNIT ( ) );
#59 = APPLICATION_CONTEXT ( 'automotive_design' ) ;
#60 = ORIENTED_EDGE ( 'NONE', *, *, #67, .F. ) ;
#61 = DIRECTION ( 'NONE',  ( -1.224646799147353454E-16, -0.0000000000000000000, -1.000000000000000000 ) ) ;
#62 = EDGE_CURVE ( 'NONE', #299, #22, #66, .T. ) ;
#63 = PLANE ( 'NONE',  #146 ) ;
#64 = CYLINDRICAL_SURFACE ( 'NONE', #142, 0.06250000000000002776 ) ;
#65 = SURFACE_SIDE_STYLE ('',( #230 ) ) ;
#66 = CIRCLE ( 'NONE', #13, 0.06250000000000002776 ) ;
#67 = EDGE_CURVE ( 'NONE', #27, #299, #165, .T. ) ;
#68 = VECTOR ( 'NONE', #5, 39.37007874015748143 ) ;
#69 = DIRECTION ( 'NONE',  ( -1.000000000000000000, 0.0000000000000000000, 0.0000000000000000000 ) ) ;
#70 = CARTESIAN_POINT ( 'NONE',  ( 0.06250000000000002776, 7.654042494670959086E-18, 1.500000000000000222 ) ) ;
#71 = ORIENTED_EDGE ( 'NONE', *, *, #99, .F. ) ;
#72 = DIRECTION ( 'NONE',  ( -1.224646799147353454E-16, -0.0000000000000000000, -1.000000000000000000 ) ) ;
#73 = AXIS2_PLACEMENT_3D ( 'NONE', #14, #124, #69 ) ;
#74 = ORIENTED_EDGE ( 'NONE', *, *, #33, .F. ) ;
#75 = FACE_OUTER_BOUND ( 'NONE', #173, .T. ) ;
#76 = DIRECTION ( 'NONE',  ( -1.000000000000000000, 0.0000000000000000000, 1.224646799147353207E-16 ) ) ;
#77 = CIRCLE ( 'NONE', #132, 0.06250000000000002776 ) ;
#78 =( CONVERSION_BASED_UNIT ( 'INCH', #259 ) LENGTH_UNIT ( ) NAMED_UNIT ( #233 ) );
#79 = ORIENTED_EDGE ( 'NONE', *, *, #17, .T. ) ;
#80 = EDGE_CURVE ( 'NONE', #166, #22, #37, .T. ) ;
#81 = FILL_AREA_STYLE ('',( #267 ) ) ;
#82 = AXIS2_PLACEMENT_3D ( 'NONE', #195, #223, #129 ) ;
#83 = APPLICATION_PROTOCOL_DEFINITION ( 'draft international standard', 'automotive_design', 1998, #44 ) ;
#84 = CYLINDRICAL_SURFACE ( 'NONE', #73, 0.06250000000000002776 ) ;
#85 = DIRECTION ( 'NONE',  ( -0.0000000000000000000, -0.0000000000000000000, -1.000000000000000000 ) ) ;
#86 = CARTESIAN_POINT ( 'NONE',  ( -0.06249999999999997918, 0.0000000000000000000, 0.3572974241548214636 ) ) ;
#87 = CARTESIAN_POINT ( 'NONE',  ( 0.0000000000000000000, 0.0000000000000000000, 1.500000000000000222 ) ) ;
#88 = CARTESIAN_POINT ( 'NONE',  ( 0.0000000000000000000, 0.0000000000000000000, 0.0000000000000000000 ) ) ;
#89 = AXIS2_PLACEMENT_3D ( 'NONE', #18, #224, #102 ) ;
#90 = CARTESIAN_POINT ( 'NONE',  ( 6.245698675651502164E-18, 0.0000000000000000000, 0.05099999999999999672 ) ) ;
#91 = CARTESIAN_POINT ( 'NONE',  ( -0.008491499999999993845, 4.346975662083466591E-18, 0.05099999999999999672 ) ) ;
#92 = ORIENTED_EDGE ( 'NONE', *, *, #286, .F. ) ;
#93 = ADVANCED_FACE ( 'NONE', ( #15 ), #1, .T. ) ;
#94 = ORIENTED_EDGE ( 'NONE', *, *, #80, .T. ) ;
#95 = ORIENTED_EDGE ( 'NONE', *, *, #48, .T. ) ;
#96 = AXIS2_PLACEMENT_3D ( 'NONE', #107, #187, #128 ) ;
#97 =( NAMED_UNIT ( * ) SI_UNIT ( $, .STERADIAN. ) SOLID_ANGLE_UNIT ( ) );
#98 = DIRECTION ( 'NONE',  ( -1.000000000000000000, 0.0000000000000000000, 1.224646799147353454E-16 ) ) ;
#99 = EDGE_CURVE ( 'NONE', #213, #236, #190, .T. ) ;
#100 = CARTESIAN_POINT ( 'NONE',  ( 0.008491500000000005988, 0.0000000000000000000, 0.05099999999999999672 ) ) ;
#101 = CIRCLE ( 'NONE', #275, 0.008491499999999999049 ) ;
#102 = DIRECTION ( 'NONE',  ( 1.000000000000000000, 0.0000000000000000000, -0.0000000000000000000 ) ) ;
#103 = ORIENTED_EDGE ( 'NONE', *, *, #232, .F. ) ;
#104 = ORIENTED_EDGE ( 'NONE', *, *, #286, .T. ) ;
#105 = FACE_OUTER_BOUND ( 'NONE', #193, .T. ) ;
#106 = MECHANICAL_DESIGN_GEOMETRIC_PRESENTATION_REPRESENTATION (  '', ( #201 ), #244 ) ;
#107 = CARTESIAN_POINT ( 'NONE',  ( 0.0000000000000000000, 0.0000000000000000000, 1.500000000000000222 ) ) ;
#108 = CARTESIAN_POINT ( 'NONE',  ( 0.0000000000000000000, 0.0000000000000000000, 1.485000000000000764 ) ) ;
#109 = DIRECTION ( 'NONE',  ( 1.000000000000000000, 0.0000000000000000000, -0.0000000000000000000 ) ) ;
#110 = ADVANCED_FACE ( 'NONE', ( #105 ), #176, .T. ) ;
#111 = DIRECTION ( 'NONE',  ( 1.000000000000000000, 0.0000000000000000000, 0.0000000000000000000 ) ) ;
#112 =( CONVERSION_BASED_UNIT ( 'INCH', #26 ) LENGTH_UNIT ( ) NAMED_UNIT ( #273 ) );
#113 = ADVANCED_FACE ( 'NONE', ( #270 ), #64, .T. ) ;
#114 = UNCERTAINTY_MEASURE_WITH_UNIT (LENGTH_MEASURE( 1.000000000000000082E-05 ), #38, 'distance_accuracy_value', 'NONE');
#115 = EDGE_CURVE ( 'NONE', #213, #55, #101, .T. ) ;
#116 = DIRECTION ( 'NONE',  ( -1.224646799147353454E-16, -0.0000000000000000000, -1.000000000000000000 ) ) ;
#117 = LINE ( 'NONE', #162, #239 ) ;
#118 = ORIENTED_EDGE ( 'NONE', *, *, #212, .F. ) ;
#119 = PRODUCT_DEFINITION_SHAPE ( 'NONE', 'NONE',  #209 ) ;
#120 = AXIS2_PLACEMENT_3D ( 'NONE', #29, #125, #98 ) ;
#121 = CIRCLE ( 'NONE', #82, 0.008491499999999999049 ) ;
#122 =( NAMED_UNIT ( * ) PLANE_ANGLE_UNIT ( ) SI_UNIT ( $, .RADIAN. ) );
#123 = FILL_AREA_STYLE_COLOUR ( '', #161 ) ;
#124 = DIRECTION ( 'NONE',  ( -0.0000000000000000000, -0.0000000000000000000, -1.000000000000000000 ) ) ;
#125 = DIRECTION ( 'NONE',  ( -1.224646799147353454E-16, -0.0000000000000000000, -1.000000000000000000 ) ) ;
#126 = PRESENTATION_LAYER_ASSIGNMENT (  '', '', ( #201 ) ) ;
#127 = CARTESIAN_POINT ( 'NONE',  ( -0.008491500000000002518, 0.0000000000000000000, 1.039908829495975252E-18 ) ) ;
#128 = DIRECTION ( 'NONE',  ( 1.000000000000000000, 0.0000000000000000000, 0.0000000000000000000 ) ) ;
#129 = DIRECTION ( 'NONE',  ( -1.000000000000000000, 0.0000000000000000000, 0.0000000000000000000 ) ) ;
#130 = EDGE_CURVE ( 'NONE', #27, #166, #188, .T. ) ;
#131 = CARTESIAN_POINT ( 'NONE',  ( -0.04750000000000064587, 0.0000000000000000000, 1.500000000000000222 ) ) ;
#132 = AXIS2_PLACEMENT_3D ( 'NONE', #184, #204, #145 ) ;
#133 = FACE_OUTER_BOUND ( 'NONE', #46, .T. ) ;
#134 = CYLINDRICAL_SURFACE ( 'NONE', #163, 0.008491500000000002518 ) ;
#135 = SHAPE_DEFINITION_REPRESENTATION ( #119, #207 ) ;
#136 = PRODUCT_DEFINITION_FORMATION_WITH_SPECIFIED_SOURCE ( 'ANY', '', #198, .NOT_KNOWN. ) ;
#137 = CIRCLE ( 'NONE', #222, 0.04750000000000064587 ) ;
#138 = CARTESIAN_POINT ( 'NONE',  ( 4.375631468347964977E-17, 0.0000000000000000000, 0.3572974241548214636 ) ) ;
#139 = UNCERTAINTY_MEASURE_WITH_UNIT (LENGTH_MEASURE( 1.000000000000000082E-05 ), #78, 'distance_accuracy_value', 'NONE');
#140 = VECTOR ( 'NONE', #263, 39.37007874015748143 ) ;
#141 = ORIENTED_EDGE ( 'NONE', *, *, #153, .F. ) ;
#142 = AXIS2_PLACEMENT_3D ( 'NONE', #227, #85, #268 ) ;
#143 = ORIENTED_EDGE ( 'NONE', *, *, #67, .T. ) ;
#144 = ORIENTED_EDGE ( 'NONE', *, *, #115, .F. ) ;
#145 = DIRECTION ( 'NONE',  ( 1.000000000000000000, 0.0000000000000000000, 0.0000000000000000000 ) ) ;
#146 = AXIS2_PLACEMENT_3D ( 'NONE', #88, #206, #109 ) ;
#147 = CARTESIAN_POINT ( 'NONE',  ( 0.008491500000000004253, 1.039908829495975445E-18, -2.369500423704768587E-34 ) ) ;
#148 = CARTESIAN_POINT ( 'NONE',  ( 0.06250000000000006939, 7.654042494670963708E-18, 0.3572974241548214636 ) ) ;
#149 = EDGE_LOOP ( 'NONE', ( #218, #104, #143, #51 ) ) ;
#150 = PRODUCT_RELATED_PRODUCT_CATEGORY ( 'part', '', ( #198 ) ) ;
#151 = DIRECTION ( 'NONE',  ( -1.224646799147353454E-16, -0.0000000000000000000, -1.000000000000000000 ) ) ;
#152 = CONICAL_SURFACE ( 'NONE', #194, 0.04750000000000064587, 0.7853981633974466137 ) ;
#153 = EDGE_CURVE ( 'NONE', #174, #27, #157, .T. ) ;
#154 = FACE_OUTER_BOUND ( 'NONE', #192, .T. ) ;
#155 = CARTESIAN_POINT ( 'NONE',  ( 1.273521019447317588E-34, 0.0000000000000000000, 1.039908829495975638E-18 ) ) ;
#156 = PRODUCT_CONTEXT ( 'NONE', #44, 'mechanical' ) ;
#157 = LINE ( 'NONE', #131, #49 ) ;
#158 = CARTESIAN_POINT ( 'NONE',  ( 0.06250000000000002776, 7.654042494670959086E-18, 1.485000000000000764 ) ) ;
#159 =( GEOMETRIC_REPRESENTATION_CONTEXT ( 3 ) GLOBAL_UNCERTAINTY_ASSIGNED_CONTEXT ( ( #296 ) ) GLOBAL_UNIT_ASSIGNED_CONTEXT ( ( #112, #122, #97 ) ) REPRESENTATION_CONTEXT ( 'NONE', 'WORKASPACE' ) );
#160 = CARTESIAN_POINT ( 'NONE',  ( -0.008491500000000004253, 0.0000000000000000000, 2.079817658991951275E-18 ) ) ;
#161 = COLOUR_RGB ( '',0.7921568627450980005, 0.8196078431372548767, 0.9333333333333333481 ) ;
#162 = CARTESIAN_POINT ( 'NONE',  ( 0.04750000000000064587, 5.817072295950006528E-18, 1.500000000000000222 ) ) ;
#163 = AXIS2_PLACEMENT_3D ( 'NONE', #231, #208, #76 ) ;
#164 = DIMENSIONAL_EXPONENTS ( 1.000000000000000000, 0.0000000000000000000, 0.0000000000000000000, 0.0000000000000000000, 0.0000000000000000000, 0.0000000000000000000, 0.0000000000000000000 ) ;
#165 = LINE ( 'NONE', #297, #289 ) ;
#166 = VERTEX_POINT ( 'NONE', #158 ) ;
#167 = DIRECTION ( 'NONE',  ( 1.000000000000000000, 0.0000000000000000000, 0.0000000000000000000 ) ) ;
#168 = EDGE_LOOP ( 'NONE', ( #9, #50, #12, #10 ) ) ;
#169 = EDGE_LOOP ( 'NONE', ( #262, #287, #7, #141 ) ) ;
#170 = CARTESIAN_POINT ( 'NONE',  ( 0.0000000000000000000, 0.0000000000000000000, 1.500000000000000222 ) ) ;
#171 = CONICAL_SURFACE ( 'NONE', #251, 0.008491499999999999049, 0.1745329251994338915 ) ;
#172 = ADVANCED_FACE ( 'NONE', ( #133 ), #229, .T. ) ;
#173 = EDGE_LOOP ( 'NONE', ( #34, #144, #53, #95 ) ) ;
#174 = VERTEX_POINT ( 'NONE', #199 ) ;
#175 = CARTESIAN_POINT ( 'NONE',  ( 6.245698675651502164E-18, 0.0000000000000000000, 0.05099999999999999672 ) ) ;
#176 = CONICAL_SURFACE ( 'NONE', #54, 0.04750000000000064587, 0.7853981633974466137 ) ;
#177 =( NAMED_UNIT ( * ) PLANE_ANGLE_UNIT ( ) SI_UNIT ( $, .RADIAN. ) );
#178 = ADVANCED_FACE ( 'NONE', ( #272 ), #134, .T. ) ;
#179 = DIRECTION ( 'NONE',  ( -1.000000000000000000, 0.0000000000000000000, 0.0000000000000000000 ) ) ;
#180 = DIRECTION ( 'NONE',  ( -1.000000000000000000, 0.0000000000000000000, 1.224646799147353454E-16 ) ) ;
#181 = EDGE_LOOP ( 'NONE', ( #71, #238, #285, #281 ) ) ;
#182 = AXIS2_PLACEMENT_3D ( 'NONE', #4, #200, #242 ) ;
#183 = COLOUR_RGB ( '',0.7921568627450980005, 0.8196078431372548767, 0.9333333333333333481 ) ;
#184 = CARTESIAN_POINT ( 'NONE',  ( 0.0000000000000000000, 0.0000000000000000000, 1.485000000000000764 ) ) ;
#185 = DIRECTION ( 'NONE',  ( -0.0000000000000000000, -0.0000000000000000000, -1.000000000000000000 ) ) ;
#186 = DIRECTION ( 'NONE',  ( 0.0000000000000000000, 0.0000000000000000000, -1.000000000000000000 ) ) ;
#187 = DIRECTION ( 'NONE',  ( 0.0000000000000000000, 0.0000000000000000000, 1.000000000000000000 ) ) ;
#188 = CIRCLE ( 'NONE', #8, 0.06250000000000002776 ) ;
#189 = LENGTH_MEASURE_WITH_UNIT ( LENGTH_MEASURE( 0.02539999999999999897 ), #265 );
#190 = LINE ( 'NONE', #290, #235 ) ;
#191 = DIRECTION ( 'NONE',  ( 1.224646799147353454E-16, 0.0000000000000000000, 1.000000000000000000 ) ) ;
#192 = EDGE_LOOP ( 'NONE', ( #278, #94, #211, #60 ) ) ;
#193 = EDGE_LOOP ( 'NONE', ( #103, #276, #253, #92 ) ) ;
#194 = AXIS2_PLACEMENT_3D ( 'NONE', #214, #217, #179 ) ;
#195 = CARTESIAN_POINT ( 'NONE',  ( 6.245698675651502164E-18, 0.0000000000000000000, 0.05099999999999999672 ) ) ;
#196 = FILL_AREA_STYLE ('',( #123 ) ) ;
#197 = ORIENTED_EDGE ( 'NONE', *, *, #25, .T. ) ;
#198 = PRODUCT ( 'Micro_RME-017-2X', 'Micro_RME-017-2X', '', ( #156 ) ) ;
#199 = CARTESIAN_POINT ( 'NONE',  ( -0.04750000000000064587, 0.0000000000000000000, 1.500000000000000222 ) ) ;
#200 = DIRECTION ( 'NONE',  ( -1.224646799147353454E-16, -0.0000000000000000000, -1.000000000000000000 ) ) ;
#201 = STYLED_ITEM ( 'NONE', ( #284 ), #31 ) ;
#202 = DIRECTION ( 'NONE',  ( -1.224646799147353454E-16, -0.0000000000000000000, -1.000000000000000000 ) ) ;
#203 = DIRECTION ( 'NONE',  ( -0.7071067811865462405, 0.0000000000000000000, -0.7071067811865486830 ) ) ;
#204 = DIRECTION ( 'NONE',  ( 0.0000000000000000000, 0.0000000000000000000, -1.000000000000000000 ) ) ;
#205 = CARTESIAN_POINT ( 'NONE',  ( 4.375631468347964977E-17, 0.0000000000000000000, 0.3572974241548214636 ) ) ;
#206 = DIRECTION ( 'NONE',  ( 0.0000000000000000000, 0.0000000000000000000, 1.000000000000000000 ) ) ;
#207 = ADVANCED_BREP_SHAPE_REPRESENTATION ( 'Micro_RME-017-2X', ( #31, #21 ), #266 ) ;
#208 = DIRECTION ( 'NONE',  ( -1.224646799147353454E-16, -0.0000000000000000000, -1.000000000000000000 ) ) ;
#209 = PRODUCT_DEFINITION ( 'UNKNOWN', '', #136, #20 ) ;
#210 = DIRECTION ( 'NONE',  ( -0.1736481776669311916, 2.126576849575783316E-17, 0.9848077530122080203 ) ) ;
#211 = ORIENTED_EDGE ( 'NONE', *, *, #62, .F. ) ;
#212 = EDGE_CURVE ( 'NONE', #213, #22, #28, .T. ) ;
#213 = VERTEX_POINT ( 'NONE', #100 ) ;
#214 = CARTESIAN_POINT ( 'NONE',  ( 0.0000000000000000000, 0.0000000000000000000, 1.500000000000000222 ) ) ;
#215 = CIRCLE ( 'NONE', #120, 0.008491500000000004253 ) ;
#216 = CIRCLE ( 'NONE', #271, 0.06250000000000002776 ) ;
#217 = DIRECTION ( 'NONE',  ( 0.0000000000000000000, 0.0000000000000000000, -1.000000000000000000 ) ) ;
#218 = ORIENTED_EDGE ( 'NONE', *, *, #80, .F. ) ;
#219 = EDGE_CURVE ( 'NONE', #36, #174, #137, .T. ) ;
#220 = CARTESIAN_POINT ( 'NONE',  ( 0.008491500000000005988, 0.0000000000000000000, 0.05099999999999999672 ) ) ;
#221 = SURFACE_SIDE_STYLE ('',( #225 ) ) ;
#222 = AXIS2_PLACEMENT_3D ( 'NONE', #170, #3, #269 ) ;
#223 = DIRECTION ( 'NONE',  ( -1.224646799147353454E-16, -0.0000000000000000000, -1.000000000000000000 ) ) ;
#224 = DIRECTION ( 'NONE',  ( 0.0000000000000000000, 0.0000000000000000000, 1.000000000000000000 ) ) ;
#225 = SURFACE_STYLE_FILL_AREA ( #196 ) ;
#226 = SURFACE_STYLE_USAGE ( .BOTH. , #221 ) ;
#227 = CARTESIAN_POINT ( 'NONE',  ( 0.0000000000000000000, 0.0000000000000000000, 1.500000000000000222 ) ) ;
#228 = SURFACE_STYLE_USAGE ( .BOTH. , #65 ) ;
#229 = PLANE ( 'NONE',  #89 ) ;
#230 = SURFACE_STYLE_FILL_AREA ( #81 ) ;
#231 = CARTESIAN_POINT ( 'NONE',  ( 0.0000000000000000000, 0.0000000000000000000, 0.0000000000000000000 ) ) ;
#232 = EDGE_CURVE ( 'NONE', #36, #166, #117, .T. ) ;
#233 = DIMENSIONAL_EXPONENTS ( 1.000000000000000000, 0.0000000000000000000, 0.0000000000000000000, 0.0000000000000000000, 0.0000000000000000000, 0.0000000000000000000, 0.0000000000000000000 ) ;
#234 = DIRECTION ( 'NONE',  ( 1.000000000000000000, 0.0000000000000000000, 0.0000000000000000000 ) ) ;
#235 = VECTOR ( 'NONE', #116, 39.37007874015748143 ) ;
#236 = VERTEX_POINT ( 'NONE', #147 ) ;
#237 = ORIENTED_EDGE ( 'NONE', *, *, #261, .T. ) ;
#238 = ORIENTED_EDGE ( 'NONE', *, *, #115, .T. ) ;
#239 = VECTOR ( 'NONE', #279, 39.37007874015748854 ) ;
#240 = APPLICATION_PROTOCOL_DEFINITION ( 'draft international standard', 'automotive_design', 1998, #59 ) ;
#241 = LINE ( 'NONE', #127, #140 ) ;
#242 = DIRECTION ( 'NONE',  ( -1.000000000000000000, 0.0000000000000000000, 1.224646799147353207E-16 ) ) ;
#243 = CARTESIAN_POINT ( 'NONE',  ( -0.06250000000000002776, 0.0000000000000000000, 1.485000000000000764 ) ) ;
#244 =( GEOMETRIC_REPRESENTATION_CONTEXT ( 3 ) GLOBAL_UNCERTAINTY_ASSIGNED_CONTEXT ( ( #139 ) ) GLOBAL_UNIT_ASSIGNED_CONTEXT ( ( #78, #177, #58 ) ) REPRESENTATION_CONTEXT ( 'NONE', 'WORKASPACE' ) );
#245 = EDGE_LOOP ( 'NONE', ( #74, #255, #258, #118 ) ) ;
#246 = CARTESIAN_POINT ( 'NONE',  ( 0.0000000000000000000, 0.0000000000000000000, 0.0000000000000000000 ) ) ;
#247 = DIRECTION ( 'NONE',  ( 1.000000000000000000, 0.0000000000000000000, 0.0000000000000000000 ) ) ;
#248 = CLOSED_SHELL ( 'NONE', ( #11, #93, #256, #254, #113, #172, #110, #47, #178, #283 ) ) ;
#249 =( NAMED_UNIT ( * ) SI_UNIT ( $, .STERADIAN. ) SOLID_ANGLE_UNIT ( ) );
#250 = CARTESIAN_POINT ( 'NONE',  ( 6.245698675651502164E-18, 0.0000000000000000000, 0.05099999999999999672 ) ) ;
#251 = AXIS2_PLACEMENT_3D ( 'NONE', #175, #292, #247 ) ;
#252 = DIRECTION ( 'NONE',  ( -0.0000000000000000000, -0.0000000000000000000, -1.000000000000000000 ) ) ;
#253 = ORIENTED_EDGE ( 'NONE', *, *, #153, .T. ) ;
#254 = ADVANCED_FACE ( 'NONE', ( #154 ), #84, .T. ) ;
#255 = ORIENTED_EDGE ( 'NONE', *, *, #52, .T. ) ;
#256 = ADVANCED_FACE ( 'NONE', ( #41 ), #152, .T. ) ;
#257 = ORIENTED_EDGE ( 'NONE', *, *, #219, .T. ) ;
#258 = ORIENTED_EDGE ( 'NONE', *, *, #62, .T. ) ;
#259 = LENGTH_MEASURE_WITH_UNIT ( LENGTH_MEASURE( 0.02539999999999999897 ), #30 );
#260 = PRESENTATION_LAYER_ASSIGNMENT (  '', '', ( #43 ) ) ;
#261 = EDGE_CURVE ( 'NONE', #174, #36, #2, .T. ) ;
#262 = ORIENTED_EDGE ( 'NONE', *, *, #219, .F. ) ;
#263 = DIRECTION ( 'NONE',  ( -1.224646799147353454E-16, -0.0000000000000000000, -1.000000000000000000 ) ) ;
#264 = VERTEX_POINT ( 'NONE', #160 ) ;
#265 =( LENGTH_UNIT ( ) NAMED_UNIT ( * ) SI_UNIT ( $, .METRE. ) );
#266 =( GEOMETRIC_REPRESENTATION_CONTEXT ( 3 ) GLOBAL_UNCERTAINTY_ASSIGNED_CONTEXT ( ( #114 ) ) GLOBAL_UNIT_ASSIGNED_CONTEXT ( ( #38, #293, #249 ) ) REPRESENTATION_CONTEXT ( 'NONE', 'WORKASPACE' ) );
#267 = FILL_AREA_STYLE_COLOUR ( '', #183 ) ;
#268 = DIRECTION ( 'NONE',  ( -1.000000000000000000, 0.0000000000000000000, 0.0000000000000000000 ) ) ;
#269 = DIRECTION ( 'NONE',  ( 1.000000000000000000, 0.0000000000000000000, 0.0000000000000000000 ) ) ;
#270 = FACE_OUTER_BOUND ( 'NONE', #149, .T. ) ;
#271 = AXIS2_PLACEMENT_3D ( 'NONE', #138, #202, #294 ) ;
#272 = FACE_OUTER_BOUND ( 'NONE', #181, .T. ) ;
#273 = DIMENSIONAL_EXPONENTS ( 1.000000000000000000, 0.0000000000000000000, 0.0000000000000000000, 0.0000000000000000000, 0.0000000000000000000, 0.0000000000000000000, 0.0000000000000000000 ) ;
#274 = DIRECTION ( 'NONE',  ( -1.000000000000000000, 0.0000000000000000000, 0.0000000000000000000 ) ) ;
#275 = AXIS2_PLACEMENT_3D ( 'NONE', #250, #61, #274 ) ;
#276 = ORIENTED_EDGE ( 'NONE', *, *, #261, .F. ) ;
#277 = LINE ( 'NONE', #19, #32 ) ;
#278 = ORIENTED_EDGE ( 'NONE', *, *, #130, .T. ) ;
#279 = DIRECTION ( 'NONE',  ( 0.7071067811865462405, 8.659560562354916834E-17, -0.7071067811865486830 ) ) ;
#280 = CIRCLE ( 'NONE', #42, 0.008491500000000004253 ) ;
#281 = ORIENTED_EDGE ( 'NONE', *, *, #17, .F. ) ;
#282 = CARTESIAN_POINT ( 'NONE',  ( 0.04750000000000064587, 6.735557395310483192E-18, 1.500000000000000222 ) ) ;
#283 = ADVANCED_FACE ( 'NONE', ( #295 ), #63, .F. ) ;
#284 = PRESENTATION_STYLE_ASSIGNMENT (( #226 ) ) ;
#285 = ORIENTED_EDGE ( 'NONE', *, *, #6, .T. ) ;
#286 = EDGE_CURVE ( 'NONE', #166, #27, #77, .T. ) ;
#287 = ORIENTED_EDGE ( 'NONE', *, *, #232, .T. ) ;
#288 = DIRECTION ( 'NONE',  ( 1.000000000000000000, 0.0000000000000000000, 0.0000000000000000000 ) ) ;
#289 = VECTOR ( 'NONE', #252, 39.37007874015748143 ) ;
#290 = CARTESIAN_POINT ( 'NONE',  ( 0.008491500000000002518, 1.039908829495975252E-18, -1.039908829495975252E-18 ) ) ;
#291 = PRESENTATION_STYLE_ASSIGNMENT (( #228 ) ) ;
#292 = DIRECTION ( 'NONE',  ( 1.224646799147353454E-16, 0.0000000000000000000, 1.000000000000000000 ) ) ;
#293 =( NAMED_UNIT ( * ) PLANE_ANGLE_UNIT ( ) SI_UNIT ( $, .RADIAN. ) );
#294 = DIRECTION ( 'NONE',  ( 1.000000000000000000, 0.0000000000000000000, 0.0000000000000000000 ) ) ;
#295 = FACE_OUTER_BOUND ( 'NONE', #23, .T. ) ;
#296 = UNCERTAINTY_MEASURE_WITH_UNIT (LENGTH_MEASURE( 1.000000000000000082E-05 ), #112, 'distance_accuracy_value', 'NONE');
#297 = CARTESIAN_POINT ( 'NONE',  ( -0.06250000000000002776, 0.0000000000000000000, 1.500000000000000222 ) ) ;
#298 = MECHANICAL_DESIGN_GEOMETRIC_PRESENTATION_REPRESENTATION (  '', ( #43 ), #159 ) ;
#299 = VERTEX_POINT ( 'NONE', #86 ) ;
ENDSEC;
END-ISO-10303-21;
