ISO-10303-21;
HEADER;
FILE_DESCRIPTION (( 'STEP AP214' ),
    '1' );
FILE_NAME ('Micro_RDD-50.STEP',
    '2021-08-31T15:20:45',
    ( '' ),
    ( '' ),
    'SwSTEP 2.0',
    'SolidWorks 2020',
    '' );
FILE_SCHEMA (( 'AUTOMOTIVE_DESIGN' ));
ENDSEC;

DATA;
#1 = LENGTH_MEASURE_WITH_UNIT ( LENGTH_MEASURE( 0.02539999999999999897 ), #74 );
#2 = VERTEX_POINT ( 'NONE', #61 ) ;
#3 = ORIENTED_EDGE ( 'NONE', *, *, #72, .F. ) ;
#4 = EDGE_CURVE ( 'NONE', #137, #107, #279, .T. ) ;
#5 = CARTESIAN_POINT ( 'NONE',  ( 4.750856700096608879E-18, 0.0000000000000000000, 0.03879368895100480941 ) ) ;
#6 = DIMENSIONAL_EXPONENTS ( 1.000000000000000000, 0.0000000000000000000, 0.0000000000000000000, 0.0000000000000000000, 0.0000000000000000000, 0.0000000000000000000, 0.0000000000000000000 ) ;
#7 = ORIENTED_EDGE ( 'NONE', *, *, #86, .F. ) ;
#8 = PRODUCT_CONTEXT ( 'NONE', #307, 'mechanical' ) ;
#9 = EDGE_CURVE ( 'NONE', #140, #29, #208, .T. ) ;
#10 = COLOUR_RGB ( '',0.7921568627450980005, 0.8196078431372548767, 0.9333333333333333481 ) ;
#11 =( GEOMETRIC_REPRESENTATION_CONTEXT ( 3 ) GLOBAL_UNCERTAINTY_ASSIGNED_CONTEXT ( ( #275 ) ) GLOBAL_UNIT_ASSIGNED_CONTEXT ( ( #12, #142, #185 ) ) REPRESENTATION_CONTEXT ( 'NONE', 'WORKASPACE' ) );
#12 =( CONVERSION_BASED_UNIT ( 'INCH', #37 ) LENGTH_UNIT ( ) NAMED_UNIT ( #138 ) );
#13 = DIRECTION ( 'NONE',  ( 0.0000000000000000000, 0.0000000000000000000, 1.000000000000000000 ) ) ;
#14 = EDGE_CURVE ( 'NONE', #198, #2, #113, .T. ) ;
#15 = CARTESIAN_POINT ( 'NONE',  ( -0.1099999999999996397, 0.0000000000000000000, 2.000000000000000000 ) ) ;
#16 = DIRECTION ( 'NONE',  ( -1.000000000000000000, 0.0000000000000000000, 0.0000000000000000000 ) ) ;
#17 = CONICAL_SURFACE ( 'NONE', #320, 95.04777804618574066, 1.178097245096175749 ) ;
#18 = DIRECTION ( 'NONE',  ( 1.000000000000000000, 0.0000000000000000000, 0.0000000000000000000 ) ) ;
#19 = EDGE_CURVE ( 'NONE', #181, #105, #40, .T. ) ;
#20 = MANIFOLD_SOLID_BREP ( 'Cut-Revolve1', #182 ) ;
#21 = CARTESIAN_POINT ( 'NONE',  ( 0.0000000000000000000, 0.0000000000000000000, 2.000000000000000000 ) ) ;
#22 = ORIENTED_EDGE ( 'NONE', *, *, #94, .T. ) ;
#23 = DIRECTION ( 'NONE',  ( 0.0000000000000000000, 0.0000000000000000000, -1.000000000000000000 ) ) ;
#24 = ORIENTED_EDGE ( 'NONE', *, *, #94, .F. ) ;
#25 = SURFACE_STYLE_FILL_AREA ( #178 ) ;
#26 = ORIENTED_EDGE ( 'NONE', *, *, #65, .F. ) ;
#27 = DIRECTION ( 'NONE',  ( -0.0000000000000000000, -0.0000000000000000000, -1.000000000000000000 ) ) ;
#28 = UNCERTAINTY_MEASURE_WITH_UNIT (LENGTH_MEASURE( 1.000000000000000082E-05 ), #36, 'distance_accuracy_value', 'NONE');
#29 = VERTEX_POINT ( 'NONE', #161 ) ;
#30 = CARTESIAN_POINT ( 'NONE',  ( -0.1099999999999996397, 0.0000000000000000000, 2.000000000000000000 ) ) ;
#31 = AXIS2_PLACEMENT_3D ( 'NONE', #42, #171, #124 ) ;
#32 = VECTOR ( 'NONE', #75, 39.37007874015748143 ) ;
#33 = DIRECTION ( 'NONE',  ( 0.0000000000000000000, 0.0000000000000000000, -1.000000000000000000 ) ) ;
#34 =( CONVERSION_BASED_UNIT ( 'INCH', #1 ) LENGTH_UNIT ( ) NAMED_UNIT ( #6 ) );
#35 =( LENGTH_UNIT ( ) NAMED_UNIT ( * ) SI_UNIT ( $, .METRE. ) );
#36 =( CONVERSION_BASED_UNIT ( 'INCH', #309 ) LENGTH_UNIT ( ) NAMED_UNIT ( #116 ) );
#37 = LENGTH_MEASURE_WITH_UNIT ( LENGTH_MEASURE( 0.02539999999999999897 ), #38 );
#38 =( LENGTH_UNIT ( ) NAMED_UNIT ( * ) SI_UNIT ( $, .METRE. ) );
#39 = PRODUCT_DEFINITION ( 'UNKNOWN', '', #221, #153 ) ;
#40 = CIRCLE ( 'NONE', #122, 0.1250000000000000000 ) ;
#41 = PRESENTATION_LAYER_ASSIGNMENT (  '', '', ( #183 ) ) ;
#42 = CARTESIAN_POINT ( 'NONE',  ( 0.0000000000000000000, 0.0000000000000000000, 2.000000000000000000 ) ) ;
#43 = DIRECTION ( 'NONE',  ( -0.0000000000000000000, -0.0000000000000000000, -1.000000000000000000 ) ) ;
#44 = ADVANCED_FACE ( 'NONE', ( #230 ), #196, .T. ) ;
#45 = LINE ( 'NONE', #149, #231 ) ;
#46 =( GEOMETRIC_REPRESENTATION_CONTEXT ( 3 ) GLOBAL_UNCERTAINTY_ASSIGNED_CONTEXT ( ( #28 ) ) GLOBAL_UNIT_ASSIGNED_CONTEXT ( ( #36, #189, #167 ) ) REPRESENTATION_CONTEXT ( 'NONE', 'WORKASPACE' ) );
#47 = FACE_OUTER_BOUND ( 'NONE', #172, .T. ) ;
#48 = LINE ( 'NONE', #168, #227 ) ;
#49 = CARTESIAN_POINT ( 'NONE',  ( 0.0000000000000000000, 0.0000000000000000000, 2.000000000000000000 ) ) ;
#50 = CARTESIAN_POINT ( 'NONE',  ( 0.1250000000000000000, 1.530808498934191509E-17, 1.984999999999999432 ) ) ;
#51 = AXIS2_PLACEMENT_3D ( 'NONE', #5, #53, #83 ) ;
#52 = PRODUCT_DEFINITION_SHAPE ( 'NONE', 'NONE',  #39 ) ;
#53 = DIRECTION ( 'NONE',  ( -1.224646799147353207E-16, -0.0000000000000000000, -1.000000000000000000 ) ) ;
#54 = ADVANCED_FACE ( 'NONE', ( #269 ), #90, .T. ) ;
#55 = FILL_AREA_STYLE ('',( #143 ) ) ;
#56 = VERTEX_POINT ( 'NONE', #211 ) ;
#57 = DIRECTION ( 'NONE',  ( 1.000000000000000000, 0.0000000000000000000, 0.0000000000000000000 ) ) ;
#58 = ORIENTED_EDGE ( 'NONE', *, *, #112, .F. ) ;
#59 = AXIS2_PLACEMENT_3D ( 'NONE', #253, #33, #192 ) ;
#60 = ADVANCED_FACE ( 'NONE', ( #64 ), #297, .T. ) ;
#61 = CARTESIAN_POINT ( 'NONE',  ( 0.1099999999999996397, 1.438959988998137757E-17, 2.000000000000000000 ) ) ;
#62 = ORIENTED_EDGE ( 'NONE', *, *, #258, .T. ) ;
#63 = CARTESIAN_POINT ( 'NONE',  ( 7.654042494670957853E-17, 0.0000000000000000000, 0.6250000000000000000 ) ) ;
#64 = FACE_OUTER_BOUND ( 'NONE', #246, .T. ) ;
#65 = EDGE_CURVE ( 'NONE', #140, #137, #240, .T. ) ;
#66 = EDGE_CURVE ( 'NONE', #2, #198, #235, .T. ) ;
#67 = DIRECTION ( 'NONE',  ( -0.0000000000000000000, -0.0000000000000000000, -1.000000000000000000 ) ) ;
#68 = ORIENTED_EDGE ( 'NONE', *, *, #150, .T. ) ;
#69 = CIRCLE ( 'NONE', #254, 0.09365624999999999645 ) ;
#70 = CARTESIAN_POINT ( 'NONE',  ( 4.821444091131312288E-15, 0.0000000000000000000, 39.37007874015748143 ) ) ;
#71 = LINE ( 'NONE', #194, #241 ) ;
#72 = EDGE_CURVE ( 'NONE', #107, #137, #97, .T. ) ;
#73 = ORIENTED_EDGE ( 'NONE', *, *, #234, .T. ) ;
#74 =( LENGTH_UNIT ( ) NAMED_UNIT ( * ) SI_UNIT ( $, .METRE. ) );
#75 = DIRECTION ( 'NONE',  ( 0.1736481776669313581, 0.0000000000000000000, 0.9848077530122077983 ) ) ;
#76 = VECTOR ( 'NONE', #89, 39.37007874015748143 ) ;
#77 = AXIS2_PLACEMENT_3D ( 'NONE', #49, #222, #247 ) ;
#78 = FILL_AREA_STYLE_COLOUR ( '', #298 ) ;
#79 = UNCERTAINTY_MEASURE_WITH_UNIT (LENGTH_MEASURE( 1.000000000000000082E-05 ), #34, 'distance_accuracy_value', 'NONE');
#80 = CARTESIAN_POINT ( 'NONE',  ( 0.0000000000000000000, 0.0000000000000000000, 2.000000000000000000 ) ) ;
#81 = LINE ( 'NONE', #130, #242 ) ;
#82 = EDGE_LOOP ( 'NONE', ( #286, #210, #276, #3 ) ) ;
#83 = DIRECTION ( 'NONE',  ( -1.000000000000000000, 0.0000000000000000000, 9.115275254135012585E-17 ) ) ;
#84 = VECTOR ( 'NONE', #95, 39.37007874015748854 ) ;
#85 = PRESENTATION_STYLE_ASSIGNMENT (( #278 ) ) ;
#86 = EDGE_CURVE ( 'NONE', #105, #137, #48, .T. ) ;
#87 = AXIS2_PLACEMENT_3D ( 'NONE', #313, #23, #18 ) ;
#88 = CARTESIAN_POINT ( 'NONE',  ( 9.830965331808376686E-17, 0.0000000000000000000, 0.8027592395336416997 ) ) ;
#89 = DIRECTION ( 'NONE',  ( -1.224646799147353207E-16, -0.0000000000000000000, -1.000000000000000000 ) ) ;
#90 = CYLINDRICAL_SURFACE ( 'NONE', #308, 0.1250000000000000000 ) ;
#91 = VECTOR ( 'NONE', #120, 39.37007874015748143 ) ;
#92 = AXIS2_PLACEMENT_3D ( 'NONE', #249, #199, #224 ) ;
#93 = CARTESIAN_POINT ( 'NONE',  ( 0.0000000000000000000, 0.0000000000000000000, 0.0000000000000000000 ) ) ;
#94 = EDGE_CURVE ( 'NONE', #133, #29, #212, .T. ) ;
#95 = DIRECTION ( 'NONE',  ( -0.9238795325112879597, 1.131426112287701740E-16, 0.3826834323650867842 ) ) ;
#96 = DIRECTION ( 'NONE',  ( -1.000000000000000000, 0.0000000000000000000, 0.0000000000000000000 ) ) ;
#97 = CIRCLE ( 'NONE', #207, 0.1250000000000000000 ) ;
#98 = EDGE_CURVE ( 'NONE', #2, #181, #71, .T. ) ;
#99 = DIRECTION ( 'NONE',  ( 1.224646799147353207E-16, 0.0000000000000000000, 1.000000000000000000 ) ) ;
#100 = ORIENTED_EDGE ( 'NONE', *, *, #9, .F. ) ;
#101 = CARTESIAN_POINT ( 'NONE',  ( 0.0000000000000000000, 0.0000000000000000000, 2.000000000000000000 ) ) ;
#102 = ORIENTED_EDGE ( 'NONE', *, *, #284, .T. ) ;
#103 = CARTESIAN_POINT ( 'NONE',  ( 0.0000000000000000000, 0.0000000000000000000, 0.0000000000000000000 ) ) ;
#104 = EDGE_CURVE ( 'NONE', #291, #56, #45, .T. ) ;
#105 = VERTEX_POINT ( 'NONE', #152 ) ;
#106 = APPLICATION_PROTOCOL_DEFINITION ( 'draft international standard', 'automotive_design', 1998, #307 ) ;
#107 = VERTEX_POINT ( 'NONE', #195 ) ;
#108 = FACE_OUTER_BOUND ( 'NONE', #244, .T. ) ;
#109 = EDGE_LOOP ( 'NONE', ( #268, #157, #202, #131 ) ) ;
#110 = FACE_OUTER_BOUND ( 'NONE', #177, .T. ) ;
#111 = DIRECTION ( 'NONE',  ( 1.000000000000000000, 0.0000000000000000000, 0.0000000000000000000 ) ) ;
#112 = EDGE_CURVE ( 'NONE', #133, #56, #237, .T. ) ;
#113 = CIRCLE ( 'NONE', #201, 0.1099999999999996397 ) ;
#114 = ORIENTED_EDGE ( 'NONE', *, *, #65, .T. ) ;
#115 = ADVANCED_FACE ( 'NONE', ( #290 ), #17, .T. ) ;
#116 = DIMENSIONAL_EXPONENTS ( 1.000000000000000000, 0.0000000000000000000, 0.0000000000000000000, 0.0000000000000000000, 0.0000000000000000000, 0.0000000000000000000, 0.0000000000000000000 ) ;
#117 = SHAPE_DEFINITION_REPRESENTATION ( #52, #299 ) ;
#118 = CIRCLE ( 'NONE', #51, 0.09365624999999999645 ) ;
#119 = SURFACE_STYLE_FILL_AREA ( #55 ) ;
#120 = DIRECTION ( 'NONE',  ( -0.7071067811865434649, 0.0000000000000000000, -0.7071067811865515695 ) ) ;
#121 = CARTESIAN_POINT ( 'NONE',  ( -0.09365624999999992706, 1.338883383380317231E-17, 0.6250000000000000000 ) ) ;
#122 = AXIS2_PLACEMENT_3D ( 'NONE', #304, #256, #226 ) ;
#123 =( GEOMETRIC_REPRESENTATION_CONTEXT ( 3 ) GLOBAL_UNCERTAINTY_ASSIGNED_CONTEXT ( ( #79 ) ) GLOBAL_UNIT_ASSIGNED_CONTEXT ( ( #34, #270, #158 ) ) REPRESENTATION_CONTEXT ( 'NONE', 'WORKASPACE' ) );
#124 = DIRECTION ( 'NONE',  ( 1.000000000000000000, 0.0000000000000000000, 0.0000000000000000000 ) ) ;
#125 = LINE ( 'NONE', #15, #91 ) ;
#126 = EDGE_CURVE ( 'NONE', #291, #140, #305, .T. ) ;
#127 = ORIENTED_EDGE ( 'NONE', *, *, #14, .F. ) ;
#128 = CARTESIAN_POINT ( 'NONE',  ( 7.654042494670957853E-17, 0.0000000000000000000, 0.6250000000000000000 ) ) ;
#129 = ORIENTED_EDGE ( 'NONE', *, *, #72, .T. ) ;
#130 = CARTESIAN_POINT ( 'NONE',  ( 0.1250000000000000000, 1.530808498934191509E-17, 2.000000000000000000 ) ) ;
#131 = ORIENTED_EDGE ( 'NONE', *, *, #154, .F. ) ;
#132 = DIRECTION ( 'NONE',  ( -1.000000000000000000, 0.0000000000000000000, 0.0000000000000000000 ) ) ;
#133 = VERTEX_POINT ( 'NONE', #236 ) ;
#134 = DIRECTION ( 'NONE',  ( -1.000000000000000000, 0.0000000000000000000, 1.224646799147352961E-16 ) ) ;
#135 = DIRECTION ( 'NONE',  ( 0.0000000000000000000, 0.0000000000000000000, -1.000000000000000000 ) ) ;
#136 = PRODUCT ( 'Micro_RDD-50', 'Micro_RDD-50', '', ( #8 ) ) ;
#137 = VERTEX_POINT ( 'NONE', #266 ) ;
#138 = DIMENSIONAL_EXPONENTS ( 1.000000000000000000, 0.0000000000000000000, 0.0000000000000000000, 0.0000000000000000000, 0.0000000000000000000, 0.0000000000000000000, 0.0000000000000000000 ) ;
#139 = EDGE_LOOP ( 'NONE', ( #250, #127, #159, #188 ) ) ;
#140 = VERTEX_POINT ( 'NONE', #121 ) ;
#141 = CONICAL_SURFACE ( 'NONE', #312, 95.04777804618574066, 1.178097245096175749 ) ;
#142 =( NAMED_UNIT ( * ) PLANE_ANGLE_UNIT ( ) SI_UNIT ( $, .RADIAN. ) );
#143 = FILL_AREA_STYLE_COLOUR ( '', #10 ) ;
#144 = DIRECTION ( 'NONE',  ( 1.000000000000000000, 0.0000000000000000000, -1.379608302175842567E-16 ) ) ;
#145 = DIRECTION ( 'NONE',  ( -1.224646799147353207E-16, -0.0000000000000000000, -1.000000000000000000 ) ) ;
#146 = ADVANCED_FACE ( 'NONE', ( #47 ), #213, .T. ) ;
#147 = DIRECTION ( 'NONE',  ( 0.9238795325112879597, 0.0000000000000000000, 0.3826834323650865621 ) ) ;
#148 = CIRCLE ( 'NONE', #87, 0.1250000000000000000 ) ;
#149 = CARTESIAN_POINT ( 'NONE',  ( 0.09365624999999999645, 1.146958267826442798E-17, -1.146958267826442798E-17 ) ) ;
#150 = EDGE_CURVE ( 'NONE', #105, #181, #148, .T. ) ;
#151 = ORIENTED_EDGE ( 'NONE', *, *, #163, .F. ) ;
#152 = CARTESIAN_POINT ( 'NONE',  ( -0.1250000000000000000, 0.0000000000000000000, 1.984999999999999432 ) ) ;
#153 = PRODUCT_DEFINITION_CONTEXT ( 'detailed design', #238, 'design' ) ;
#154 = EDGE_CURVE ( 'NONE', #198, #105, #125, .T. ) ;
#155 = VECTOR ( 'NONE', #147, 39.37007874015748854 ) ;
#156 = CYLINDRICAL_SURFACE ( 'NONE', #306, 0.1250000000000000000 ) ;
#157 = ORIENTED_EDGE ( 'NONE', *, *, #98, .T. ) ;
#158 =( NAMED_UNIT ( * ) SI_UNIT ( $, .STERADIAN. ) SOLID_ANGLE_UNIT ( ) );
#159 = ORIENTED_EDGE ( 'NONE', *, *, #154, .T. ) ;
#160 = DIRECTION ( 'NONE',  ( -1.224646799147353207E-16, -0.0000000000000000000, -1.000000000000000000 ) ) ;
#161 = CARTESIAN_POINT ( 'NONE',  ( -0.09365624999999996869, 1.146958267826442798E-17, 0.03879368895100481635 ) ) ;
#162 = CYLINDRICAL_SURFACE ( 'NONE', #321, 0.09365624999999999645 ) ;
#163 = EDGE_CURVE ( 'NONE', #140, #291, #69, .T. ) ;
#164 = ORIENTED_EDGE ( 'NONE', *, *, #66, .T. ) ;
#165 = MECHANICAL_DESIGN_GEOMETRIC_PRESENTATION_REPRESENTATION (  '', ( #260 ), #46 ) ;
#166 = DIRECTION ( 'NONE',  ( -1.224646799147353207E-16, -0.0000000000000000000, -1.000000000000000000 ) ) ;
#167 =( NAMED_UNIT ( * ) SI_UNIT ( $, .STERADIAN. ) SOLID_ANGLE_UNIT ( ) );
#168 = CARTESIAN_POINT ( 'NONE',  ( -0.1250000000000000000, 0.0000000000000000000, 2.000000000000000000 ) ) ;
#169 = CARTESIAN_POINT ( 'NONE',  ( -0.09365624999999992706, 1.146958267826442798E-17, 0.6250000000000000000 ) ) ;
#170 = ADVANCED_FACE ( 'NONE', ( #218 ), #141, .T. ) ;
#171 = DIRECTION ( 'NONE',  ( 0.0000000000000000000, 0.0000000000000000000, 1.000000000000000000 ) ) ;
#172 = EDGE_LOOP ( 'NONE', ( #151, #114, #217, #281 ) ) ;
#173 = DIRECTION ( 'NONE',  ( -1.224646799147353207E-16, -0.0000000000000000000, -1.000000000000000000 ) ) ;
#174 = DIRECTION ( 'NONE',  ( 1.224646799147353207E-16, 0.0000000000000000000, 1.000000000000000000 ) ) ;
#175 = EDGE_LOOP ( 'NONE', ( #24, #322, #102 ) ) ;
#176 = DIRECTION ( 'NONE',  ( -1.000000000000000000, 0.0000000000000000000, 0.0000000000000000000 ) ) ;
#177 = EDGE_LOOP ( 'NONE', ( #223, #164 ) ) ;
#178 = FILL_AREA_STYLE ('',( #78 ) ) ;
#179 = FACE_OUTER_BOUND ( 'NONE', #139, .T. ) ;
#180 = ADVANCED_FACE ( 'NONE', ( #108 ), #162, .T. ) ;
#181 = VERTEX_POINT ( 'NONE', #50 ) ;
#182 = CLOSED_SHELL ( 'NONE', ( #180, #170, #146, #44, #280, #54, #239, #316, #60, #115, #193 ) ) ;
#183 = STYLED_ITEM ( 'NONE', ( #259 ), #299 ) ;
#184 = EDGE_CURVE ( 'NONE', #29, #56, #118, .T. ) ;
#185 =( NAMED_UNIT ( * ) SI_UNIT ( $, .STERADIAN. ) SOLID_ANGLE_UNIT ( ) );
#186 = AXIS2_PLACEMENT_3D ( 'NONE', #88, #166, #111 ) ;
#187 = CONICAL_SURFACE ( 'NONE', #272, 0.1099999999999996397, 0.7853981633974426169 ) ;
#188 = ORIENTED_EDGE ( 'NONE', *, *, #19, .F. ) ;
#189 =( NAMED_UNIT ( * ) PLANE_ANGLE_UNIT ( ) SI_UNIT ( $, .RADIAN. ) );
#190 = DIRECTION ( 'NONE',  ( 1.000000000000000000, 0.0000000000000000000, 0.0000000000000000000 ) ) ;
#191 = AXIS2_PLACEMENT_3D ( 'NONE', #293, #243, #318 ) ;
#192 = DIRECTION ( 'NONE',  ( -1.000000000000000000, 0.0000000000000000000, 0.0000000000000000000 ) ) ;
#193 = ADVANCED_FACE ( 'NONE', ( #203 ), #295, .T. ) ;
#194 = CARTESIAN_POINT ( 'NONE',  ( 0.1099999999999996397, 1.347111479062084158E-17, 2.000000000000000000 ) ) ;
#195 = CARTESIAN_POINT ( 'NONE',  ( 0.1250000000000001110, 1.530808498934192742E-17, 0.8027592395336416997 ) ) ;
#196 = CONICAL_SURFACE ( 'NONE', #59, 0.1099999999999996397, 0.7853981633974426169 ) ;
#197 = DIRECTION ( 'NONE',  ( 1.000000000000000000, 0.0000000000000000000, -1.379608302175842567E-16 ) ) ;
#198 = VERTEX_POINT ( 'NONE', #30 ) ;
#199 = DIRECTION ( 'NONE',  ( -1.224646799147353207E-16, -0.0000000000000000000, -1.000000000000000000 ) ) ;
#200 = DIRECTION ( 'NONE',  ( -1.000000000000000000, 0.0000000000000000000, 1.224646799147352961E-16 ) ) ;
#201 = AXIS2_PLACEMENT_3D ( 'NONE', #80, #13, #206 ) ;
#202 = ORIENTED_EDGE ( 'NONE', *, *, #150, .F. ) ;
#203 = FACE_OUTER_BOUND ( 'NONE', #294, .T. ) ;
#204 = ORIENTED_EDGE ( 'NONE', *, *, #284, .F. ) ;
#205 = CARTESIAN_POINT ( 'NONE',  ( 0.09365625000000006584, 0.0000000000000000000, 0.6250000000000000000 ) ) ;
#206 = DIRECTION ( 'NONE',  ( 1.000000000000000000, 0.0000000000000000000, 0.0000000000000000000 ) ) ;
#207 = AXIS2_PLACEMENT_3D ( 'NONE', #289, #173, #315 ) ;
#208 = LINE ( 'NONE', #301, #76 ) ;
#209 = MECHANICAL_DESIGN_GEOMETRIC_PRESENTATION_REPRESENTATION (  '', ( #183 ), #11 ) ;
#210 = ORIENTED_EDGE ( 'NONE', *, *, #19, .T. ) ;
#211 = CARTESIAN_POINT ( 'NONE',  ( 0.09365624999999996869, 0.0000000000000000000, 0.03879368895100480247 ) ) ;
#212 = LINE ( 'NONE', #214, #84 ) ;
#213 = CONICAL_SURFACE ( 'NONE', #191, 0.09365624999999999645, 0.1745329251994338637 ) ;
#214 = CARTESIAN_POINT ( 'NONE',  ( 0.0000000000000000000, 0.0000000000000000000, 0.0000000000000000000 ) ) ;
#215 = ORIENTED_EDGE ( 'NONE', *, *, #104, .T. ) ;
#216 = DIRECTION ( 'NONE',  ( -1.224646799147353207E-16, -0.0000000000000000000, -1.000000000000000000 ) ) ;
#217 = ORIENTED_EDGE ( 'NONE', *, *, #4, .T. ) ;
#218 = FACE_OUTER_BOUND ( 'NONE', #310, .T. ) ;
#219 = PRESENTATION_LAYER_ASSIGNMENT (  '', '', ( #260 ) ) ;
#220 = ORIENTED_EDGE ( 'NONE', *, *, #4, .F. ) ;
#221 = PRODUCT_DEFINITION_FORMATION_WITH_SPECIFIED_SOURCE ( 'ANY', '', #136, .NOT_KNOWN. ) ;
#222 = DIRECTION ( 'NONE',  ( 0.0000000000000000000, 0.0000000000000000000, 1.000000000000000000 ) ) ;
#223 = ORIENTED_EDGE ( 'NONE', *, *, #14, .T. ) ;
#224 = DIRECTION ( 'NONE',  ( -1.000000000000000000, 0.0000000000000000000, 9.115275254135012585E-17 ) ) ;
#225 = ORIENTED_EDGE ( 'NONE', *, *, #104, .F. ) ;
#226 = DIRECTION ( 'NONE',  ( 1.000000000000000000, 0.0000000000000000000, 0.0000000000000000000 ) ) ;
#227 = VECTOR ( 'NONE', #43, 39.37007874015748143 ) ;
#228 = CARTESIAN_POINT ( 'NONE',  ( 0.09365625000000006584, 0.0000000000000000000, 0.6250000000000000000 ) ) ;
#229 = SURFACE_SIDE_STYLE ('',( #119 ) ) ;
#230 = FACE_OUTER_BOUND ( 'NONE', #109, .T. ) ;
#231 = VECTOR ( 'NONE', #288, 39.37007874015748143 ) ;
#232 = AXIS2_PLACEMENT_3D ( 'NONE', #300, #252, #200 ) ;
#233 = DIRECTION ( 'NONE',  ( 0.0000000000000000000, 0.0000000000000000000, 1.000000000000000000 ) ) ;
#234 = EDGE_CURVE ( 'NONE', #181, #107, #81, .T. ) ;
#235 = CIRCLE ( 'NONE', #31, 0.1099999999999996397 ) ;
#236 = CARTESIAN_POINT ( 'NONE',  ( 0.0000000000000000000, 0.0000000000000000000, 0.0000000000000000000 ) ) ;
#237 = LINE ( 'NONE', #93, #155 ) ;
#238 = APPLICATION_CONTEXT ( 'automotive_design' ) ;
#239 = ADVANCED_FACE ( 'NONE', ( #110 ), #296, .T. ) ;
#240 = LINE ( 'NONE', #169, #287 ) ;
#241 = VECTOR ( 'NONE', #292, 39.37007874015748143 ) ;
#242 = VECTOR ( 'NONE', #255, 39.37007874015748143 ) ;
#243 = DIRECTION ( 'NONE',  ( 1.224646799147353207E-16, 0.0000000000000000000, 1.000000000000000000 ) ) ;
#244 = EDGE_LOOP ( 'NONE', ( #251, #215, #285, #100 ) ) ;
#245 = CARTESIAN_POINT ( 'NONE',  ( 7.654042494670957853E-17, 0.0000000000000000000, 0.6250000000000000000 ) ) ;
#246 = EDGE_LOOP ( 'NONE', ( #26, #317, #62, #129 ) ) ;
#247 = DIRECTION ( 'NONE',  ( 1.000000000000000000, 0.0000000000000000000, -0.0000000000000000000 ) ) ;
#248 = ORIENTED_EDGE ( 'NONE', *, *, #184, .T. ) ;
#249 = CARTESIAN_POINT ( 'NONE',  ( 4.750856700096608879E-18, 0.0000000000000000000, 0.03879368895100480941 ) ) ;
#250 = ORIENTED_EDGE ( 'NONE', *, *, #98, .F. ) ;
#251 = ORIENTED_EDGE ( 'NONE', *, *, #163, .T. ) ;
#252 = DIRECTION ( 'NONE',  ( -1.224646799147353207E-16, -0.0000000000000000000, -1.000000000000000000 ) ) ;
#253 = CARTESIAN_POINT ( 'NONE',  ( 0.0000000000000000000, 0.0000000000000000000, 2.000000000000000000 ) ) ;
#254 = AXIS2_PLACEMENT_3D ( 'NONE', #128, #216, #96 ) ;
#255 = DIRECTION ( 'NONE',  ( -0.0000000000000000000, -0.0000000000000000000, -1.000000000000000000 ) ) ;
#256 = DIRECTION ( 'NONE',  ( 0.0000000000000000000, 0.0000000000000000000, -1.000000000000000000 ) ) ;
#257 = EDGE_LOOP ( 'NONE', ( #68, #73, #220, #7 ) ) ;
#258 = EDGE_CURVE ( 'NONE', #291, #107, #271, .T. ) ;
#259 = PRESENTATION_STYLE_ASSIGNMENT (( #263 ) ) ;
#260 = STYLED_ITEM ( 'NONE', ( #85 ), #20 ) ;
#261 = APPLICATION_PROTOCOL_DEFINITION ( 'draft international standard', 'automotive_design', 1998, #238 ) ;
#262 = CIRCLE ( 'NONE', #92, 0.09365624999999999645 ) ;
#263 = SURFACE_STYLE_USAGE ( .BOTH. , #274 ) ;
#264 = DIRECTION ( 'NONE',  ( 1.224646799147353207E-16, 0.0000000000000000000, 1.000000000000000000 ) ) ;
#265 = DIRECTION ( 'NONE',  ( -1.000000000000000000, 0.0000000000000000000, 0.0000000000000000000 ) ) ;
#266 = CARTESIAN_POINT ( 'NONE',  ( -0.1249999999999999029, 0.0000000000000000000, 0.8027592395336416997 ) ) ;
#267 = AXIS2_PLACEMENT_3D ( 'NONE', #63, #174, #190 ) ;
#268 = ORIENTED_EDGE ( 'NONE', *, *, #66, .F. ) ;
#269 = FACE_OUTER_BOUND ( 'NONE', #82, .T. ) ;
#270 =( NAMED_UNIT ( * ) PLANE_ANGLE_UNIT ( ) SI_UNIT ( $, .RADIAN. ) );
#271 = LINE ( 'NONE', #205, #32 ) ;
#272 = AXIS2_PLACEMENT_3D ( 'NONE', #277, #135, #176 ) ;
#273 = ORIENTED_EDGE ( 'NONE', *, *, #9, .T. ) ;
#274 = SURFACE_SIDE_STYLE ('',( #25 ) ) ;
#275 = UNCERTAINTY_MEASURE_WITH_UNIT (LENGTH_MEASURE( 1.000000000000000082E-05 ), #12, 'distance_accuracy_value', 'NONE');
#276 = ORIENTED_EDGE ( 'NONE', *, *, #86, .T. ) ;
#277 = CARTESIAN_POINT ( 'NONE',  ( 0.0000000000000000000, 0.0000000000000000000, 2.000000000000000000 ) ) ;
#278 = SURFACE_STYLE_USAGE ( .BOTH. , #229 ) ;
#279 = CIRCLE ( 'NONE', #186, 0.1250000000000000000 ) ;
#280 = ADVANCED_FACE ( 'NONE', ( #302 ), #156, .T. ) ;
#281 = ORIENTED_EDGE ( 'NONE', *, *, #258, .F. ) ;
#282 = CARTESIAN_POINT ( 'NONE',  ( 0.0000000000000000000, 0.0000000000000000000, 0.0000000000000000000 ) ) ;
#283 = AXIS2_PLACEMENT_3D ( 'NONE', #245, #145, #16 ) ;
#284 = EDGE_CURVE ( 'NONE', #56, #29, #262, .T. ) ;
#285 = ORIENTED_EDGE ( 'NONE', *, *, #184, .F. ) ;
#286 = ORIENTED_EDGE ( 'NONE', *, *, #234, .F. ) ;
#287 = VECTOR ( 'NONE', #311, 39.37007874015747433 ) ;
#288 = DIRECTION ( 'NONE',  ( -1.224646799147353207E-16, -0.0000000000000000000, -1.000000000000000000 ) ) ;
#289 = CARTESIAN_POINT ( 'NONE',  ( 9.830965331808376686E-17, 0.0000000000000000000, 0.8027592395336416997 ) ) ;
#290 = FACE_OUTER_BOUND ( 'NONE', #175, .T. ) ;
#291 = VERTEX_POINT ( 'NONE', #228 ) ;
#292 = DIRECTION ( 'NONE',  ( 0.7071067811865434649, 8.659560562354883554E-17, -0.7071067811865515695 ) ) ;
#293 = CARTESIAN_POINT ( 'NONE',  ( 7.654042494670957853E-17, 0.0000000000000000000, 0.6250000000000000000 ) ) ;
#294 = EDGE_LOOP ( 'NONE', ( #225, #323, #273, #204 ) ) ;
#295 = CYLINDRICAL_SURFACE ( 'NONE', #232, 0.09365624999999999645 ) ;
#296 = PLANE ( 'NONE',  #77 ) ;
#297 = CONICAL_SURFACE ( 'NONE', #267, 0.09365624999999999645, 0.1745329251994338637 ) ;
#298 = COLOUR_RGB ( '',0.7921568627450980005, 0.8196078431372548767, 0.9333333333333333481 ) ;
#299 = ADVANCED_BREP_SHAPE_REPRESENTATION ( 'Micro_RDD-50', ( #20, #314 ), #123 ) ;
#300 = CARTESIAN_POINT ( 'NONE',  ( 0.0000000000000000000, 0.0000000000000000000, 0.0000000000000000000 ) ) ;
#301 = CARTESIAN_POINT ( 'NONE',  ( -0.09365624999999999645, 0.0000000000000000000, 1.146958267826442798E-17 ) ) ;
#302 = FACE_OUTER_BOUND ( 'NONE', #257, .T. ) ;
#303 = PRODUCT_RELATED_PRODUCT_CATEGORY ( 'part', '', ( #136 ) ) ;
#304 = CARTESIAN_POINT ( 'NONE',  ( 0.0000000000000000000, 0.0000000000000000000, 1.984999999999999432 ) ) ;
#305 = CIRCLE ( 'NONE', #283, 0.09365624999999999645 ) ;
#306 = AXIS2_PLACEMENT_3D ( 'NONE', #101, #27, #132 ) ;
#307 = APPLICATION_CONTEXT ( 'automotive_design' ) ;
#308 = AXIS2_PLACEMENT_3D ( 'NONE', #21, #67, #265 ) ;
#309 = LENGTH_MEASURE_WITH_UNIT ( LENGTH_MEASURE( 0.02539999999999999897 ), #35 );
#310 = EDGE_LOOP ( 'NONE', ( #58, #22, #248 ) ) ;
#311 = DIRECTION ( 'NONE',  ( -0.1736481776669311639, 2.126576849575783008E-17, 0.9848077530122080203 ) ) ;
#312 = AXIS2_PLACEMENT_3D ( 'NONE', #319, #99, #197 ) ;
#313 = CARTESIAN_POINT ( 'NONE',  ( 0.0000000000000000000, 0.0000000000000000000, 1.984999999999999432 ) ) ;
#314 = AXIS2_PLACEMENT_3D ( 'NONE', #282, #233, #57 ) ;
#315 = DIRECTION ( 'NONE',  ( 1.000000000000000000, 0.0000000000000000000, 0.0000000000000000000 ) ) ;
#316 = ADVANCED_FACE ( 'NONE', ( #179 ), #187, .T. ) ;
#317 = ORIENTED_EDGE ( 'NONE', *, *, #126, .F. ) ;
#318 = DIRECTION ( 'NONE',  ( 1.000000000000000000, 0.0000000000000000000, 0.0000000000000000000 ) ) ;
#319 = CARTESIAN_POINT ( 'NONE',  ( 4.821444091131312288E-15, 0.0000000000000000000, 39.37007874015748143 ) ) ;
#320 = AXIS2_PLACEMENT_3D ( 'NONE', #70, #264, #144 ) ;
#321 = AXIS2_PLACEMENT_3D ( 'NONE', #103, #160, #134 ) ;
#322 = ORIENTED_EDGE ( 'NONE', *, *, #112, .T. ) ;
#323 = ORIENTED_EDGE ( 'NONE', *, *, #126, .T. ) ;
ENDSEC;
END-ISO-10303-21;
