ISO-10303-21;
HEADER;
FILE_DESCRIPTION (( 'STEP AP214' ),
    '1' );
FILE_NAME ('Micro_GEM-281-4.STEP',
    '2021-09-01T20:26:53',
    ( '' ),
    ( '' ),
    'SwSTEP 2.0',
    'SolidWorks 2020',
    '' );
FILE_SCHEMA (( 'AUTOMOTIVE_DESIGN' ));
ENDSEC;

DATA;
#1 = APPLICATION_CONTEXT ( 'automotive_design' ) ;
#2 = ORIENTED_EDGE ( 'NONE', *, *, #225, .F. ) ;
#3 = LENGTH_MEASURE_WITH_UNIT ( LENGTH_MEASURE( 0.02539999999999999897 ), #209 );
#4 = ORIENTED_EDGE ( 'NONE', *, *, #93, .T. ) ;
#5 = EDGE_CURVE ( 'NONE', #26, #67, #88, .T. ) ;
#6 = DIRECTION ( 'NONE',  ( -1.000000000000000000, 0.0000000000000000000, 1.224646799147353207E-16 ) ) ;
#7 = EDGE_LOOP ( 'NONE', ( #16, #9, #277, #49 ) ) ;
#8 = CARTESIAN_POINT ( 'NONE',  ( -0.1412499999999994871, 0.0000000000000000000, 2.500000000000000000 ) ) ;
#9 = ORIENTED_EDGE ( 'NONE', *, *, #90, .T. ) ;
#10 = CARTESIAN_POINT ( 'NONE',  ( 0.1404594000000000120, 1.720131546201577623E-17, -1.720131546201577623E-17 ) ) ;
#11 = DIRECTION ( 'NONE',  ( -1.000000000000000000, 0.0000000000000000000, 0.0000000000000000000 ) ) ;
#12 = DIRECTION ( 'NONE',  ( 1.000000000000000000, 0.0000000000000000000, 0.0000000000000000000 ) ) ;
#13 = ORIENTED_EDGE ( 'NONE', *, *, #196, .F. ) ;
#14 = DIRECTION ( 'NONE',  ( 0.0000000000000000000, 0.0000000000000000000, 1.000000000000000000 ) ) ;
#15 = PRODUCT_RELATED_PRODUCT_CATEGORY ( 'part', '', ( #171 ) ) ;
#16 = ORIENTED_EDGE ( 'NONE', *, *, #60, .F. ) ;
#17 = AXIS2_PLACEMENT_3D ( 'NONE', #190, #138, #165 ) ;
#18 = DIRECTION ( 'NONE',  ( -1.000000000000000000, 0.0000000000000000000, 1.224646799147353207E-16 ) ) ;
#19 = FILL_AREA_STYLE_COLOUR ( '', #110 ) ;
#20 = ORIENTED_EDGE ( 'NONE', *, *, #175, .T. ) ;
#21 = EDGE_CURVE ( 'NONE', #265, #26, #38, .T. ) ;
#22 =( NAMED_UNIT ( * ) PLANE_ANGLE_UNIT ( ) SI_UNIT ( $, .RADIAN. ) );
#23 = EDGE_LOOP ( 'NONE', ( #213, #30, #230, #94 ) ) ;
#24 = DIRECTION ( 'NONE',  ( 0.0000000000000000000, 0.0000000000000000000, 1.000000000000000000 ) ) ;
#25 = DIRECTION ( 'NONE',  ( -0.0000000000000000000, -0.0000000000000000000, -1.000000000000000000 ) ) ;
#26 = VERTEX_POINT ( 'NONE', #85 ) ;
#27 = ORIENTED_EDGE ( 'NONE', *, *, #66, .F. ) ;
#28 = CARTESIAN_POINT ( 'NONE',  ( 0.0000000000000000000, 0.0000000000000000000, 2.500000000000000000 ) ) ;
#29 = PRESENTATION_STYLE_ASSIGNMENT (( #82 ) ) ;
#30 = ORIENTED_EDGE ( 'NONE', *, *, #186, .T. ) ;
#31 = AXIS2_PLACEMENT_3D ( 'NONE', #120, #232, #6 ) ;
#32 = DIRECTION ( 'NONE',  ( -1.000000000000000000, 0.0000000000000000000, 0.0000000000000000000 ) ) ;
#33 = FILL_AREA_STYLE_COLOUR ( '', #44 ) ;
#34 = CYLINDRICAL_SURFACE ( 'NONE', #158, 0.1404594000000000120 ) ;
#35 = VERTEX_POINT ( 'NONE', #266 ) ;
#36 = AXIS2_PLACEMENT_3D ( 'NONE', #270, #283, #160 ) ;
#37 = DIRECTION ( 'NONE',  ( 0.7071067811865410224, 8.659560562354852739E-17, -0.7071067811865539010 ) ) ;
#38 = LINE ( 'NONE', #195, #198 ) ;
#39 = DIRECTION ( 'NONE',  ( 1.224646799147353207E-16, 0.0000000000000000000, 1.000000000000000000 ) ) ;
#40 = CARTESIAN_POINT ( 'NONE',  ( 0.1562500000000000000, 1.913510623667739463E-17, 2.484999999999999432 ) ) ;
#41 = EDGE_CURVE ( 'NONE', #262, #117, #214, .T. ) ;
#42 = CIRCLE ( 'NONE', #31, 0.1404594000000000120 ) ;
#43 = ADVANCED_FACE ( 'NONE', ( #210 ), #119, .T. ) ;
#44 = COLOUR_RGB ( '',0.7921568627450980005, 0.8196078431372548767, 0.9333333333333333481 ) ;
#45 = SHAPE_DEFINITION_REPRESENTATION ( #289, #229 ) ;
#46 = CLOSED_SHELL ( 'NONE', ( #103, #43, #98, #132, #144, #296, #70, #276, #272, #217 ) ) ;
#47 = ORIENTED_EDGE ( 'NONE', *, *, #21, .F. ) ;
#48 = EDGE_LOOP ( 'NONE', ( #233, #281 ) ) ;
#49 = ORIENTED_EDGE ( 'NONE', *, *, #248, .F. ) ;
#50 = LINE ( 'NONE', #10, #91 ) ;
#51 = ORIENTED_EDGE ( 'NONE', *, *, #175, .F. ) ;
#52 = CYLINDRICAL_SURFACE ( 'NONE', #17, 0.1404594000000000120 ) ;
#53 = CARTESIAN_POINT ( 'NONE',  ( 0.1404594000000000120, 1.720131546201577623E-17, 0.0000000000000000000 ) ) ;
#54 = VECTOR ( 'NONE', #122, 39.37007874015748854 ) ;
#55 = EDGE_LOOP ( 'NONE', ( #169, #298 ) ) ;
#56 = EDGE_LOOP ( 'NONE', ( #115, #27, #257, #114 ) ) ;
#57 = AXIS2_PLACEMENT_3D ( 'NONE', #28, #101, #59 ) ;
#58 = DIMENSIONAL_EXPONENTS ( 1.000000000000000000, 0.0000000000000000000, 0.0000000000000000000, 0.0000000000000000000, 0.0000000000000000000, 0.0000000000000000000, 0.0000000000000000000 ) ;
#59 = DIRECTION ( 'NONE',  ( 1.000000000000000000, 0.0000000000000000000, 0.0000000000000000000 ) ) ;
#60 = EDGE_CURVE ( 'NONE', #35, #127, #161, .T. ) ;
#61 = CARTESIAN_POINT ( 'NONE',  ( 0.0000000000000000000, 0.0000000000000000000, 2.500000000000000000 ) ) ;
#62 = CIRCLE ( 'NONE', #57, 0.1412499999999994871 ) ;
#63 = DIRECTION ( 'NONE',  ( 0.0000000000000000000, 0.0000000000000000000, 1.000000000000000000 ) ) ;
#64 = DIRECTION ( 'NONE',  ( 1.000000000000000000, 0.0000000000000000000, 0.0000000000000000000 ) ) ;
#65 = CARTESIAN_POINT ( 'NONE',  ( 1.028155823993343290E-16, 0.0000000000000000000, 0.8395529427008548984 ) ) ;
#66 = EDGE_CURVE ( 'NONE', #127, #35, #285, .T. ) ;
#67 = VERTEX_POINT ( 'NONE', #111 ) ;
#68 = SURFACE_SIDE_STYLE ('',( #271 ) ) ;
#69 = DIRECTION ( 'NONE',  ( -1.224646799147353207E-16, -0.0000000000000000000, -1.000000000000000000 ) ) ;
#70 = ADVANCED_FACE ( 'NONE', ( #78 ), #71, .T. ) ;
#71 = CONICAL_SURFACE ( 'NONE', #240, 0.1412499999999994871, 0.7853981633974391752 ) ;
#72 = DIRECTION ( 'NONE',  ( -0.1736481776669311083, 2.126576849575782084E-17, 0.9848077530122080203 ) ) ;
#73 = EDGE_LOOP ( 'NONE', ( #2, #4, #146, #139 ) ) ;
#74 = DIRECTION ( 'NONE',  ( 0.0000000000000000000, 0.0000000000000000000, -1.000000000000000000 ) ) ;
#75 = ORIENTED_EDGE ( 'NONE', *, *, #273, .F. ) ;
#76 = CARTESIAN_POINT ( 'NONE',  ( 9.184850993605150903E-17, 0.0000000000000000000, 0.7500000000000001110 ) ) ;
#77 = UNCERTAINTY_MEASURE_WITH_UNIT (LENGTH_MEASURE( 1.000000000000000082E-05 ), #293, 'distance_accuracy_value', 'NONE');
#78 = FACE_OUTER_BOUND ( 'NONE', #231, .T. ) ;
#79 = CARTESIAN_POINT ( 'NONE',  ( 0.0000000000000000000, 0.0000000000000000000, 2.500000000000000000 ) ) ;
#80 = VECTOR ( 'NONE', #72, 39.37007874015747433 ) ;
#81 = AXIS2_PLACEMENT_3D ( 'NONE', #191, #172, #18 ) ;
#82 = SURFACE_STYLE_USAGE ( .BOTH. , #184 ) ;
#83 = VERTEX_POINT ( 'NONE', #53 ) ;
#84 = PLANE ( 'NONE',  #121 ) ;
#85 = CARTESIAN_POINT ( 'NONE',  ( -0.1562499999999999167, 0.0000000000000000000, 0.8395529427008548984 ) ) ;
#86 = CARTESIAN_POINT ( 'NONE',  ( 9.184850993605150903E-17, 0.0000000000000000000, 0.7500000000000001110 ) ) ;
#87 = CARTESIAN_POINT ( 'NONE',  ( 0.1562500000000000000, 1.913510623667739463E-17, 2.500000000000000000 ) ) ;
#88 = CIRCLE ( 'NONE', #207, 0.1562500000000000000 ) ;
#89 = PRESENTATION_STYLE_ASSIGNMENT (( #157 ) ) ;
#90 = EDGE_CURVE ( 'NONE', #35, #26, #188, .T. ) ;
#91 = VECTOR ( 'NONE', #206, 39.37007874015748143 ) ;
#92 = AXIS2_PLACEMENT_3D ( 'NONE', #297, #199, #177 ) ;
#93 = EDGE_CURVE ( 'NONE', #253, #265, #250, .T. ) ;
#94 = ORIENTED_EDGE ( 'NONE', *, *, #108, .F. ) ;
#95 =( CONVERSION_BASED_UNIT ( 'INCH', #3 ) LENGTH_UNIT ( ) NAMED_UNIT ( #58 ) );
#96 = FILL_AREA_STYLE ('',( #33 ) ) ;
#97 = AXIS2_PLACEMENT_3D ( 'NONE', #129, #216, #64 ) ;
#98 = ADVANCED_FACE ( 'NONE', ( #123 ), #274, .T. ) ;
#99 = ORIENTED_EDGE ( 'NONE', *, *, #41, .F. ) ;
#100 = PRODUCT_DEFINITION_CONTEXT ( 'detailed design', #149, 'design' ) ;
#101 = DIRECTION ( 'NONE',  ( 0.0000000000000000000, 0.0000000000000000000, 1.000000000000000000 ) ) ;
#102 = DIRECTION ( 'NONE',  ( 1.000000000000000000, 0.0000000000000000000, 0.0000000000000000000 ) ) ;
#103 = ADVANCED_FACE ( 'NONE', ( #284 ), #52, .T. ) ;
#104 = DIRECTION ( 'NONE',  ( 1.000000000000000000, 0.0000000000000000000, -0.0000000000000000000 ) ) ;
#105 = DIMENSIONAL_EXPONENTS ( 1.000000000000000000, 0.0000000000000000000, 0.0000000000000000000, 0.0000000000000000000, 0.0000000000000000000, 0.0000000000000000000, 0.0000000000000000000 ) ;
#106 =( NAMED_UNIT ( * ) PLANE_ANGLE_UNIT ( ) SI_UNIT ( $, .RADIAN. ) );
#107 = STYLED_ITEM ( 'NONE', ( #89 ), #229 ) ;
#108 = EDGE_CURVE ( 'NONE', #35, #130, #164, .T. ) ;
#109 = AXIS2_PLACEMENT_3D ( 'NONE', #280, #254, #102 ) ;
#110 = COLOUR_RGB ( '',0.7921568627450980005, 0.8196078431372548767, 0.9333333333333333481 ) ;
#111 = CARTESIAN_POINT ( 'NONE',  ( 0.1562500000000001110, 1.913510623667740388E-17, 0.8395529427008548984 ) ) ;
#112 = AXIS2_PLACEMENT_3D ( 'NONE', #234, #241, #244 ) ;
#113 = FACE_OUTER_BOUND ( 'NONE', #137, .T. ) ;
#114 = ORIENTED_EDGE ( 'NONE', *, *, #203, .T. ) ;
#115 = ORIENTED_EDGE ( 'NONE', *, *, #90, .F. ) ;
#116 = CARTESIAN_POINT ( 'NONE',  ( -0.1404594000000000120, 0.0000000000000000000, 3.440263092403155245E-17 ) ) ;
#117 = VERTEX_POINT ( 'NONE', #141 ) ;
#118 = DIRECTION ( 'NONE',  ( 1.000000000000000000, 0.0000000000000000000, 0.0000000000000000000 ) ) ;
#119 = CONICAL_SURFACE ( 'NONE', #278, 0.1404594000000000120, 0.1745329251994338082 ) ;
#120 = CARTESIAN_POINT ( 'NONE',  ( 2.106553592168149428E-33, 0.0000000000000000000, 1.720131546201577623E-17 ) ) ;
#121 = AXIS2_PLACEMENT_3D ( 'NONE', #263, #14, #173 ) ;
#122 = DIRECTION ( 'NONE',  ( -0.7071067811865410224, 0.0000000000000000000, -0.7071067811865539010 ) ) ;
#123 = FACE_OUTER_BOUND ( 'NONE', #143, .T. ) ;
#124 = ORIENTED_EDGE ( 'NONE', *, *, #225, .T. ) ;
#125 = DIMENSIONAL_EXPONENTS ( 1.000000000000000000, 0.0000000000000000000, 0.0000000000000000000, 0.0000000000000000000, 0.0000000000000000000, 0.0000000000000000000, 0.0000000000000000000 ) ;
#126 = DIRECTION ( 'NONE',  ( -1.224646799147353207E-16, -0.0000000000000000000, -1.000000000000000000 ) ) ;
#127 = VERTEX_POINT ( 'NONE', #162 ) ;
#128 = AXIS2_PLACEMENT_3D ( 'NONE', #86, #39, #12 ) ;
#129 = CARTESIAN_POINT ( 'NONE',  ( 0.0000000000000000000, 0.0000000000000000000, 2.484999999999999432 ) ) ;
#130 = VERTEX_POINT ( 'NONE', #116 ) ;
#131 = FACE_OUTER_BOUND ( 'NONE', #55, .T. ) ;
#132 = ADVANCED_FACE ( 'NONE', ( #113 ), #212, .T. ) ;
#133 = LINE ( 'NONE', #87, #279 ) ;
#134 = DIRECTION ( 'NONE',  ( -1.000000000000000000, 0.0000000000000000000, 0.0000000000000000000 ) ) ;
#135 = ORIENTED_EDGE ( 'NONE', *, *, #93, .F. ) ;
#136 = CARTESIAN_POINT ( 'NONE',  ( -0.1404594000000000120, 0.0000000000000000000, 1.720131546201577623E-17 ) ) ;
#137 = EDGE_LOOP ( 'NONE', ( #150, #124, #237, #47 ) ) ;
#138 = DIRECTION ( 'NONE',  ( -1.224646799147353207E-16, -0.0000000000000000000, -1.000000000000000000 ) ) ;
#139 = ORIENTED_EDGE ( 'NONE', *, *, #203, .F. ) ;
#140 = DIRECTION ( 'NONE',  ( -0.0000000000000000000, -0.0000000000000000000, -1.000000000000000000 ) ) ;
#141 = CARTESIAN_POINT ( 'NONE',  ( 0.1412499999999994871, 1.821662113731684786E-17, 2.500000000000000000 ) ) ;
#142 = MECHANICAL_DESIGN_GEOMETRIC_PRESENTATION_REPRESENTATION (  '', ( #107 ), #228 ) ;
#143 = EDGE_LOOP ( 'NONE', ( #13, #176, #75, #51 ) ) ;
#144 = ADVANCED_FACE ( 'NONE', ( #256 ), #168, .T. ) ;
#145 = CARTESIAN_POINT ( 'NONE',  ( -0.1404593999999999288, 1.720131546201577623E-17, 0.7500000000000001110 ) ) ;
#146 = ORIENTED_EDGE ( 'NONE', *, *, #21, .T. ) ;
#147 = LINE ( 'NONE', #197, #194 ) ;
#148 = DIRECTION ( 'NONE',  ( -1.000000000000000000, 0.0000000000000000000, 1.224646799147353207E-16 ) ) ;
#149 = APPLICATION_CONTEXT ( 'automotive_design' ) ;
#150 = ORIENTED_EDGE ( 'NONE', *, *, #273, .T. ) ;
#151 = DIRECTION ( 'NONE',  ( -1.224646799147353207E-16, -0.0000000000000000000, -1.000000000000000000 ) ) ;
#152 =( NAMED_UNIT ( * ) SI_UNIT ( $, .STERADIAN. ) SOLID_ANGLE_UNIT ( ) );
#153 = AXIS2_PLACEMENT_3D ( 'NONE', #264, #69, #134 ) ;
#154 =( GEOMETRIC_REPRESENTATION_CONTEXT ( 3 ) GLOBAL_UNCERTAINTY_ASSIGNED_CONTEXT ( ( #166 ) ) GLOBAL_UNIT_ASSIGNED_CONTEXT ( ( #95, #106, #174 ) ) REPRESENTATION_CONTEXT ( 'NONE', 'WORKASPACE' ) );
#155 = APPLICATION_PROTOCOL_DEFINITION ( 'draft international standard', 'automotive_design', 1998, #1 ) ;
#156 =( NAMED_UNIT ( * ) SI_UNIT ( $, .STERADIAN. ) SOLID_ANGLE_UNIT ( ) );
#157 = SURFACE_STYLE_USAGE ( .BOTH. , #68 ) ;
#158 = AXIS2_PLACEMENT_3D ( 'NONE', #261, #126, #148 ) ;
#159 =( LENGTH_UNIT ( ) NAMED_UNIT ( * ) SI_UNIT ( $, .METRE. ) );
#160 = DIRECTION ( 'NONE',  ( -1.000000000000000000, 0.0000000000000000000, 0.0000000000000000000 ) ) ;
#161 = CIRCLE ( 'NONE', #36, 0.1404594000000000120 ) ;
#162 = CARTESIAN_POINT ( 'NONE',  ( 0.1404594000000000953, 0.0000000000000000000, 0.7500000000000001110 ) ) ;
#163 = PRODUCT_DEFINITION ( 'UNKNOWN', '', #251, #100 ) ;
#164 = LINE ( 'NONE', #136, #180 ) ;
#165 = DIRECTION ( 'NONE',  ( -1.000000000000000000, 0.0000000000000000000, 1.224646799147353207E-16 ) ) ;
#166 = UNCERTAINTY_MEASURE_WITH_UNIT (LENGTH_MEASURE( 1.000000000000000082E-05 ), #95, 'distance_accuracy_value', 'NONE');
#167 = DIRECTION ( 'NONE',  ( -1.000000000000000000, 0.0000000000000000000, 0.0000000000000000000 ) ) ;
#168 = CYLINDRICAL_SURFACE ( 'NONE', #223, 0.1562500000000000000 ) ;
#169 = ORIENTED_EDGE ( 'NONE', *, *, #200, .T. ) ;
#170 = LINE ( 'NONE', #242, #224 ) ;
#171 = PRODUCT ( 'Micro_GEM-281-4', 'Micro_GEM-281-4', '', ( #247 ) ) ;
#172 = DIRECTION ( 'NONE',  ( -1.224646799147353207E-16, -0.0000000000000000000, -1.000000000000000000 ) ) ;
#173 = DIRECTION ( 'NONE',  ( 1.000000000000000000, 0.0000000000000000000, -0.0000000000000000000 ) ) ;
#174 =( NAMED_UNIT ( * ) SI_UNIT ( $, .STERADIAN. ) SOLID_ANGLE_UNIT ( ) );
#175 = EDGE_CURVE ( 'NONE', #262, #265, #211, .T. ) ;
#176 = ORIENTED_EDGE ( 'NONE', *, *, #219, .T. ) ;
#177 = DIRECTION ( 'NONE',  ( 1.000000000000000000, 0.0000000000000000000, 0.0000000000000000000 ) ) ;
#178 = LENGTH_MEASURE_WITH_UNIT ( LENGTH_MEASURE( 0.02539999999999999897 ), #159 );
#179 = AXIS2_PLACEMENT_3D ( 'NONE', #79, #25, #32 ) ;
#180 = VECTOR ( 'NONE', #185, 39.37007874015748143 ) ;
#181 = AXIS2_PLACEMENT_3D ( 'NONE', #61, #63, #104 ) ;
#182 = MECHANICAL_DESIGN_GEOMETRIC_PRESENTATION_REPRESENTATION (  '', ( #291 ), #154 ) ;
#183 = ORIENTED_EDGE ( 'NONE', *, *, #267, .F. ) ;
#184 = SURFACE_SIDE_STYLE ('',( #287 ) ) ;
#185 = DIRECTION ( 'NONE',  ( -1.224646799147353207E-16, -0.0000000000000000000, -1.000000000000000000 ) ) ;
#186 = EDGE_CURVE ( 'NONE', #127, #83, #50, .T. ) ;
#187 = DIRECTION ( 'NONE',  ( 1.224646799147353207E-16, 0.0000000000000000000, 1.000000000000000000 ) ) ;
#188 = LINE ( 'NONE', #145, #80 ) ;
#189 = AXIS2_PLACEMENT_3D ( 'NONE', #243, #24, #118 ) ;
#190 = CARTESIAN_POINT ( 'NONE',  ( 0.0000000000000000000, 0.0000000000000000000, 0.0000000000000000000 ) ) ;
#191 = CARTESIAN_POINT ( 'NONE',  ( 2.106553592168149428E-33, 0.0000000000000000000, 1.720131546201577623E-17 ) ) ;
#192 = DIRECTION ( 'NONE',  ( -0.0000000000000000000, -0.0000000000000000000, -1.000000000000000000 ) ) ;
#193 = DIRECTION ( 'NONE',  ( 0.1736481776669313026, 0.0000000000000000000, 0.9848077530122077983 ) ) ;
#194 = VECTOR ( 'NONE', #37, 39.37007874015748854 ) ;
#195 = CARTESIAN_POINT ( 'NONE',  ( -0.1562500000000000000, 0.0000000000000000000, 2.500000000000000000 ) ) ;
#196 = EDGE_CURVE ( 'NONE', #117, #262, #62, .T. ) ;
#197 = CARTESIAN_POINT ( 'NONE',  ( 0.1412499999999994871, 1.729813603795630110E-17, 2.500000000000000000 ) ) ;
#198 = VECTOR ( 'NONE', #192, 39.37007874015748143 ) ;
#199 = DIRECTION ( 'NONE',  ( 0.0000000000000000000, 0.0000000000000000000, 1.000000000000000000 ) ) ;
#200 = EDGE_CURVE ( 'NONE', #130, #83, #42, .T. ) ;
#201 = CIRCLE ( 'NONE', #112, 0.1562500000000000000 ) ;
#202 = MANIFOLD_SOLID_BREP ( 'Cut-Revolve1', #46 ) ;
#203 = EDGE_CURVE ( 'NONE', #67, #26, #201, .T. ) ;
#204 = ORIENTED_EDGE ( 'NONE', *, *, #108, .T. ) ;
#205 = ORIENTED_EDGE ( 'NONE', *, *, #186, .F. ) ;
#206 = DIRECTION ( 'NONE',  ( -1.224646799147353207E-16, -0.0000000000000000000, -1.000000000000000000 ) ) ;
#207 = AXIS2_PLACEMENT_3D ( 'NONE', #65, #151, #245 ) ;
#208 = CIRCLE ( 'NONE', #81, 0.1404594000000000120 ) ;
#209 =( LENGTH_UNIT ( ) NAMED_UNIT ( * ) SI_UNIT ( $, .METRE. ) );
#210 = FACE_OUTER_BOUND ( 'NONE', #7, .T. ) ;
#211 = LINE ( 'NONE', #8, #54 ) ;
#212 = CYLINDRICAL_SURFACE ( 'NONE', #179, 0.1562500000000000000 ) ;
#213 = ORIENTED_EDGE ( 'NONE', *, *, #60, .T. ) ;
#214 = CIRCLE ( 'NONE', #189, 0.1412499999999994871 ) ;
#215 = PRESENTATION_LAYER_ASSIGNMENT (  '', '', ( #107 ) ) ;
#216 = DIRECTION ( 'NONE',  ( 0.0000000000000000000, 0.0000000000000000000, -1.000000000000000000 ) ) ;
#217 = ADVANCED_FACE ( 'NONE', ( #131 ), #84, .F. ) ;
#218 = ORIENTED_EDGE ( 'NONE', *, *, #219, .F. ) ;
#219 = EDGE_CURVE ( 'NONE', #117, #253, #147, .T. ) ;
#220 =( LENGTH_UNIT ( ) NAMED_UNIT ( * ) SI_UNIT ( $, .METRE. ) );
#221 = PLANE ( 'NONE',  #181 ) ;
#222 = LENGTH_MEASURE_WITH_UNIT ( LENGTH_MEASURE( 0.02539999999999999897 ), #220 );
#223 = AXIS2_PLACEMENT_3D ( 'NONE', #282, #140, #167 ) ;
#224 = VECTOR ( 'NONE', #193, 39.37007874015748143 ) ;
#225 = EDGE_CURVE ( 'NONE', #253, #67, #133, .T. ) ;
#226 = PRESENTATION_LAYER_ASSIGNMENT (  '', '', ( #291 ) ) ;
#227 =( CONVERSION_BASED_UNIT ( 'INCH', #178 ) LENGTH_UNIT ( ) NAMED_UNIT ( #105 ) );
#228 =( GEOMETRIC_REPRESENTATION_CONTEXT ( 3 ) GLOBAL_UNCERTAINTY_ASSIGNED_CONTEXT ( ( #255 ) ) GLOBAL_UNIT_ASSIGNED_CONTEXT ( ( #227, #22, #156 ) ) REPRESENTATION_CONTEXT ( 'NONE', 'WORKASPACE' ) );
#229 = ADVANCED_BREP_SHAPE_REPRESENTATION ( 'Micro_GEM-281-4', ( #202, #92 ), #246 ) ;
#230 = ORIENTED_EDGE ( 'NONE', *, *, #200, .F. ) ;
#231 = EDGE_LOOP ( 'NONE', ( #218, #99, #20, #135 ) ) ;
#232 = DIRECTION ( 'NONE',  ( -1.224646799147353207E-16, -0.0000000000000000000, -1.000000000000000000 ) ) ;
#233 = ORIENTED_EDGE ( 'NONE', *, *, #41, .T. ) ;
#234 = CARTESIAN_POINT ( 'NONE',  ( 1.028155823993343290E-16, 0.0000000000000000000, 0.8395529427008548984 ) ) ;
#235 = AXIS2_PLACEMENT_3D ( 'NONE', #238, #236, #11 ) ;
#236 = DIRECTION ( 'NONE',  ( 0.0000000000000000000, 0.0000000000000000000, -1.000000000000000000 ) ) ;
#237 = ORIENTED_EDGE ( 'NONE', *, *, #5, .F. ) ;
#238 = CARTESIAN_POINT ( 'NONE',  ( 0.0000000000000000000, 0.0000000000000000000, 2.500000000000000000 ) ) ;
#239 = CARTESIAN_POINT ( 'NONE',  ( -0.1412499999999994871, 0.0000000000000000000, 2.500000000000000000 ) ) ;
#240 = AXIS2_PLACEMENT_3D ( 'NONE', #252, #74, #259 ) ;
#241 = DIRECTION ( 'NONE',  ( -1.224646799147353207E-16, -0.0000000000000000000, -1.000000000000000000 ) ) ;
#242 = CARTESIAN_POINT ( 'NONE',  ( 0.1404594000000000953, 0.0000000000000000000, 0.7500000000000001110 ) ) ;
#243 = CARTESIAN_POINT ( 'NONE',  ( 0.0000000000000000000, 0.0000000000000000000, 2.500000000000000000 ) ) ;
#244 = DIRECTION ( 'NONE',  ( 1.000000000000000000, 0.0000000000000000000, 0.0000000000000000000 ) ) ;
#245 = DIRECTION ( 'NONE',  ( 1.000000000000000000, 0.0000000000000000000, 0.0000000000000000000 ) ) ;
#246 =( GEOMETRIC_REPRESENTATION_CONTEXT ( 3 ) GLOBAL_UNCERTAINTY_ASSIGNED_CONTEXT ( ( #77 ) ) GLOBAL_UNIT_ASSIGNED_CONTEXT ( ( #293, #269, #152 ) ) REPRESENTATION_CONTEXT ( 'NONE', 'WORKASPACE' ) );
#247 = PRODUCT_CONTEXT ( 'NONE', #1, 'mechanical' ) ;
#248 = EDGE_CURVE ( 'NONE', #127, #67, #170, .T. ) ;
#249 = FILL_AREA_STYLE ('',( #19 ) ) ;
#250 = CIRCLE ( 'NONE', #109, 0.1562500000000000000 ) ;
#251 = PRODUCT_DEFINITION_FORMATION_WITH_SPECIFIED_SOURCE ( 'ANY', '', #171, .NOT_KNOWN. ) ;
#252 = CARTESIAN_POINT ( 'NONE',  ( 0.0000000000000000000, 0.0000000000000000000, 2.500000000000000000 ) ) ;
#253 = VERTEX_POINT ( 'NONE', #40 ) ;
#254 = DIRECTION ( 'NONE',  ( 0.0000000000000000000, 0.0000000000000000000, -1.000000000000000000 ) ) ;
#255 = UNCERTAINTY_MEASURE_WITH_UNIT (LENGTH_MEASURE( 1.000000000000000082E-05 ), #227, 'distance_accuracy_value', 'NONE');
#256 = FACE_OUTER_BOUND ( 'NONE', #73, .T. ) ;
#257 = ORIENTED_EDGE ( 'NONE', *, *, #248, .T. ) ;
#258 = ORIENTED_EDGE ( 'NONE', *, *, #66, .T. ) ;
#259 = DIRECTION ( 'NONE',  ( -1.000000000000000000, 0.0000000000000000000, 0.0000000000000000000 ) ) ;
#260 = EDGE_LOOP ( 'NONE', ( #205, #258, #204, #183 ) ) ;
#261 = CARTESIAN_POINT ( 'NONE',  ( 0.0000000000000000000, 0.0000000000000000000, 0.0000000000000000000 ) ) ;
#262 = VERTEX_POINT ( 'NONE', #239 ) ;
#263 = CARTESIAN_POINT ( 'NONE',  ( 0.0000000000000000000, 0.0000000000000000000, 0.0000000000000000000 ) ) ;
#264 = CARTESIAN_POINT ( 'NONE',  ( 9.184850993605150903E-17, 0.0000000000000000000, 0.7500000000000001110 ) ) ;
#265 = VERTEX_POINT ( 'NONE', #268 ) ;
#266 = CARTESIAN_POINT ( 'NONE',  ( -0.1404593999999999288, 1.816821084934658389E-17, 0.7500000000000001110 ) ) ;
#267 = EDGE_CURVE ( 'NONE', #83, #130, #208, .T. ) ;
#268 = CARTESIAN_POINT ( 'NONE',  ( -0.1562500000000000000, 0.0000000000000000000, 2.484999999999999432 ) ) ;
#269 =( NAMED_UNIT ( * ) PLANE_ANGLE_UNIT ( ) SI_UNIT ( $, .RADIAN. ) );
#270 = CARTESIAN_POINT ( 'NONE',  ( 9.184850993605150903E-17, 0.0000000000000000000, 0.7500000000000001110 ) ) ;
#271 = SURFACE_STYLE_FILL_AREA ( #249 ) ;
#272 = ADVANCED_FACE ( 'NONE', ( #290 ), #34, .T. ) ;
#273 = EDGE_CURVE ( 'NONE', #265, #253, #275, .T. ) ;
#274 = CONICAL_SURFACE ( 'NONE', #235, 0.1412499999999994871, 0.7853981633974391752 ) ;
#275 = CIRCLE ( 'NONE', #97, 0.1562500000000000000 ) ;
#276 = ADVANCED_FACE ( 'NONE', ( #288 ), #286, .T. ) ;
#277 = ORIENTED_EDGE ( 'NONE', *, *, #5, .T. ) ;
#278 = AXIS2_PLACEMENT_3D ( 'NONE', #76, #187, #294 ) ;
#279 = VECTOR ( 'NONE', #295, 39.37007874015748143 ) ;
#280 = CARTESIAN_POINT ( 'NONE',  ( 0.0000000000000000000, 0.0000000000000000000, 2.484999999999999432 ) ) ;
#281 = ORIENTED_EDGE ( 'NONE', *, *, #196, .T. ) ;
#282 = CARTESIAN_POINT ( 'NONE',  ( 0.0000000000000000000, 0.0000000000000000000, 2.500000000000000000 ) ) ;
#283 = DIRECTION ( 'NONE',  ( -1.224646799147353207E-16, -0.0000000000000000000, -1.000000000000000000 ) ) ;
#284 = FACE_OUTER_BOUND ( 'NONE', #23, .T. ) ;
#285 = CIRCLE ( 'NONE', #153, 0.1404594000000000120 ) ;
#286 = CONICAL_SURFACE ( 'NONE', #128, 0.1404594000000000120, 0.1745329251994338082 ) ;
#287 = SURFACE_STYLE_FILL_AREA ( #96 ) ;
#288 = FACE_OUTER_BOUND ( 'NONE', #56, .T. ) ;
#289 = PRODUCT_DEFINITION_SHAPE ( 'NONE', 'NONE',  #163 ) ;
#290 = FACE_OUTER_BOUND ( 'NONE', #260, .T. ) ;
#291 = STYLED_ITEM ( 'NONE', ( #29 ), #202 ) ;
#292 = FACE_OUTER_BOUND ( 'NONE', #48, .T. ) ;
#293 =( CONVERSION_BASED_UNIT ( 'INCH', #222 ) LENGTH_UNIT ( ) NAMED_UNIT ( #125 ) );
#294 = DIRECTION ( 'NONE',  ( 1.000000000000000000, 0.0000000000000000000, 0.0000000000000000000 ) ) ;
#295 = DIRECTION ( 'NONE',  ( -0.0000000000000000000, -0.0000000000000000000, -1.000000000000000000 ) ) ;
#296 = ADVANCED_FACE ( 'NONE', ( #292 ), #221, .T. ) ;
#297 = CARTESIAN_POINT ( 'NONE',  ( 0.0000000000000000000, 0.0000000000000000000, 0.0000000000000000000 ) ) ;
#298 = ORIENTED_EDGE ( 'NONE', *, *, #267, .T. ) ;
#299 = APPLICATION_PROTOCOL_DEFINITION ( 'draft international standard', 'automotive_design', 1998, #149 ) ;
ENDSEC;
END-ISO-10303-21;
