ISO-10303-21;
HEADER;
FILE_DESCRIPTION (( 'STEP AP214' ),
    '1' );
FILE_NAME ('83208.STEP',
    '2023-06-23T08:49:21',
    ( '' ),
    ( '' ),
    'SwSTEP 2.0',
    'SolidWorks 2023',
    '' );
FILE_SCHEMA (( 'AUTOMOTIVE_DESIGN' ));
ENDSEC;

DATA;
#1 = PRESENTATION_STYLE_ASSIGNMENT (( #64 ) ) ;
#2 = ORIENTED_EDGE ( 'NONE', *, *, #13, .T. ) ;
#3 = DIRECTION ( 'NONE',  ( -0.000000000000000000, -1.000000000000000000, -0.000000000000000000 ) ) ;
#4 = PRESENTATION_LAYER_ASSIGNMENT (  '', '', ( #100 ) ) ;
#5 = COLOUR_RGB ( '',1.000000000000000000, 0.000000000000000000, 0.000000000000000000 ) ;
#6 = PLANE ( 'NONE',  #147 ) ;
#7 = AXIS2_PLACEMENT_3D ( 'NONE', #16, #104, #60 ) ;
#8 = ADVANCED_FACE ( 'NONE', ( #250 ), #259, .T. ) ;
#9 = SURFACE_SIDE_STYLE ('',( #297 ) ) ;
#10 = APPLICATION_CONTEXT ( 'automotive_design' ) ;
#11 = LENGTH_MEASURE_WITH_UNIT ( LENGTH_MEASURE( 0.02539999999999999897 ), #296 );
#12 =( NAMED_UNIT ( * ) PLANE_ANGLE_UNIT ( ) SI_UNIT ( $, .RADIAN. ) );
#13 = EDGE_CURVE ( 'NONE', #280, #85, #237, .T. ) ;
#14 = AXIS2_PLACEMENT_3D ( 'NONE', #107, #208, #256 ) ;
#15 = CARTESIAN_POINT ( 'NONE',  ( 0.3750000000000001110, 3.000000000000000444, 4.592425496802573602E-17 ) ) ;
#16 = CARTESIAN_POINT ( 'NONE',  ( 0.000000000000000000, 0.000000000000000000, 0.000000000000000000 ) ) ;
#17 = CARTESIAN_POINT ( 'NONE',  ( 0.000000000000000000, 0.8750000000000000000, 0.000000000000000000 ) ) ;
#18 = AXIS2_PLACEMENT_3D ( 'NONE', #233, #23, #30 ) ;
#19 = ORIENTED_EDGE ( 'NONE', *, *, #174, .F. ) ;
#20 = SURFACE_SIDE_STYLE ('',( #181 ) ) ;
#21 = ORIENTED_EDGE ( 'NONE', *, *, #114, .T. ) ;
#22 = EDGE_CURVE ( 'NONE', #85, #280, #123, .T. ) ;
#23 = DIRECTION ( 'NONE',  ( 0.000000000000000000, 0.000000000000000000, 1.000000000000000000 ) ) ;
#24 =( NAMED_UNIT ( * ) SI_UNIT ( $, .STERADIAN. ) SOLID_ANGLE_UNIT ( ) );
#25 = AXIS2_PLACEMENT_3D ( 'NONE', #154, #65, #45 ) ;
#26 = ORIENTED_EDGE ( 'NONE', *, *, #114, .F. ) ;
#27 = CIRCLE ( 'NONE', #254, 0.3750000000000000555 ) ;
#28 = ORIENTED_EDGE ( 'NONE', *, *, #292, .F. ) ;
#29 = ADVANCED_FACE ( 'NONE', ( #190 ), #168, .T. ) ;
#30 = DIRECTION ( 'NONE',  ( 1.000000000000000000, 0.000000000000000000, 0.000000000000000000 ) ) ;
#31 = CIRCLE ( 'NONE', #203, 0.3750000000000000555 ) ;
#32 = LENGTH_MEASURE_WITH_UNIT ( LENGTH_MEASURE( 0.02539999999999999897 ), #242 );
#33 = FILL_AREA_STYLE_COLOUR ( '', #164 ) ;
#34 = SURFACE_STYLE_USAGE ( .BOTH. , #246 ) ;
#35 = PRESENTATION_STYLE_ASSIGNMENT (( #34 ) ) ;
#36 = DIRECTION ( 'NONE',  ( 5.763043760693423160E-17, 1.000000000000000000, -0.000000000000000000 ) ) ;
#37 = LINE ( 'NONE', #308, #99 ) ;
#38 = DIRECTION ( 'NONE',  ( -0.000000000000000000, -1.000000000000000000, -0.000000000000000000 ) ) ;
#39 = CARTESIAN_POINT ( 'NONE',  ( 0.000000000000000000, 0.8750000000000000000, 0.000000000000000000 ) ) ;
#40 =( CONVERSION_BASED_UNIT ( 'INCH', #201 ) LENGTH_UNIT ( ) NAMED_UNIT ( #301 ) );
#41 = MECHANICAL_DESIGN_GEOMETRIC_PRESENTATION_REPRESENTATION (  '', ( #198 ), #80 ) ;
#42 = VERTEX_POINT ( 'NONE', #111 ) ;
#43 = PRODUCT_DEFINITION_CONTEXT ( 'detailed design', #260, 'design' ) ;
#44 = EDGE_LOOP ( 'NONE', ( #135, #19 ) ) ;
#45 = DIRECTION ( 'NONE',  ( 1.000000000000000000, -5.763043760693423160E-17, 0.000000000000000000 ) ) ;
#46 = ORIENTED_EDGE ( 'NONE', *, *, #278, .F. ) ;
#47 = COLOUR_RGB ( '',0.7921568627450980005, 0.8196078431372548767, 0.9333333333333333481 ) ;
#48 = ORIENTED_EDGE ( 'NONE', *, *, #13, .F. ) ;
#49 = LENGTH_MEASURE_WITH_UNIT ( LENGTH_MEASURE( 0.02539999999999999897 ), #214 );
#50 = AXIS2_PLACEMENT_3D ( 'NONE', #119, #3, #52 ) ;
#51 = PRODUCT_DEFINITION_SHAPE ( 'NONE', 'NONE',  #225 ) ;
#52 = DIRECTION ( 'NONE',  ( 0.000000000000000000, 0.000000000000000000, -1.000000000000000000 ) ) ;
#53 = DIRECTION ( 'NONE',  ( 5.763043760693423160E-17, 1.000000000000000000, -0.000000000000000000 ) ) ;
#54 = AXIS2_PLACEMENT_3D ( 'NONE', #207, #205, #307 ) ;
#55 =( NAMED_UNIT ( * ) SI_UNIT ( $, .STERADIAN. ) SOLID_ANGLE_UNIT ( ) );
#56 =( GEOMETRIC_REPRESENTATION_CONTEXT ( 3 ) GLOBAL_UNCERTAINTY_ASSIGNED_CONTEXT ( ( #150 ) ) GLOBAL_UNIT_ASSIGNED_CONTEXT ( ( #221, #79, #55 ) ) REPRESENTATION_CONTEXT ( 'NONE', 'WORKASPACE' ) );
#57 = FILL_AREA_STYLE ('',( #81 ) ) ;
#58 = LENGTH_MEASURE_WITH_UNIT ( LENGTH_MEASURE( 0.02539999999999999897 ), #121 );
#59 = VERTEX_POINT ( 'NONE', #210 ) ;
#60 = DIRECTION ( 'NONE',  ( 0.000000000000000000, 0.000000000000000000, -1.000000000000000000 ) ) ;
#61 = EDGE_LOOP ( 'NONE', ( #26, #163, #109, #48 ) ) ;
#62 = AXIS2_PLACEMENT_3D ( 'NONE', #213, #69, #159 ) ;
#63 = DIMENSIONAL_EXPONENTS ( 1.000000000000000000, 0.000000000000000000, 0.000000000000000000, 0.000000000000000000, 0.000000000000000000, 0.000000000000000000, 0.000000000000000000 ) ;
#64 = SURFACE_STYLE_USAGE ( .BOTH. , #227 ) ;
#65 = DIRECTION ( 'NONE',  ( -5.763043760693423160E-17, -1.000000000000000000, 0.000000000000000000 ) ) ;
#66 = EDGE_LOOP ( 'NONE', ( #133, #2 ) ) ;
#67 = FACE_OUTER_BOUND ( 'NONE', #179, .T. ) ;
#68 =( LENGTH_UNIT ( ) NAMED_UNIT ( * ) SI_UNIT ( $, .METRE. ) );
#69 = DIRECTION ( 'NONE',  ( 5.763043760693423160E-17, 1.000000000000000000, -0.000000000000000000 ) ) ;
#70 = APPLICATION_PROTOCOL_DEFINITION ( 'draft international standard', 'automotive_design', 1998, #260 ) ;
#71 = MECHANICAL_DESIGN_GEOMETRIC_PRESENTATION_REPRESENTATION (  '', ( #264 ), #105 ) ;
#72 = SURFACE_SIDE_STYLE ('',( #293 ) ) ;
#73 =( GEOMETRIC_REPRESENTATION_CONTEXT ( 3 ) GLOBAL_UNCERTAINTY_ASSIGNED_CONTEXT ( ( #156 ) ) GLOBAL_UNIT_ASSIGNED_CONTEXT ( ( #235, #184, #209 ) ) REPRESENTATION_CONTEXT ( 'NONE', 'WORKASPACE' ) );
#74 = VECTOR ( 'NONE', #255, 39.37007874015748143 ) ;
#75 =( GEOMETRIC_REPRESENTATION_CONTEXT ( 3 ) GLOBAL_UNCERTAINTY_ASSIGNED_CONTEXT ( ( #302 ) ) GLOBAL_UNIT_ASSIGNED_CONTEXT ( ( #239, #116, #218 ) ) REPRESENTATION_CONTEXT ( 'NONE', 'WORKASPACE' ) );
#76 = DIRECTION ( 'NONE',  ( 5.763043760693423160E-17, 1.000000000000000000, -0.000000000000000000 ) ) ;
#77 = FILL_AREA_STYLE ('',( #191 ) ) ;
#78 = AXIS2_PLACEMENT_3D ( 'NONE', #143, #38, #228 ) ;
#79 =( NAMED_UNIT ( * ) PLANE_ANGLE_UNIT ( ) SI_UNIT ( $, .RADIAN. ) );
#80 =( GEOMETRIC_REPRESENTATION_CONTEXT ( 3 ) GLOBAL_UNCERTAINTY_ASSIGNED_CONTEXT ( ( #130 ) ) GLOBAL_UNIT_ASSIGNED_CONTEXT ( ( #303, #101, #83 ) ) REPRESENTATION_CONTEXT ( 'NONE', 'WORKASPACE' ) );
#81 = FILL_AREA_STYLE_COLOUR ( '', #124 ) ;
#82 =( NAMED_UNIT ( * ) PLANE_ANGLE_UNIT ( ) SI_UNIT ( $, .RADIAN. ) );
#83 =( NAMED_UNIT ( * ) SI_UNIT ( $, .STERADIAN. ) SOLID_ANGLE_UNIT ( ) );
#84 = DIMENSIONAL_EXPONENTS ( 1.000000000000000000, 0.000000000000000000, 0.000000000000000000, 0.000000000000000000, 0.000000000000000000, 0.000000000000000000, 0.000000000000000000 ) ;
#85 = VERTEX_POINT ( 'NONE', #249 ) ;
#86 = DIRECTION ( 'NONE',  ( 0.000000000000000000, 0.000000000000000000, -1.000000000000000000 ) ) ;
#87 = VERTEX_POINT ( 'NONE', #132 ) ;
#88 = SURFACE_STYLE_FILL_AREA ( #57 ) ;
#89 = CYLINDRICAL_SURFACE ( 'NONE', #50, 0.3750000000000000555 ) ;
#90 = DIRECTION ( 'NONE',  ( -0.000000000000000000, -1.000000000000000000, -0.000000000000000000 ) ) ;
#91 = EDGE_LOOP ( 'NONE', ( #283, #21, #188, #215 ) ) ;
#92 = VERTEX_POINT ( 'NONE', #282 ) ;
#93 = DIRECTION ( 'NONE',  ( 5.763043760693423160E-17, 1.000000000000000000, -0.000000000000000000 ) ) ;
#94 = EDGE_CURVE ( 'NONE', #42, #92, #212, .T. ) ;
#95 = CLOSED_SHELL ( 'NONE', ( #299, #231, #8, #138 ) ) ;
#96 = DIRECTION ( 'NONE',  ( 5.763043760693423160E-17, 1.000000000000000000, -0.000000000000000000 ) ) ;
#97 = SURFACE_STYLE_USAGE ( .BOTH. , #9 ) ;
#98 = CARTESIAN_POINT ( 'NONE',  ( 1.224646799147352714E-16, 3.000000000000000444, 0.000000000000000000 ) ) ;
#99 = VECTOR ( 'NONE', #90, 39.37007874015748143 ) ;
#100 = STYLED_ITEM ( 'NONE', ( #251 ), #245 ) ;
#101 =( NAMED_UNIT ( * ) PLANE_ANGLE_UNIT ( ) SI_UNIT ( $, .RADIAN. ) );
#102 = LINE ( 'NONE', #15, #148 ) ;
#103 = CARTESIAN_POINT ( 'NONE',  ( 0.000000000000000000, 0.000000000000000000, -0.3750000000000000555 ) ) ;
#104 = DIRECTION ( 'NONE',  ( -0.000000000000000000, -1.000000000000000000, -0.000000000000000000 ) ) ;
#105 =( GEOMETRIC_REPRESENTATION_CONTEXT ( 3 ) GLOBAL_UNCERTAINTY_ASSIGNED_CONTEXT ( ( #125 ) ) GLOBAL_UNIT_ASSIGNED_CONTEXT ( ( #247, #12, #24 ) ) REPRESENTATION_CONTEXT ( 'NONE', 'WORKASPACE' ) );
#106 = STYLED_ITEM ( 'NONE', ( #269 ), #206 ) ;
#107 = CARTESIAN_POINT ( 'NONE',  ( 0.000000000000000000, 0.000000000000000000, 0.000000000000000000 ) ) ;
#108 = CARTESIAN_POINT ( 'NONE',  ( 0.3750000000000000555, 0.8749999999999997780, 4.592425496802574219E-17 ) ) ;
#109 = ORIENTED_EDGE ( 'NONE', *, *, #122, .T. ) ;
#110 = CARTESIAN_POINT ( 'NONE',  ( -0.3749999999999998335, 3.000000000000000444, 0.000000000000000000 ) ) ;
#111 = CARTESIAN_POINT ( 'NONE',  ( -0.3750000000000000555, 0.8749999999999997780, 0.000000000000000000 ) ) ;
#112 = ORIENTED_EDGE ( 'NONE', *, *, #94, .T. ) ;
#113 = FILL_AREA_STYLE_COLOUR ( '', #47 ) ;
#114 = EDGE_CURVE ( 'NONE', #87, #280, #37, .T. ) ;
#115 = PRESENTATION_LAYER_ASSIGNMENT (  '', '', ( #106 ) ) ;
#116 =( NAMED_UNIT ( * ) PLANE_ANGLE_UNIT ( ) SI_UNIT ( $, .RADIAN. ) );
#117 = FILL_AREA_STYLE_COLOUR ( '', #219 ) ;
#118 = EDGE_CURVE ( 'NONE', #189, #87, #268, .T. ) ;
#119 = CARTESIAN_POINT ( 'NONE',  ( 0.000000000000000000, 0.000000000000000000, 0.000000000000000000 ) ) ;
#120 = DIRECTION ( 'NONE',  ( -1.000000000000000000, 0.000000000000000000, 0.000000000000000000 ) ) ;
#121 =( LENGTH_UNIT ( ) NAMED_UNIT ( * ) SI_UNIT ( $, .METRE. ) );
#122 = EDGE_CURVE ( 'NONE', #189, #85, #128, .T. ) ;
#123 = CIRCLE ( 'NONE', #14, 0.3750000000000000555 ) ;
#124 = COLOUR_RGB ( '',1.000000000000000000, 0.000000000000000000, 0.000000000000000000 ) ;
#125 = UNCERTAINTY_MEASURE_WITH_UNIT (LENGTH_MEASURE( 1.000000000000000082E-05 ), #247, 'distance_accuracy_value', 'NONE');
#126 = PLANE ( 'NONE',  #25 ) ;
#127 = CARTESIAN_POINT ( 'NONE',  ( 4.592425496802575451E-17, 0.000000000000000000, 0.3750000000000000555 ) ) ;
#128 = LINE ( 'NONE', #103, #74 ) ;
#129 = ORIENTED_EDGE ( 'NONE', *, *, #174, .T. ) ;
#130 = UNCERTAINTY_MEASURE_WITH_UNIT (LENGTH_MEASURE( 1.000000000000000082E-05 ), #303, 'distance_accuracy_value', 'NONE');
#131 = SURFACE_STYLE_USAGE ( .BOTH. , #20 ) ;
#132 = CARTESIAN_POINT ( 'NONE',  ( 4.592425496802575451E-17, 0.8750000000000000000, 0.3750000000000000555 ) ) ;
#133 = ORIENTED_EDGE ( 'NONE', *, *, #22, .T. ) ;
#134 = DIRECTION ( 'NONE',  ( -1.000000000000000000, 0.000000000000000000, 0.000000000000000000 ) ) ;
#135 = ORIENTED_EDGE ( 'NONE', *, *, #240, .F. ) ;
#136 = FACE_OUTER_BOUND ( 'NONE', #305, .T. ) ;
#137 = EDGE_LOOP ( 'NONE', ( #155, #234 ) ) ;
#138 = ADVANCED_FACE ( 'NONE', ( #136 ), #126, .F. ) ;
#139 = DIRECTION ( 'NONE',  ( -1.000000000000000000, 0.000000000000000000, 0.000000000000000000 ) ) ;
#140 = ADVANCED_BREP_SHAPE_REPRESENTATION ( '83208', ( #206, #195, #18 ), #73 ) ;
#141 = PRESENTATION_LAYER_ASSIGNMENT (  '', '', ( #264 ) ) ;
#142 = SURFACE_STYLE_USAGE ( .BOTH. , #220 ) ;
#143 = CARTESIAN_POINT ( 'NONE',  ( 0.000000000000000000, 0.000000000000000000, 0.000000000000000000 ) ) ;
#144 = CIRCLE ( 'NONE', #222, 0.3750000000000000555 ) ;
#145 = DIRECTION ( 'NONE',  ( 5.763043760693423160E-17, 1.000000000000000000, -0.000000000000000000 ) ) ;
#146 = SURFACE_STYLE_USAGE ( .BOTH. , #72 ) ;
#147 = AXIS2_PLACEMENT_3D ( 'NONE', #165, #76, #169 ) ;
#148 = VECTOR ( 'NONE', #36, 39.37007874015748143 ) ;
#149 =( NAMED_UNIT ( * ) SI_UNIT ( $, .STERADIAN. ) SOLID_ANGLE_UNIT ( ) );
#150 = UNCERTAINTY_MEASURE_WITH_UNIT (LENGTH_MEASURE( 1.000000000000000082E-05 ), #221, 'distance_accuracy_value', 'NONE');
#151 = CARTESIAN_POINT ( 'NONE',  ( 0.000000000000000000, 0.000000000000000000, 0.000000000000000000 ) ) ;
#152 = ORIENTED_EDGE ( 'NONE', *, *, #187, .F. ) ;
#153 = LENGTH_MEASURE_WITH_UNIT ( LENGTH_MEASURE( 0.02539999999999999897 ), #272 );
#154 = CARTESIAN_POINT ( 'NONE',  ( 0.3750000000000000555, 3.000000000000000444, 0.000000000000000000 ) ) ;
#155 = ORIENTED_EDGE ( 'NONE', *, *, #118, .F. ) ;
#156 = UNCERTAINTY_MEASURE_WITH_UNIT (LENGTH_MEASURE( 1.000000000000000082E-05 ), #235, 'distance_accuracy_value', 'NONE');
#157 = AXIS2_PLACEMENT_3D ( 'NONE', #279, #290, #139 ) ;
#158 = DIRECTION ( 'NONE',  ( 0.000000000000000000, 0.000000000000000000, -1.000000000000000000 ) ) ;
#159 = DIRECTION ( 'NONE',  ( -1.000000000000000000, 0.000000000000000000, 0.000000000000000000 ) ) ;
#160 = FILL_AREA_STYLE ('',( #185 ) ) ;
#161 = ADVANCED_FACE ( 'NONE', ( #304 ), #89, .T. ) ;
#162 = CYLINDRICAL_SURFACE ( 'NONE', #265, 0.3749999999999999445 ) ;
#163 = ORIENTED_EDGE ( 'NONE', *, *, #285, .T. ) ;
#164 = COLOUR_RGB ( '',1.000000000000000000, 0.000000000000000000, 0.000000000000000000 ) ;
#165 = CARTESIAN_POINT ( 'NONE',  ( 6.227376260187636056E-34, 0.8750000000000000000, 0.000000000000000000 ) ) ;
#166 = AXIS2_PLACEMENT_3D ( 'NONE', #98, #53, #194 ) ;
#167 = MECHANICAL_DESIGN_GEOMETRIC_PRESENTATION_REPRESENTATION (  '', ( #106 ), #75 ) ;
#168 = PLANE ( 'NONE',  #289 ) ;
#169 = DIRECTION ( 'NONE',  ( -1.000000000000000000, 5.763043760693423160E-17, 0.000000000000000000 ) ) ;
#170 = CARTESIAN_POINT ( 'NONE',  ( 0.000000000000000000, 0.8750000000000000000, -0.3750000000000000555 ) ) ;
#171 = SURFACE_STYLE_FILL_AREA ( #238 ) ;
#172 = PRESENTATION_LAYER_ASSIGNMENT (  '', '', ( #229 ) ) ;
#173 = MECHANICAL_DESIGN_GEOMETRIC_PRESENTATION_REPRESENTATION (  '', ( #211 ), #56 ) ;
#174 = EDGE_CURVE ( 'NONE', #253, #42, #144, .T. ) ;
#175 = CARTESIAN_POINT ( 'NONE',  ( 0.000000000000000000, 0.8749999999999997780, 0.000000000000000000 ) ) ;
#176 = CYLINDRICAL_SURFACE ( 'NONE', #7, 0.3750000000000000555 ) ;
#177 = PRESENTATION_LAYER_ASSIGNMENT (  '', '', ( #198 ) ) ;
#178 = FILL_AREA_STYLE ('',( #33 ) ) ;
#179 = EDGE_LOOP ( 'NONE', ( #232, #236, #28, #183 ) ) ;
#180 = UNCERTAINTY_MEASURE_WITH_UNIT (LENGTH_MEASURE( 1.000000000000000082E-05 ), #200, 'distance_accuracy_value', 'NONE');
#181 = SURFACE_STYLE_FILL_AREA ( #178 ) ;
#182 = PRODUCT ( '83208', '83208', '', ( #288 ) ) ;
#183 = ORIENTED_EDGE ( 'NONE', *, *, #94, .F. ) ;
#184 =( NAMED_UNIT ( * ) PLANE_ANGLE_UNIT ( ) SI_UNIT ( $, .RADIAN. ) );
#185 = FILL_AREA_STYLE_COLOUR ( '', #5 ) ;
#186 = VECTOR ( 'NONE', #284, 39.37007874015748143 ) ;
#187 = EDGE_CURVE ( 'NONE', #59, #92, #309, .T. ) ;
#188 = ORIENTED_EDGE ( 'NONE', *, *, #22, .F. ) ;
#189 = VERTEX_POINT ( 'NONE', #170 ) ;
#190 = FACE_OUTER_BOUND ( 'NONE', #66, .T. ) ;
#191 = FILL_AREA_STYLE_COLOUR ( '', #202 ) ;
#192 = FACE_OUTER_BOUND ( 'NONE', #44, .T. ) ;
#193 = MECHANICAL_DESIGN_GEOMETRIC_PRESENTATION_REPRESENTATION (  '', ( #100 ), #244 ) ;
#194 = DIRECTION ( 'NONE',  ( -1.000000000000000000, 0.000000000000000000, 0.000000000000000000 ) ) ;
#195 = MANIFOLD_SOLID_BREP ( 'Revolve - Tool Body (Straight Shanked)', #95 ) ;
#196 = FILL_AREA_STYLE ('',( #113 ) ) ;
#197 = CLOSED_SHELL ( 'NONE', ( #161, #267, #245, #29 ) ) ;
#198 = STYLED_ITEM ( 'NONE', ( #35 ), #267 ) ;
#199 =( LENGTH_UNIT ( ) NAMED_UNIT ( * ) SI_UNIT ( $, .METRE. ) );
#200 =( CONVERSION_BASED_UNIT ( 'INCH', #300 ) LENGTH_UNIT ( ) NAMED_UNIT ( #286 ) );
#201 = LENGTH_MEASURE_WITH_UNIT ( LENGTH_MEASURE( 0.02539999999999999897 ), #68 );
#202 = COLOUR_RGB ( '',1.000000000000000000, 0.000000000000000000, 0.000000000000000000 ) ;
#203 = AXIS2_PLACEMENT_3D ( 'NONE', #270, #96, #120 ) ;
#204 = DIRECTION ( 'NONE',  ( -0.000000000000000000, -1.000000000000000000, -0.000000000000000000 ) ) ;
#205 = DIRECTION ( 'NONE',  ( -0.000000000000000000, -1.000000000000000000, -0.000000000000000000 ) ) ;
#206 = MANIFOLD_SOLID_BREP ( 'Revolve - Cutting Edge', #197 ) ;
#207 = CARTESIAN_POINT ( 'NONE',  ( 0.000000000000000000, 0.8750000000000000000, 0.000000000000000000 ) ) ;
#208 = DIRECTION ( 'NONE',  ( -0.000000000000000000, -1.000000000000000000, -0.000000000000000000 ) ) ;
#209 =( NAMED_UNIT ( * ) SI_UNIT ( $, .STERADIAN. ) SOLID_ANGLE_UNIT ( ) );
#210 = CARTESIAN_POINT ( 'NONE',  ( 0.3750000000000000555, 3.000000000000000444, 4.592425496802574219E-17 ) ) ;
#211 = STYLED_ITEM ( 'NONE', ( #295 ), #195 ) ;
#212 = LINE ( 'NONE', #110, #186 ) ;
#213 = CARTESIAN_POINT ( 'NONE',  ( 1.224646799147352714E-16, 3.000000000000000444, 0.000000000000000000 ) ) ;
#214 =( LENGTH_UNIT ( ) NAMED_UNIT ( * ) SI_UNIT ( $, .METRE. ) );
#215 = ORIENTED_EDGE ( 'NONE', *, *, #122, .F. ) ;
#216 = DIMENSIONAL_EXPONENTS ( 1.000000000000000000, 0.000000000000000000, 0.000000000000000000, 0.000000000000000000, 0.000000000000000000, 0.000000000000000000, 0.000000000000000000 ) ;
#217 = APPLICATION_PROTOCOL_DEFINITION ( 'draft international standard', 'automotive_design', 1998, #10 ) ;
#218 =( NAMED_UNIT ( * ) SI_UNIT ( $, .STERADIAN. ) SOLID_ANGLE_UNIT ( ) );
#219 = COLOUR_RGB ( '',0.7921568627450980005, 0.8196078431372548767, 0.9333333333333333481 ) ;
#220 = SURFACE_SIDE_STYLE ('',( #171 ) ) ;
#221 =( CONVERSION_BASED_UNIT ( 'INCH', #11 ) LENGTH_UNIT ( ) NAMED_UNIT ( #216 ) );
#222 = AXIS2_PLACEMENT_3D ( 'NONE', #175, #145, #241 ) ;
#223 = DIRECTION ( 'NONE',  ( 0.000000000000000000, 1.000000000000000000, 0.000000000000000000 ) ) ;
#224 = PRESENTATION_STYLE_ASSIGNMENT (( #146 ) ) ;
#225 = PRODUCT_DEFINITION ( 'UNKNOWN', '', #291, #43 ) ;
#226 = DIRECTION ( 'NONE',  ( 0.000000000000000000, -0.000000000000000000, 1.000000000000000000 ) ) ;
#227 = SURFACE_SIDE_STYLE ('',( #258 ) ) ;
#228 = DIRECTION ( 'NONE',  ( 0.000000000000000000, 0.000000000000000000, -1.000000000000000000 ) ) ;
#229 = STYLED_ITEM ( 'NONE', ( #1 ), #161 ) ;
#230 = FACE_OUTER_BOUND ( 'NONE', #61, .T. ) ;
#231 = ADVANCED_FACE ( 'NONE', ( #192 ), #6, .F. ) ;
#232 = ORIENTED_EDGE ( 'NONE', *, *, #240, .T. ) ;
#233 = CARTESIAN_POINT ( 'NONE',  ( 0.000000000000000000, 0.000000000000000000, 0.000000000000000000 ) ) ;
#234 = ORIENTED_EDGE ( 'NONE', *, *, #285, .F. ) ;
#235 =( CONVERSION_BASED_UNIT ( 'INCH', #49 ) LENGTH_UNIT ( ) NAMED_UNIT ( #84 ) );
#236 = ORIENTED_EDGE ( 'NONE', *, *, #278, .T. ) ;
#237 = CIRCLE ( 'NONE', #78, 0.3750000000000000555 ) ;
#238 = FILL_AREA_STYLE ('',( #117 ) ) ;
#239 =( CONVERSION_BASED_UNIT ( 'INCH', #32 ) LENGTH_UNIT ( ) NAMED_UNIT ( #63 ) );
#240 = EDGE_CURVE ( 'NONE', #42, #253, #31, .T. ) ;
#241 = DIRECTION ( 'NONE',  ( -1.000000000000000000, 0.000000000000000000, 0.000000000000000000 ) ) ;
#242 =( LENGTH_UNIT ( ) NAMED_UNIT ( * ) SI_UNIT ( $, .METRE. ) );
#243 = MECHANICAL_DESIGN_GEOMETRIC_PRESENTATION_REPRESENTATION (  '', ( #229 ), #274 ) ;
#244 =( GEOMETRIC_REPRESENTATION_CONTEXT ( 3 ) GLOBAL_UNCERTAINTY_ASSIGNED_CONTEXT ( ( #180 ) ) GLOBAL_UNIT_ASSIGNED_CONTEXT ( ( #200, #82, #149 ) ) REPRESENTATION_CONTEXT ( 'NONE', 'WORKASPACE' ) );
#245 = ADVANCED_FACE ( 'NONE', ( #230 ), #176, .T. ) ;
#246 = SURFACE_SIDE_STYLE ('',( #88 ) ) ;
#247 =( CONVERSION_BASED_UNIT ( 'INCH', #58 ) LENGTH_UNIT ( ) NAMED_UNIT ( #266 ) );
#248 = FACE_OUTER_BOUND ( 'NONE', #137, .T. ) ;
#249 = CARTESIAN_POINT ( 'NONE',  ( 0.000000000000000000, 0.000000000000000000, -0.3750000000000000555 ) ) ;
#250 = FACE_OUTER_BOUND ( 'NONE', #277, .T. ) ;
#251 = PRESENTATION_STYLE_ASSIGNMENT (( #131 ) ) ;
#252 =( NAMED_UNIT ( * ) SI_UNIT ( $, .STERADIAN. ) SOLID_ANGLE_UNIT ( ) );
#253 = VERTEX_POINT ( 'NONE', #108 ) ;
#254 = AXIS2_PLACEMENT_3D ( 'NONE', #17, #204, #86 ) ;
#255 = DIRECTION ( 'NONE',  ( -0.000000000000000000, -1.000000000000000000, -0.000000000000000000 ) ) ;
#256 = DIRECTION ( 'NONE',  ( 0.000000000000000000, 0.000000000000000000, -1.000000000000000000 ) ) ;
#257 = CARTESIAN_POINT ( 'NONE',  ( 1.224646799147352714E-16, 3.000000000000000444, 0.000000000000000000 ) ) ;
#258 = SURFACE_STYLE_FILL_AREA ( #160 ) ;
#259 = CYLINDRICAL_SURFACE ( 'NONE', #62, 0.3749999999999999445 ) ;
#260 = APPLICATION_CONTEXT ( 'automotive_design' ) ;
#261 = DIRECTION ( 'NONE',  ( 0.000000000000000000, -1.000000000000000000, -0.000000000000000000 ) ) ;
#262 = ORIENTED_EDGE ( 'NONE', *, *, #292, .T. ) ;
#263 = PRODUCT_RELATED_PRODUCT_CATEGORY ( 'part', '', ( #182 ) ) ;
#264 = STYLED_ITEM ( 'NONE', ( #224 ), #29 ) ;
#265 = AXIS2_PLACEMENT_3D ( 'NONE', #257, #93, #134 ) ;
#266 = DIMENSIONAL_EXPONENTS ( 1.000000000000000000, 0.000000000000000000, 0.000000000000000000, 0.000000000000000000, 0.000000000000000000, 0.000000000000000000, 0.000000000000000000 ) ;
#267 = ADVANCED_FACE ( 'NONE', ( #248 ), #273, .T. ) ;
#268 = CIRCLE ( 'NONE', #54, 0.3750000000000000555 ) ;
#269 = PRESENTATION_STYLE_ASSIGNMENT (( #142 ) ) ;
#270 = CARTESIAN_POINT ( 'NONE',  ( 0.000000000000000000, 0.8749999999999997780, 0.000000000000000000 ) ) ;
#271 = PRESENTATION_LAYER_ASSIGNMENT (  '', '', ( #211 ) ) ;
#272 =( LENGTH_UNIT ( ) NAMED_UNIT ( * ) SI_UNIT ( $, .METRE. ) );
#273 = PLANE ( 'NONE',  #294 ) ;
#274 =( GEOMETRIC_REPRESENTATION_CONTEXT ( 3 ) GLOBAL_UNCERTAINTY_ASSIGNED_CONTEXT ( ( #275 ) ) GLOBAL_UNIT_ASSIGNED_CONTEXT ( ( #40, #276, #252 ) ) REPRESENTATION_CONTEXT ( 'NONE', 'WORKASPACE' ) );
#275 = UNCERTAINTY_MEASURE_WITH_UNIT (LENGTH_MEASURE( 1.000000000000000082E-05 ), #40, 'distance_accuracy_value', 'NONE');
#276 =( NAMED_UNIT ( * ) PLANE_ANGLE_UNIT ( ) SI_UNIT ( $, .RADIAN. ) );
#277 = EDGE_LOOP ( 'NONE', ( #46, #129, #112, #152 ) ) ;
#278 = EDGE_CURVE ( 'NONE', #253, #59, #102, .T. ) ;
#279 = CARTESIAN_POINT ( 'NONE',  ( 1.224646799147352714E-16, 3.000000000000000444, 0.000000000000000000 ) ) ;
#280 = VERTEX_POINT ( 'NONE', #127 ) ;
#281 = SHAPE_DEFINITION_REPRESENTATION ( #51, #140 ) ;
#282 = CARTESIAN_POINT ( 'NONE',  ( -0.3749999999999997780, 3.000000000000000444, 0.000000000000000000 ) ) ;
#283 = ORIENTED_EDGE ( 'NONE', *, *, #118, .T. ) ;
#284 = DIRECTION ( 'NONE',  ( 5.763043760693423160E-17, 1.000000000000000000, -0.000000000000000000 ) ) ;
#285 = EDGE_CURVE ( 'NONE', #87, #189, #27, .T. ) ;
#286 = DIMENSIONAL_EXPONENTS ( 1.000000000000000000, 0.000000000000000000, 0.000000000000000000, 0.000000000000000000, 0.000000000000000000, 0.000000000000000000, 0.000000000000000000 ) ;
#287 = ORIENTED_EDGE ( 'NONE', *, *, #187, .T. ) ;
#288 = PRODUCT_CONTEXT ( 'NONE', #10, 'mechanical' ) ;
#289 = AXIS2_PLACEMENT_3D ( 'NONE', #151, #261, #158 ) ;
#290 = DIRECTION ( 'NONE',  ( 5.763043760693423160E-17, 1.000000000000000000, -0.000000000000000000 ) ) ;
#291 = PRODUCT_DEFINITION_FORMATION_WITH_SPECIFIED_SOURCE ( 'ANY', '', #182, .NOT_KNOWN. ) ;
#292 = EDGE_CURVE ( 'NONE', #92, #59, #298, .T. ) ;
#293 = SURFACE_STYLE_FILL_AREA ( #77 ) ;
#294 = AXIS2_PLACEMENT_3D ( 'NONE', #39, #223, #226 ) ;
#295 = PRESENTATION_STYLE_ASSIGNMENT (( #97 ) ) ;
#296 =( LENGTH_UNIT ( ) NAMED_UNIT ( * ) SI_UNIT ( $, .METRE. ) );
#297 = SURFACE_STYLE_FILL_AREA ( #196 ) ;
#298 = CIRCLE ( 'NONE', #157, 0.3749999999999998890 ) ;
#299 = ADVANCED_FACE ( 'NONE', ( #67 ), #162, .T. ) ;
#300 = LENGTH_MEASURE_WITH_UNIT ( LENGTH_MEASURE( 0.02539999999999999897 ), #199 );
#301 = DIMENSIONAL_EXPONENTS ( 1.000000000000000000, 0.000000000000000000, 0.000000000000000000, 0.000000000000000000, 0.000000000000000000, 0.000000000000000000, 0.000000000000000000 ) ;
#302 = UNCERTAINTY_MEASURE_WITH_UNIT (LENGTH_MEASURE( 1.000000000000000082E-05 ), #239, 'distance_accuracy_value', 'NONE');
#303 =( CONVERSION_BASED_UNIT ( 'INCH', #153 ) LENGTH_UNIT ( ) NAMED_UNIT ( #306 ) );
#304 = FACE_OUTER_BOUND ( 'NONE', #91, .T. ) ;
#305 = EDGE_LOOP ( 'NONE', ( #262, #287 ) ) ;
#306 = DIMENSIONAL_EXPONENTS ( 1.000000000000000000, 0.000000000000000000, 0.000000000000000000, 0.000000000000000000, 0.000000000000000000, 0.000000000000000000, 0.000000000000000000 ) ;
#307 = DIRECTION ( 'NONE',  ( 0.000000000000000000, 0.000000000000000000, -1.000000000000000000 ) ) ;
#308 = CARTESIAN_POINT ( 'NONE',  ( 4.592425496802575451E-17, 0.000000000000000000, 0.3750000000000000555 ) ) ;
#309 = CIRCLE ( 'NONE', #166, 0.3749999999999998890 ) ;
ENDSEC;
END-ISO-10303-21;
