ISO-10303-21;
HEADER;
FILE_DESCRIPTION (( 'STEP AP214' ),
    '1' );
FILE_NAME ('82270.STEP',
    '2023-06-23T05:06:10',
    ( '' ),
    ( '' ),
    'SwSTEP 2.0',
    'SolidWorks 2023',
    '' );
FILE_SCHEMA (( 'AUTOMOTIVE_DESIGN' ));
ENDSEC;

DATA;
#1 = STYLED_ITEM ( 'NONE', ( #160 ), #182 ) ;
#2 = CYLINDRICAL_SURFACE ( 'NONE', #147, 0.2500000000000000000 ) ;
#3 =( CONVERSION_BASED_UNIT ( 'INCH', #214 ) LENGTH_UNIT ( ) NAMED_UNIT ( #300 ) );
#4 = CARTESIAN_POINT ( 'NONE',  ( 0.000000000000000000, 0.000000000000000000, -0.2500000000000000000 ) ) ;
#5 = COLOUR_RGB ( '',0.7921568627450980005, 0.8196078431372548767, 0.9333333333333333481 ) ;
#6 = ORIENTED_EDGE ( 'NONE', *, *, #303, .T. ) ;
#7 = ADVANCED_FACE ( 'NONE', ( #257 ), #234, .T. ) ;
#8 = FILL_AREA_STYLE ('',( #251 ) ) ;
#9 = EDGE_LOOP ( 'NONE', ( #272, #49, #193, #13 ) ) ;
#10 =( NAMED_UNIT ( * ) PLANE_ANGLE_UNIT ( ) SI_UNIT ( $, .RADIAN. ) );
#11 = PRESENTATION_STYLE_ASSIGNMENT (( #102 ) ) ;
#12 = CIRCLE ( 'NONE', #178, 0.2500000000000000000 ) ;
#13 = ORIENTED_EDGE ( 'NONE', *, *, #223, .F. ) ;
#14 = AXIS2_PLACEMENT_3D ( 'NONE', #85, #110, #202 ) ;
#15 = FILL_AREA_STYLE ('',( #226 ) ) ;
#16 = DIRECTION ( 'NONE',  ( -0.000000000000000000, -1.000000000000000000, -0.000000000000000000 ) ) ;
#17 = SURFACE_STYLE_USAGE ( .BOTH. , #18 ) ;
#18 = SURFACE_SIDE_STYLE ('',( #171 ) ) ;
#19 = DIMENSIONAL_EXPONENTS ( 1.000000000000000000, 0.000000000000000000, 0.000000000000000000, 0.000000000000000000, 0.000000000000000000, 0.000000000000000000, 0.000000000000000000 ) ;
#20 = ADVANCED_FACE ( 'NONE', ( #57 ), #169, .F. ) ;
#21 = CARTESIAN_POINT ( 'NONE',  ( 0.2500000000000000000, 2.500000000000000000, 3.061616997868382402E-17 ) ) ;
#22 = CARTESIAN_POINT ( 'NONE',  ( 0.000000000000000000, 0.000000000000000000, 0.000000000000000000 ) ) ;
#23 = VECTOR ( 'NONE', #235, 39.37007874015748143 ) ;
#24 =( NAMED_UNIT ( * ) PLANE_ANGLE_UNIT ( ) SI_UNIT ( $, .RADIAN. ) );
#25 = SURFACE_STYLE_FILL_AREA ( #238 ) ;
#26 = SURFACE_STYLE_FILL_AREA ( #91 ) ;
#27 = CARTESIAN_POINT ( 'NONE',  ( -0.2500000000000000000, 0.6250000000000000000, 0.000000000000000000 ) ) ;
#28 = SURFACE_STYLE_FILL_AREA ( #269 ) ;
#29 = CIRCLE ( 'NONE', #299, 0.2500000000000000000 ) ;
#30 = DIRECTION ( 'NONE',  ( -0.000000000000000000, -1.000000000000000000, -0.000000000000000000 ) ) ;
#31 = CARTESIAN_POINT ( 'NONE',  ( 0.000000000000000000, 0.6250000000000000000, -0.2500000000000000000 ) ) ;
#32 = VERTEX_POINT ( 'NONE', #21 ) ;
#33 = CARTESIAN_POINT ( 'NONE',  ( -0.2499999999999998890, 2.500000000000000000, 0.000000000000000000 ) ) ;
#34 = LENGTH_MEASURE_WITH_UNIT ( LENGTH_MEASURE( 0.02539999999999999897 ), #161 );
#35 = LINE ( 'NONE', #33, #307 ) ;
#36 = EDGE_LOOP ( 'NONE', ( #123, #126 ) ) ;
#37 = ADVANCED_FACE ( 'NONE', ( #197 ), #277, .T. ) ;
#38 = MECHANICAL_DESIGN_GEOMETRIC_PRESENTATION_REPRESENTATION (  '', ( #262 ), #204 ) ;
#39 =( NAMED_UNIT ( * ) PLANE_ANGLE_UNIT ( ) SI_UNIT ( $, .RADIAN. ) );
#40 = MECHANICAL_DESIGN_GEOMETRIC_PRESENTATION_REPRESENTATION (  '', ( #1 ), #302 ) ;
#41 = LINE ( 'NONE', #210, #23 ) ;
#42 = SURFACE_STYLE_FILL_AREA ( #73 ) ;
#43 = DIRECTION ( 'NONE',  ( -0.000000000000000000, -1.000000000000000000, -0.000000000000000000 ) ) ;
#44 = COLOUR_RGB ( '',0.7921568627450980005, 0.8196078431372548767, 0.9333333333333333481 ) ;
#45 = SURFACE_SIDE_STYLE ('',( #25 ) ) ;
#46 = STYLED_ITEM ( 'NONE', ( #89 ), #7 ) ;
#47 = CIRCLE ( 'NONE', #128, 0.2500000000000000000 ) ;
#48 = DIRECTION ( 'NONE',  ( -3.265724797726278260E-17, -1.000000000000000000, 0.000000000000000000 ) ) ;
#49 = ORIENTED_EDGE ( 'NONE', *, *, #86, .T. ) ;
#50 =( NAMED_UNIT ( * ) SI_UNIT ( $, .STERADIAN. ) SOLID_ANGLE_UNIT ( ) );
#51 = ORIENTED_EDGE ( 'NONE', *, *, #111, .F. ) ;
#52 = CLOSED_SHELL ( 'NONE', ( #144, #182, #140, #7 ) ) ;
#53 = EDGE_LOOP ( 'NONE', ( #88, #122 ) ) ;
#54 = CARTESIAN_POINT ( 'NONE',  ( 6.123233995736772199E-17, 2.500000000000000000, 0.000000000000000000 ) ) ;
#55 = SURFACE_STYLE_USAGE ( .BOTH. , #276 ) ;
#56 = LENGTH_MEASURE_WITH_UNIT ( LENGTH_MEASURE( 0.02539999999999999897 ), #100 );
#57 = FACE_OUTER_BOUND ( 'NONE', #162, .T. ) ;
#58 = AXIS2_PLACEMENT_3D ( 'NONE', #132, #231, #61 ) ;
#59 =( CONVERSION_BASED_UNIT ( 'INCH', #56 ) LENGTH_UNIT ( ) NAMED_UNIT ( #224 ) );
#60 = CARTESIAN_POINT ( 'NONE',  ( 0.000000000000000000, 0.000000000000000000, 0.000000000000000000 ) ) ;
#61 = DIRECTION ( 'NONE',  ( 0.000000000000000000, 0.000000000000000000, -1.000000000000000000 ) ) ;
#62 = MECHANICAL_DESIGN_GEOMETRIC_PRESENTATION_REPRESENTATION (  '', ( #173 ), #99 ) ;
#63 =( NAMED_UNIT ( * ) SI_UNIT ( $, .STERADIAN. ) SOLID_ANGLE_UNIT ( ) );
#64 =( NAMED_UNIT ( * ) PLANE_ANGLE_UNIT ( ) SI_UNIT ( $, .RADIAN. ) );
#65 =( CONVERSION_BASED_UNIT ( 'INCH', #301 ) LENGTH_UNIT ( ) NAMED_UNIT ( #306 ) );
#66 =( LENGTH_UNIT ( ) NAMED_UNIT ( * ) SI_UNIT ( $, .METRE. ) );
#67 =( NAMED_UNIT ( * ) SI_UNIT ( $, .STERADIAN. ) SOLID_ANGLE_UNIT ( ) );
#68 = CARTESIAN_POINT ( 'NONE',  ( 0.2500000000000000555, 2.500000000000000000, 3.061616997868382402E-17 ) ) ;
#69 =( CONVERSION_BASED_UNIT ( 'INCH', #287 ) LENGTH_UNIT ( ) NAMED_UNIT ( #282 ) );
#70 = UNCERTAINTY_MEASURE_WITH_UNIT (LENGTH_MEASURE( 1.000000000000000082E-05 ), #65, 'distance_accuracy_value', 'NONE');
#71 = DIRECTION ( 'NONE',  ( -0.000000000000000000, -1.000000000000000000, -0.000000000000000000 ) ) ;
#72 = AXIS2_PLACEMENT_3D ( 'NONE', #54, #172, #168 ) ;
#73 = FILL_AREA_STYLE ('',( #232 ) ) ;
#74 = UNCERTAINTY_MEASURE_WITH_UNIT (LENGTH_MEASURE( 1.000000000000000082E-05 ), #59, 'distance_accuracy_value', 'NONE');
#75 = APPLICATION_CONTEXT ( 'automotive_design' ) ;
#76 = DIRECTION ( 'NONE',  ( 0.000000000000000000, 0.000000000000000000, -1.000000000000000000 ) ) ;
#77 = PRODUCT_DEFINITION ( 'UNKNOWN', '', #280, #208 ) ;
#78 =( NAMED_UNIT ( * ) PLANE_ANGLE_UNIT ( ) SI_UNIT ( $, .RADIAN. ) );
#79 = AXIS2_PLACEMENT_3D ( 'NONE', #120, #48, #106 ) ;
#80 = FACE_OUTER_BOUND ( 'NONE', #36, .T. ) ;
#81 = FACE_OUTER_BOUND ( 'NONE', #53, .T. ) ;
#82 = VERTEX_POINT ( 'NONE', #27 ) ;
#83 = MECHANICAL_DESIGN_GEOMETRIC_PRESENTATION_REPRESENTATION (  '', ( #212 ), #143 ) ;
#84 = CARTESIAN_POINT ( 'NONE',  ( 0.000000000000000000, 0.000000000000000000, -0.2500000000000000000 ) ) ;
#85 = CARTESIAN_POINT ( 'NONE',  ( 1.333119806810542605E-34, 0.6250000000000000000, 0.000000000000000000 ) ) ;
#86 = EDGE_CURVE ( 'NONE', #101, #32, #263, .T. ) ;
#87 = AXIS2_PLACEMENT_3D ( 'NONE', #211, #43, #76 ) ;
#88 = ORIENTED_EDGE ( 'NONE', *, *, #266, .T. ) ;
#89 = PRESENTATION_STYLE_ASSIGNMENT (( #17 ) ) ;
#90 = AXIS2_PLACEMENT_3D ( 'NONE', #183, #157, #117 ) ;
#91 = FILL_AREA_STYLE ('',( #179 ) ) ;
#92 = DIRECTION ( 'NONE',  ( 3.265724797726278260E-17, 1.000000000000000000, -0.000000000000000000 ) ) ;
#93 = PRESENTATION_LAYER_ASSIGNMENT (  '', '', ( #46 ) ) ;
#94 = STYLED_ITEM ( 'NONE', ( #206 ), #140 ) ;
#95 = SURFACE_STYLE_USAGE ( .BOTH. , #180 ) ;
#96 = ORIENTED_EDGE ( 'NONE', *, *, #97, .T. ) ;
#97 = EDGE_CURVE ( 'NONE', #255, #109, #41, .T. ) ;
#98 = PRESENTATION_LAYER_ASSIGNMENT (  '', '', ( #262 ) ) ;
#99 =( GEOMETRIC_REPRESENTATION_CONTEXT ( 3 ) GLOBAL_UNCERTAINTY_ASSIGNED_CONTEXT ( ( #137 ) ) GLOBAL_UNIT_ASSIGNED_CONTEXT ( ( #163, #10, #256 ) ) REPRESENTATION_CONTEXT ( 'NONE', 'WORKASPACE' ) );
#100 =( LENGTH_UNIT ( ) NAMED_UNIT ( * ) SI_UNIT ( $, .METRE. ) );
#101 = VERTEX_POINT ( 'NONE', #181 ) ;
#102 = SURFACE_STYLE_USAGE ( .BOTH. , #253 ) ;
#103 = DIRECTION ( 'NONE',  ( 3.265724797726278260E-17, 1.000000000000000000, -0.000000000000000000 ) ) ;
#104 = COLOUR_RGB ( '',1.000000000000000000, 0.000000000000000000, 0.000000000000000000 ) ;
#105 = ORIENTED_EDGE ( 'NONE', *, *, #270, .T. ) ;
#106 = DIRECTION ( 'NONE',  ( 1.000000000000000000, -3.265724797726278260E-17, 0.000000000000000000 ) ) ;
#107 = LINE ( 'NONE', #84, #159 ) ;
#108 = EDGE_LOOP ( 'NONE', ( #198, #283 ) ) ;
#109 = VERTEX_POINT ( 'NONE', #305 ) ;
#110 = DIRECTION ( 'NONE',  ( 3.265724797726278260E-17, 1.000000000000000000, -0.000000000000000000 ) ) ;
#111 = EDGE_CURVE ( 'NONE', #149, #109, #29, .T. ) ;
#112 =( LENGTH_UNIT ( ) NAMED_UNIT ( * ) SI_UNIT ( $, .METRE. ) );
#113 = FACE_OUTER_BOUND ( 'NONE', #273, .T. ) ;
#114 =( GEOMETRIC_REPRESENTATION_CONTEXT ( 3 ) GLOBAL_UNCERTAINTY_ASSIGNED_CONTEXT ( ( #267 ) ) GLOBAL_UNIT_ASSIGNED_CONTEXT ( ( #268, #78, #244 ) ) REPRESENTATION_CONTEXT ( 'NONE', 'WORKASPACE' ) );
#115 = FACE_OUTER_BOUND ( 'NONE', #9, .T. ) ;
#116 = EDGE_CURVE ( 'NONE', #215, #255, #258, .T. ) ;
#117 = DIRECTION ( 'NONE',  ( -1.000000000000000000, 0.000000000000000000, 0.000000000000000000 ) ) ;
#118 = LENGTH_MEASURE_WITH_UNIT ( LENGTH_MEASURE( 0.02539999999999999897 ), #142 );
#119 = PRESENTATION_LAYER_ASSIGNMENT (  '', '', ( #94 ) ) ;
#120 = CARTESIAN_POINT ( 'NONE',  ( 0.2500000000000000000, 2.500000000000000000, 0.000000000000000000 ) ) ;
#121 = CARTESIAN_POINT ( 'NONE',  ( 0.000000000000000000, 0.6250000000000000000, 0.000000000000000000 ) ) ;
#122 = ORIENTED_EDGE ( 'NONE', *, *, #289, .T. ) ;
#123 = ORIENTED_EDGE ( 'NONE', *, *, #116, .F. ) ;
#124 = DIRECTION ( 'NONE',  ( 3.265724797726278260E-17, 1.000000000000000000, -0.000000000000000000 ) ) ;
#125 = ADVANCED_FACE ( 'NONE', ( #115 ), #309, .T. ) ;
#126 = ORIENTED_EDGE ( 'NONE', *, *, #200, .F. ) ;
#127 =( GEOMETRIC_REPRESENTATION_CONTEXT ( 3 ) GLOBAL_UNCERTAINTY_ASSIGNED_CONTEXT ( ( #70 ) ) GLOBAL_UNIT_ASSIGNED_CONTEXT ( ( #65, #39, #67 ) ) REPRESENTATION_CONTEXT ( 'NONE', 'WORKASPACE' ) );
#128 = AXIS2_PLACEMENT_3D ( 'NONE', #297, #243, #146 ) ;
#129 = SHAPE_DEFINITION_REPRESENTATION ( #240, #246 ) ;
#130 = CARTESIAN_POINT ( 'NONE',  ( 0.000000000000000000, 0.6250000000000000000, 0.000000000000000000 ) ) ;
#131 = ORIENTED_EDGE ( 'NONE', *, *, #303, .F. ) ;
#132 = CARTESIAN_POINT ( 'NONE',  ( 0.000000000000000000, 0.000000000000000000, 0.000000000000000000 ) ) ;
#133 = AXIS2_PLACEMENT_3D ( 'NONE', #60, #174, #203 ) ;
#134 = DIRECTION ( 'NONE',  ( -1.000000000000000000, 0.000000000000000000, 0.000000000000000000 ) ) ;
#135 =( NAMED_UNIT ( * ) PLANE_ANGLE_UNIT ( ) SI_UNIT ( $, .RADIAN. ) );
#136 = UNCERTAINTY_MEASURE_WITH_UNIT (LENGTH_MEASURE( 1.000000000000000082E-05 ), #69, 'distance_accuracy_value', 'NONE');
#137 = UNCERTAINTY_MEASURE_WITH_UNIT (LENGTH_MEASURE( 1.000000000000000082E-05 ), #163, 'distance_accuracy_value', 'NONE');
#138 = FILL_AREA_STYLE_COLOUR ( '', #196 ) ;
#139 = AXIS2_PLACEMENT_3D ( 'NONE', #239, #152, #261 ) ;
#140 = ADVANCED_FACE ( 'NONE', ( #113 ), #294, .T. ) ;
#141 = PRESENTATION_STYLE_ASSIGNMENT (( #155 ) ) ;
#142 =( LENGTH_UNIT ( ) NAMED_UNIT ( * ) SI_UNIT ( $, .METRE. ) );
#143 =( GEOMETRIC_REPRESENTATION_CONTEXT ( 3 ) GLOBAL_UNCERTAINTY_ASSIGNED_CONTEXT ( ( #136 ) ) GLOBAL_UNIT_ASSIGNED_CONTEXT ( ( #69, #24, #207 ) ) REPRESENTATION_CONTEXT ( 'NONE', 'WORKASPACE' ) );
#144 = ADVANCED_FACE ( 'NONE', ( #265 ), #2, .T. ) ;
#145 = ORIENTED_EDGE ( 'NONE', *, *, #200, .T. ) ;
#146 = DIRECTION ( 'NONE',  ( 0.000000000000000000, 0.000000000000000000, -1.000000000000000000 ) ) ;
#147 = AXIS2_PLACEMENT_3D ( 'NONE', #166, #30, #249 ) ;
#148 = ORIENTED_EDGE ( 'NONE', *, *, #217, .F. ) ;
#149 = VERTEX_POINT ( 'NONE', #4 ) ;
#150 = CIRCLE ( 'NONE', #236, 0.2500000000000000000 ) ;
#151 = LENGTH_MEASURE_WITH_UNIT ( LENGTH_MEASURE( 0.02539999999999999897 ), #66 );
#152 = DIRECTION ( 'NONE',  ( 3.265724797726278260E-17, 1.000000000000000000, -0.000000000000000000 ) ) ;
#153 = CIRCLE ( 'NONE', #274, 0.2500000000000000000 ) ;
#154 =( NAMED_UNIT ( * ) SI_UNIT ( $, .STERADIAN. ) SOLID_ANGLE_UNIT ( ) );
#155 = SURFACE_STYLE_USAGE ( .BOTH. , #45 ) ;
#156 = FILL_AREA_STYLE_COLOUR ( '', #245 ) ;
#157 = DIRECTION ( 'NONE',  ( 3.265724797726278260E-17, 1.000000000000000000, -0.000000000000000000 ) ) ;
#158 = MECHANICAL_DESIGN_GEOMETRIC_PRESENTATION_REPRESENTATION (  '', ( #94 ), #114 ) ;
#159 = VECTOR ( 'NONE', #16, 39.37007874015748143 ) ;
#160 = PRESENTATION_STYLE_ASSIGNMENT (( #55 ) ) ;
#161 =( LENGTH_UNIT ( ) NAMED_UNIT ( * ) SI_UNIT ( $, .METRE. ) );
#162 = EDGE_LOOP ( 'NONE', ( #164, #219 ) ) ;
#163 =( CONVERSION_BASED_UNIT ( 'INCH', #34 ) LENGTH_UNIT ( ) NAMED_UNIT ( #304 ) );
#164 = ORIENTED_EDGE ( 'NONE', *, *, #175, .F. ) ;
#165 = PRESENTATION_LAYER_ASSIGNMENT (  '', '', ( #1 ) ) ;
#166 = CARTESIAN_POINT ( 'NONE',  ( 0.000000000000000000, 0.000000000000000000, 0.000000000000000000 ) ) ;
#167 = VERTEX_POINT ( 'NONE', #218 ) ;
#168 = DIRECTION ( 'NONE',  ( -1.000000000000000000, 0.000000000000000000, 0.000000000000000000 ) ) ;
#169 = PLANE ( 'NONE',  #14 ) ;
#170 = PRODUCT_RELATED_PRODUCT_CATEGORY ( 'part', '', ( #186 ) ) ;
#171 = SURFACE_STYLE_FILL_AREA ( #15 ) ;
#172 = DIRECTION ( 'NONE',  ( 3.265724797726278260E-17, 1.000000000000000000, -0.000000000000000000 ) ) ;
#173 = STYLED_ITEM ( 'NONE', ( #11 ), #298 ) ;
#174 = DIRECTION ( 'NONE',  ( 0.000000000000000000, 0.000000000000000000, 1.000000000000000000 ) ) ;
#175 = EDGE_CURVE ( 'NONE', #82, #101, #153, .T. ) ;
#176 =( LENGTH_UNIT ( ) NAMED_UNIT ( * ) SI_UNIT ( $, .METRE. ) );
#177 = ORIENTED_EDGE ( 'NONE', *, *, #289, .F. ) ;
#178 = AXIS2_PLACEMENT_3D ( 'NONE', #308, #247, #189 ) ;
#179 = FILL_AREA_STYLE_COLOUR ( '', #5 ) ;
#180 = SURFACE_SIDE_STYLE ('',( #42 ) ) ;
#181 = CARTESIAN_POINT ( 'NONE',  ( 0.2500000000000000000, 0.6250000000000000000, 3.061616997868382402E-17 ) ) ;
#182 = ADVANCED_FACE ( 'NONE', ( #80 ), #194, .T. ) ;
#183 = CARTESIAN_POINT ( 'NONE',  ( 6.123233995736772199E-17, 2.500000000000000000, 0.000000000000000000 ) ) ;
#184 = DIRECTION ( 'NONE',  ( -0.000000000000000000, -1.000000000000000000, -0.000000000000000000 ) ) ;
#185 = AXIS2_PLACEMENT_3D ( 'NONE', #241, #205, #292 ) ;
#186 = PRODUCT ( '82270', '82270', '', ( #281 ) ) ;
#187 = SURFACE_SIDE_STYLE ('',( #28 ) ) ;
#188 = MANIFOLD_SOLID_BREP ( 'Revolve - Tool Body (Straight Shanked)', #284 ) ;
#189 = DIRECTION ( 'NONE',  ( 0.000000000000000000, 0.000000000000000000, -1.000000000000000000 ) ) ;
#190 =( NAMED_UNIT ( * ) PLANE_ANGLE_UNIT ( ) SI_UNIT ( $, .RADIAN. ) );
#191 = MECHANICAL_DESIGN_GEOMETRIC_PRESENTATION_REPRESENTATION (  '', ( #46 ), #127 ) ;
#192 = ORIENTED_EDGE ( 'NONE', *, *, #86, .F. ) ;
#193 = ORIENTED_EDGE ( 'NONE', *, *, #266, .F. ) ;
#194 = PLANE ( 'NONE',  #185 ) ;
#195 = UNCERTAINTY_MEASURE_WITH_UNIT (LENGTH_MEASURE( 1.000000000000000082E-05 ), #230, 'distance_accuracy_value', 'NONE');
#196 = COLOUR_RGB ( '',1.000000000000000000, 0.000000000000000000, 0.000000000000000000 ) ;
#197 = FACE_OUTER_BOUND ( 'NONE', #254, .T. ) ;
#198 = ORIENTED_EDGE ( 'NONE', *, *, #111, .T. ) ;
#199 = CIRCLE ( 'NONE', #72, 0.2499999999999999167 ) ;
#200 = EDGE_CURVE ( 'NONE', #255, #215, #12, .T. ) ;
#201 = APPLICATION_PROTOCOL_DEFINITION ( 'draft international standard', 'automotive_design', 1998, #75 ) ;
#202 = DIRECTION ( 'NONE',  ( -1.000000000000000000, 3.265724797726278260E-17, 0.000000000000000000 ) ) ;
#203 = DIRECTION ( 'NONE',  ( 1.000000000000000000, 0.000000000000000000, 0.000000000000000000 ) ) ;
#204 =( GEOMETRIC_REPRESENTATION_CONTEXT ( 3 ) GLOBAL_UNCERTAINTY_ASSIGNED_CONTEXT ( ( #264 ) ) GLOBAL_UNIT_ASSIGNED_CONTEXT ( ( #3, #190, #50 ) ) REPRESENTATION_CONTEXT ( 'NONE', 'WORKASPACE' ) );
#205 = DIRECTION ( 'NONE',  ( 0.000000000000000000, 1.000000000000000000, 0.000000000000000000 ) ) ;
#206 = PRESENTATION_STYLE_ASSIGNMENT (( #286 ) ) ;
#207 =( NAMED_UNIT ( * ) SI_UNIT ( $, .STERADIAN. ) SOLID_ANGLE_UNIT ( ) );
#208 = PRODUCT_DEFINITION_CONTEXT ( 'detailed design', #296, 'design' ) ;
#209 =( LENGTH_UNIT ( ) NAMED_UNIT ( * ) SI_UNIT ( $, .METRE. ) );
#210 = CARTESIAN_POINT ( 'NONE',  ( 3.061616997868383018E-17, 0.000000000000000000, 0.2500000000000000000 ) ) ;
#211 = CARTESIAN_POINT ( 'NONE',  ( 0.000000000000000000, 0.000000000000000000, 0.000000000000000000 ) ) ;
#212 = STYLED_ITEM ( 'NONE', ( #293 ), #188 ) ;
#213 =( GEOMETRIC_REPRESENTATION_CONTEXT ( 3 ) GLOBAL_UNCERTAINTY_ASSIGNED_CONTEXT ( ( #195 ) ) GLOBAL_UNIT_ASSIGNED_CONTEXT ( ( #230, #64, #63 ) ) REPRESENTATION_CONTEXT ( 'NONE', 'WORKASPACE' ) );
#214 = LENGTH_MEASURE_WITH_UNIT ( LENGTH_MEASURE( 0.02539999999999999897 ), #112 );
#215 = VERTEX_POINT ( 'NONE', #31 ) ;
#216 = AXIS2_PLACEMENT_3D ( 'NONE', #278, #259, #227 ) ;
#217 = EDGE_CURVE ( 'NONE', #109, #149, #47, .T. ) ;
#218 = CARTESIAN_POINT ( 'NONE',  ( -0.2499999999999998612, 2.500000000000000000, 0.000000000000000000 ) ) ;
#219 = ORIENTED_EDGE ( 'NONE', *, *, #270, .F. ) ;
#220 = PLANE ( 'NONE',  #79 ) ;
#221 = EDGE_LOOP ( 'NONE', ( #248, #96, #51, #131 ) ) ;
#222 = DIRECTION ( 'NONE',  ( 3.265724797726278260E-17, 1.000000000000000000, -0.000000000000000000 ) ) ;
#223 = EDGE_CURVE ( 'NONE', #82, #167, #35, .T. ) ;
#224 = DIMENSIONAL_EXPONENTS ( 1.000000000000000000, 0.000000000000000000, 0.000000000000000000, 0.000000000000000000, 0.000000000000000000, 0.000000000000000000, 0.000000000000000000 ) ;
#225 = VECTOR ( 'NONE', #92, 39.37007874015748143 ) ;
#226 = FILL_AREA_STYLE_COLOUR ( '', #229 ) ;
#227 = DIRECTION ( 'NONE',  ( -1.000000000000000000, 0.000000000000000000, 0.000000000000000000 ) ) ;
#228 = ADVANCED_FACE ( 'NONE', ( #81 ), #220, .F. ) ;
#229 = COLOUR_RGB ( '',1.000000000000000000, 0.000000000000000000, 0.000000000000000000 ) ;
#230 =( CONVERSION_BASED_UNIT ( 'INCH', #151 ) LENGTH_UNIT ( ) NAMED_UNIT ( #19 ) );
#231 = DIRECTION ( 'NONE',  ( 0.000000000000000000, -1.000000000000000000, -0.000000000000000000 ) ) ;
#232 = FILL_AREA_STYLE_COLOUR ( '', #44 ) ;
#233 = APPLICATION_PROTOCOL_DEFINITION ( 'draft international standard', 'automotive_design', 1998, #296 ) ;
#234 = PLANE ( 'NONE',  #58 ) ;
#235 = DIRECTION ( 'NONE',  ( -0.000000000000000000, -1.000000000000000000, -0.000000000000000000 ) ) ;
#236 = AXIS2_PLACEMENT_3D ( 'NONE', #130, #222, #134 ) ;
#237 = PRESENTATION_LAYER_ASSIGNMENT (  '', '', ( #173 ) ) ;
#238 = FILL_AREA_STYLE ('',( #138 ) ) ;
#239 = CARTESIAN_POINT ( 'NONE',  ( 6.123233995736772199E-17, 2.500000000000000000, 0.000000000000000000 ) ) ;
#240 = PRODUCT_DEFINITION_SHAPE ( 'NONE', 'NONE',  #77 ) ;
#241 = CARTESIAN_POINT ( 'NONE',  ( 0.000000000000000000, 0.6250000000000000000, 0.000000000000000000 ) ) ;
#242 = CARTESIAN_POINT ( 'NONE',  ( 0.000000000000000000, 0.6250000000000000000, 0.000000000000000000 ) ) ;
#243 = DIRECTION ( 'NONE',  ( -0.000000000000000000, -1.000000000000000000, -0.000000000000000000 ) ) ;
#244 =( NAMED_UNIT ( * ) SI_UNIT ( $, .STERADIAN. ) SOLID_ANGLE_UNIT ( ) );
#245 = COLOUR_RGB ( '',1.000000000000000000, 0.000000000000000000, 0.000000000000000000 ) ;
#246 = ADVANCED_BREP_SHAPE_REPRESENTATION ( '82270', ( #298, #188, #133 ), #213 ) ;
#247 = DIRECTION ( 'NONE',  ( -0.000000000000000000, -1.000000000000000000, -0.000000000000000000 ) ) ;
#248 = ORIENTED_EDGE ( 'NONE', *, *, #116, .T. ) ;
#249 = DIRECTION ( 'NONE',  ( 0.000000000000000000, 0.000000000000000000, -1.000000000000000000 ) ) ;
#250 = ORIENTED_EDGE ( 'NONE', *, *, #223, .T. ) ;
#251 = FILL_AREA_STYLE_COLOUR ( '', #104 ) ;
#252 = DIRECTION ( 'NONE',  ( -1.000000000000000000, 0.000000000000000000, 0.000000000000000000 ) ) ;
#253 = SURFACE_SIDE_STYLE ('',( #26 ) ) ;
#254 = EDGE_LOOP ( 'NONE', ( #192, #105, #250, #177 ) ) ;
#255 = VERTEX_POINT ( 'NONE', #275 ) ;
#256 =( NAMED_UNIT ( * ) SI_UNIT ( $, .STERADIAN. ) SOLID_ANGLE_UNIT ( ) );
#257 = FACE_OUTER_BOUND ( 'NONE', #108, .T. ) ;
#258 = CIRCLE ( 'NONE', #291, 0.2500000000000000000 ) ;
#259 = DIRECTION ( 'NONE',  ( 3.265724797726278260E-17, 1.000000000000000000, -0.000000000000000000 ) ) ;
#260 = DIMENSIONAL_EXPONENTS ( 1.000000000000000000, 0.000000000000000000, 0.000000000000000000, 0.000000000000000000, 0.000000000000000000, 0.000000000000000000, 0.000000000000000000 ) ;
#261 = DIRECTION ( 'NONE',  ( -1.000000000000000000, 0.000000000000000000, 0.000000000000000000 ) ) ;
#262 = STYLED_ITEM ( 'NONE', ( #141 ), #144 ) ;
#263 = LINE ( 'NONE', #68, #225 ) ;
#264 = UNCERTAINTY_MEASURE_WITH_UNIT (LENGTH_MEASURE( 1.000000000000000082E-05 ), #3, 'distance_accuracy_value', 'NONE');
#265 = FACE_OUTER_BOUND ( 'NONE', #221, .T. ) ;
#266 = EDGE_CURVE ( 'NONE', #167, #32, #199, .T. ) ;
#267 = UNCERTAINTY_MEASURE_WITH_UNIT (LENGTH_MEASURE( 1.000000000000000082E-05 ), #268, 'distance_accuracy_value', 'NONE');
#268 =( CONVERSION_BASED_UNIT ( 'INCH', #118 ) LENGTH_UNIT ( ) NAMED_UNIT ( #260 ) );
#269 = FILL_AREA_STYLE ('',( #156 ) ) ;
#270 = EDGE_CURVE ( 'NONE', #101, #82, #150, .T. ) ;
#271 = SURFACE_STYLE_FILL_AREA ( #8 ) ;
#272 = ORIENTED_EDGE ( 'NONE', *, *, #175, .T. ) ;
#273 = EDGE_LOOP ( 'NONE', ( #295, #145, #6, #148 ) ) ;
#274 = AXIS2_PLACEMENT_3D ( 'NONE', #121, #103, #252 ) ;
#275 = CARTESIAN_POINT ( 'NONE',  ( 3.061616997868383018E-17, 0.6250000000000000000, 0.2500000000000000000 ) ) ;
#276 = SURFACE_SIDE_STYLE ('',( #271 ) ) ;
#277 = CYLINDRICAL_SURFACE ( 'NONE', #216, 0.2499999999999999722 ) ;
#278 = CARTESIAN_POINT ( 'NONE',  ( 6.123233995736772199E-17, 2.500000000000000000, 0.000000000000000000 ) ) ;
#279 = CIRCLE ( 'NONE', #139, 0.2499999999999999167 ) ;
#280 = PRODUCT_DEFINITION_FORMATION_WITH_SPECIFIED_SOURCE ( 'ANY', '', #186, .NOT_KNOWN. ) ;
#281 = PRODUCT_CONTEXT ( 'NONE', #75, 'mechanical' ) ;
#282 = DIMENSIONAL_EXPONENTS ( 1.000000000000000000, 0.000000000000000000, 0.000000000000000000, 0.000000000000000000, 0.000000000000000000, 0.000000000000000000, 0.000000000000000000 ) ;
#283 = ORIENTED_EDGE ( 'NONE', *, *, #217, .T. ) ;
#284 = CLOSED_SHELL ( 'NONE', ( #125, #20, #37, #228 ) ) ;
#285 = PRESENTATION_LAYER_ASSIGNMENT (  '', '', ( #212 ) ) ;
#286 = SURFACE_STYLE_USAGE ( .BOTH. , #187 ) ;
#287 = LENGTH_MEASURE_WITH_UNIT ( LENGTH_MEASURE( 0.02539999999999999897 ), #209 );
#288 = DIRECTION ( 'NONE',  ( 0.000000000000000000, 0.000000000000000000, -1.000000000000000000 ) ) ;
#289 = EDGE_CURVE ( 'NONE', #32, #167, #279, .T. ) ;
#290 = DIRECTION ( 'NONE',  ( 0.000000000000000000, 0.000000000000000000, -1.000000000000000000 ) ) ;
#291 = AXIS2_PLACEMENT_3D ( 'NONE', #242, #71, #288 ) ;
#292 = DIRECTION ( 'NONE',  ( 0.000000000000000000, -0.000000000000000000, 1.000000000000000000 ) ) ;
#293 = PRESENTATION_STYLE_ASSIGNMENT (( #95 ) ) ;
#294 = CYLINDRICAL_SURFACE ( 'NONE', #87, 0.2500000000000000000 ) ;
#295 = ORIENTED_EDGE ( 'NONE', *, *, #97, .F. ) ;
#296 = APPLICATION_CONTEXT ( 'automotive_design' ) ;
#297 = CARTESIAN_POINT ( 'NONE',  ( 0.000000000000000000, 0.000000000000000000, 0.000000000000000000 ) ) ;
#298 = MANIFOLD_SOLID_BREP ( 'Revolve - Cutting Edge', #52 ) ;
#299 = AXIS2_PLACEMENT_3D ( 'NONE', #22, #184, #290 ) ;
#300 = DIMENSIONAL_EXPONENTS ( 1.000000000000000000, 0.000000000000000000, 0.000000000000000000, 0.000000000000000000, 0.000000000000000000, 0.000000000000000000, 0.000000000000000000 ) ;
#301 = LENGTH_MEASURE_WITH_UNIT ( LENGTH_MEASURE( 0.02539999999999999897 ), #176 );
#302 =( GEOMETRIC_REPRESENTATION_CONTEXT ( 3 ) GLOBAL_UNCERTAINTY_ASSIGNED_CONTEXT ( ( #74 ) ) GLOBAL_UNIT_ASSIGNED_CONTEXT ( ( #59, #135, #154 ) ) REPRESENTATION_CONTEXT ( 'NONE', 'WORKASPACE' ) );
#303 = EDGE_CURVE ( 'NONE', #215, #149, #107, .T. ) ;
#304 = DIMENSIONAL_EXPONENTS ( 1.000000000000000000, 0.000000000000000000, 0.000000000000000000, 0.000000000000000000, 0.000000000000000000, 0.000000000000000000, 0.000000000000000000 ) ;
#305 = CARTESIAN_POINT ( 'NONE',  ( 3.061616997868383018E-17, 0.000000000000000000, 0.2500000000000000000 ) ) ;
#306 = DIMENSIONAL_EXPONENTS ( 1.000000000000000000, 0.000000000000000000, 0.000000000000000000, 0.000000000000000000, 0.000000000000000000, 0.000000000000000000, 0.000000000000000000 ) ;
#307 = VECTOR ( 'NONE', #124, 39.37007874015748143 ) ;
#308 = CARTESIAN_POINT ( 'NONE',  ( 0.000000000000000000, 0.6250000000000000000, 0.000000000000000000 ) ) ;
#309 = CYLINDRICAL_SURFACE ( 'NONE', #90, 0.2499999999999999722 ) ;
ENDSEC;
END-ISO-10303-21;
