ISO-10303-21;
HEADER;
FILE_DESCRIPTION (( 'STEP AP214' ),
    '1' );
FILE_NAME ('59706.STEP',
    '2023-07-24T15:26:39',
    ( '' ),
    ( '' ),
    'SwSTEP 2.0',
    'SolidWorks 2023',
    '' );
FILE_SCHEMA (( 'AUTOMOTIVE_DESIGN' ));
ENDSEC;

DATA;
#1 = ORIENTED_EDGE ( 'NONE', *, *, #90, .F. ) ;
#2 = VERTEX_POINT ( 'NONE', #196 ) ;
#3 = CLOSED_SHELL ( 'NONE', ( #345, #234, #34, #17 ) ) ;
#4 = SURFACE_STYLE_FILL_AREA ( #343 ) ;
#5 = SURFACE_SIDE_STYLE ('',( #42 ) ) ;
#6 = VERTEX_POINT ( 'NONE', #249 ) ;
#7 = DIRECTION ( 'NONE',  ( 0.000000000000000000, 0.000000000000000000, -1.000000000000000000 ) ) ;
#8 =( GEOMETRIC_REPRESENTATION_CONTEXT ( 3 ) GLOBAL_UNCERTAINTY_ASSIGNED_CONTEXT ( ( #123 ) ) GLOBAL_UNIT_ASSIGNED_CONTEXT ( ( #228, #85, #313 ) ) REPRESENTATION_CONTEXT ( 'NONE', 'WORKASPACE' ) );
#9 = UNCERTAINTY_MEASURE_WITH_UNIT (LENGTH_MEASURE( 1.000000000000000082E-05 ), #233, 'distance_accuracy_value', 'NONE');
#10 = DIRECTION ( 'NONE',  ( 0.000000000000000000, 0.000000000000000000, -1.000000000000000000 ) ) ;
#11 = PRODUCT_DEFINITION ( 'UNKNOWN', '', #226, #348 ) ;
#12 = PRESENTATION_STYLE_ASSIGNMENT (( #271 ) ) ;
#13 = DIRECTION ( 'NONE',  ( -0.000000000000000000, -1.000000000000000000, -0.000000000000000000 ) ) ;
#14 = STYLED_ITEM ( 'NONE', ( #53 ), #209 ) ;
#15 = CIRCLE ( 'NONE', #69, 4.999999999999993783 ) ;
#16 = LINE ( 'NONE', #93, #201 ) ;
#17 = ADVANCED_FACE ( 'NONE', ( #138 ), #134, .F. ) ;
#18 = VERTEX_POINT ( 'NONE', #346 ) ;
#19 = CARTESIAN_POINT ( 'NONE',  ( 0.000000000000000000, 1.000000000000000000, 0.000000000000000000 ) ) ;
#20 = EDGE_LOOP ( 'NONE', ( #295, #132 ) ) ;
#21 = AXIS2_PLACEMENT_3D ( 'NONE', #105, #320, #289 ) ;
#22 = CIRCLE ( 'NONE', #29, 1.000000000000000000 ) ;
#23 = CARTESIAN_POINT ( 'NONE',  ( 4.898587196589412829E-16, 1.000000000000000000, 4.000000000000000000 ) ) ;
#24 = EDGE_LOOP ( 'NONE', ( #70, #311, #67, #183 ) ) ;
#25 = ADVANCED_FACE ( 'NONE', ( #292 ), #109, .T. ) ;
#26 = DIRECTION ( 'NONE',  ( -9.135657442593541248E-17, 1.000000000000000000, -0.000000000000000000 ) ) ;
#27 = CARTESIAN_POINT ( 'NONE',  ( 5.854691731421723944E-15, 15.00000000000000000, 0.000000000000000000 ) ) ;
#28 = APPLICATION_PROTOCOL_DEFINITION ( 'draft international standard', 'automotive_design', 1998, #187 ) ;
#29 = AXIS2_PLACEMENT_3D ( 'NONE', #23, #272, #280 ) ;
#30 = CYLINDRICAL_SURFACE ( 'NONE', #208, 4.999999999999995559 ) ;
#31 = COLOUR_RGB ( '',1.000000000000000000, 0.000000000000000000, 0.000000000000000000 ) ;
#32 = SURFACE_STYLE_USAGE ( .BOTH. , #169 ) ;
#33 = SURFACE_STYLE_FILL_AREA ( #170 ) ;
#34 = ADVANCED_FACE ( 'NONE', ( #224 ), #30, .T. ) ;
#35 = DIRECTION ( 'NONE',  ( -1.000000000000000000, 0.000000000000000000, 0.000000000000000000 ) ) ;
#36 = CIRCLE ( 'NONE', #329, 1.000000000000000000 ) ;
#37 = SURFACE_STYLE_USAGE ( .BOTH. , #296 ) ;
#38 = MECHANICAL_DESIGN_GEOMETRIC_PRESENTATION_REPRESENTATION (  '', ( #14 ), #117 ) ;
#39 =( GEOMETRIC_REPRESENTATION_CONTEXT ( 3 ) GLOBAL_UNCERTAINTY_ASSIGNED_CONTEXT ( ( #78 ) ) GLOBAL_UNIT_ASSIGNED_CONTEXT ( ( #265, #369, #286 ) ) REPRESENTATION_CONTEXT ( 'NONE', 'WORKASPACE' ) );
#40 = SURFACE_STYLE_USAGE ( .BOTH. , #65 ) ;
#41 = FILL_AREA_STYLE ('',( #206 ) ) ;
#42 = SURFACE_STYLE_FILL_AREA ( #41 ) ;
#43 = DIRECTION ( 'NONE',  ( -0.000000000000000000, -1.000000000000000000, -0.000000000000000000 ) ) ;
#44 = ORIENTED_EDGE ( 'NONE', *, *, #106, .F. ) ;
#45 = DIRECTION ( 'NONE',  ( -9.135657442593541248E-17, 1.000000000000000000, -0.000000000000000000 ) ) ;
#46 = AXIS2_PLACEMENT_3D ( 'NONE', #258, #287, #350 ) ;
#47 = COLOUR_RGB ( '',1.000000000000000000, 0.000000000000000000, 0.000000000000000000 ) ;
#48 = AXIS2_PLACEMENT_3D ( 'NONE', #27, #199, #135 ) ;
#49 = FACE_OUTER_BOUND ( 'NONE', #261, .T. ) ;
#50 = PRODUCT_DEFINITION_SHAPE ( 'NONE', 'NONE',  #11 ) ;
#51 = DIRECTION ( 'NONE',  ( 0.000000000000000000, 0.000000000000000000, -1.000000000000000000 ) ) ;
#52 = ORIENTED_EDGE ( 'NONE', *, *, #113, .T. ) ;
#53 = PRESENTATION_STYLE_ASSIGNMENT (( #124 ) ) ;
#54 = COLOUR_RGB ( '',1.000000000000000000, 0.000000000000000000, 0.000000000000000000 ) ;
#55 = AXIS2_PLACEMENT_3D ( 'NONE', #278, #360, #96 ) ;
#56 = ORIENTED_EDGE ( 'NONE', *, *, #120, .T. ) ;
#57 = FACE_OUTER_BOUND ( 'NONE', #336, .T. ) ;
#58 = DIRECTION ( 'NONE',  ( -1.000000000000000000, 0.000000000000000000, 0.000000000000000000 ) ) ;
#59 = STYLED_ITEM ( 'NONE', ( #12 ), #102 ) ;
#60 = SURFACE_STYLE_USAGE ( .BOTH. , #80 ) ;
#61 = SURFACE_STYLE_FILL_AREA ( #160 ) ;
#62 = FILL_AREA_STYLE_COLOUR ( '', #54 ) ;
#63 =( GEOMETRIC_REPRESENTATION_CONTEXT ( 3 ) GLOBAL_UNCERTAINTY_ASSIGNED_CONTEXT ( ( #152 ) ) GLOBAL_UNIT_ASSIGNED_CONTEXT ( ( #328, #181, #299 ) ) REPRESENTATION_CONTEXT ( 'NONE', 'WORKASPACE' ) );
#64 = UNCERTAINTY_MEASURE_WITH_UNIT (LENGTH_MEASURE( 1.000000000000000082E-05 ), #207, 'distance_accuracy_value', 'NONE');
#65 = SURFACE_SIDE_STYLE ('',( #176 ) ) ;
#66 = DIRECTION ( 'NONE',  ( 0.000000000000000000, 0.000000000000000000, -1.000000000000000000 ) ) ;
#67 = ORIENTED_EDGE ( 'NONE', *, *, #322, .T. ) ;
#68 = CIRCLE ( 'NONE', #274, 5.000000000000000000 ) ;
#69 = AXIS2_PLACEMENT_3D ( 'NONE', #364, #252, #140 ) ;
#70 = ORIENTED_EDGE ( 'NONE', *, *, #120, .F. ) ;
#71 = CARTESIAN_POINT ( 'NONE',  ( 0.000000000000000000, 1.000000000000000000, 0.000000000000000000 ) ) ;
#72 = VERTEX_POINT ( 'NONE', #316 ) ;
#73 =( NAMED_UNIT ( * ) SI_UNIT ( $, .STERADIAN. ) SOLID_ANGLE_UNIT ( ) );
#74 = CARTESIAN_POINT ( 'NONE',  ( 0.000000000000000000, 0.000000000000000000, 0.000000000000000000 ) ) ;
#75 = DIRECTION ( 'NONE',  ( -1.000000000000000000, 0.000000000000000000, 0.000000000000000000 ) ) ;
#76 = CARTESIAN_POINT ( 'NONE',  ( 0.000000000000000000, 15.00000000000000000, 0.000000000000000000 ) ) ;
#77 =( NAMED_UNIT ( * ) PLANE_ANGLE_UNIT ( ) SI_UNIT ( $, .RADIAN. ) );
#78 = UNCERTAINTY_MEASURE_WITH_UNIT (LENGTH_MEASURE( 1.000000000000000082E-05 ), #265, 'distance_accuracy_value', 'NONE');
#79 = DIRECTION ( 'NONE',  ( 0.000000000000000000, 0.000000000000000000, 1.000000000000000000 ) ) ;
#80 = SURFACE_SIDE_STYLE ('',( #61 ) ) ;
#81 = MECHANICAL_DESIGN_GEOMETRIC_PRESENTATION_REPRESENTATION (  '', ( #250 ), #130 ) ;
#82 = MECHANICAL_DESIGN_GEOMETRIC_PRESENTATION_REPRESENTATION (  '', ( #59 ), #178 ) ;
#83 = PRESENTATION_STYLE_ASSIGNMENT (( #32 ) ) ;
#84 = FILL_AREA_STYLE_COLOUR ( '', #323 ) ;
#85 =( NAMED_UNIT ( * ) PLANE_ANGLE_UNIT ( ) SI_UNIT ( $, .RADIAN. ) );
#86 =( NAMED_UNIT ( * ) PLANE_ANGLE_UNIT ( ) SI_UNIT ( $, .RADIAN. ) );
#87 = FILL_AREA_STYLE ('',( #179 ) ) ;
#88 = PRESENTATION_LAYER_ASSIGNMENT (  '', '', ( #330 ) ) ;
#89 = AXIS2_PLACEMENT_3D ( 'NONE', #74, #79, #200 ) ;
#90 = EDGE_CURVE ( 'NONE', #192, #215, #36, .T. ) ;
#91 = CARTESIAN_POINT ( 'NONE',  ( 0.000000000000000000, 0.000000000000000000, 0.000000000000000000 ) ) ;
#92 = AXIS2_PLACEMENT_3D ( 'NONE', #126, #212, #66 ) ;
#93 = CARTESIAN_POINT ( 'NONE',  ( -4.999999999999993783, 63.00000000000000000, 0.000000000000000000 ) ) ;
#94 = ADVANCED_FACE ( 'NONE', ( #352 ), #367, .T. ) ;
#95 = ORIENTED_EDGE ( 'NONE', *, *, #142, .F. ) ;
#96 = DIRECTION ( 'NONE',  ( -1.000000000000000000, -9.135657442593541248E-17, 0.000000000000000000 ) ) ;
#97 = VERTEX_POINT ( 'NONE', #141 ) ;
#98 = CIRCLE ( 'NONE', #351, 4.000000000000000000 ) ;
#99 = ADVANCED_FACE ( 'NONE', ( #353 ), #355, .T. ) ;
#100 = CIRCLE ( 'NONE', #48, 4.999999999999993783 ) ;
#101 = CARTESIAN_POINT ( 'NONE',  ( 0.000000000000000000, 1.000000000000000000, -5.000000000000000000 ) ) ;
#102 = ADVANCED_FACE ( 'NONE', ( #143 ), #131, .T. ) ;
#103 = DIRECTION ( 'NONE',  ( -0.000000000000000000, -1.000000000000000000, -0.000000000000000000 ) ) ;
#104 = FACE_OUTER_BOUND ( 'NONE', #361, .T. ) ;
#105 = CARTESIAN_POINT ( 'NONE',  ( 0.000000000000000000, 0.000000000000000000, 0.000000000000000000 ) ) ;
#106 = EDGE_CURVE ( 'NONE', #139, #215, #116, .T. ) ;
#107 = DIRECTION ( 'NONE',  ( -9.135657442593541248E-17, 1.000000000000000000, -0.000000000000000000 ) ) ;
#108 = MANIFOLD_SOLID_BREP ( 'Revolve - Cutting Edge', #147 ) ;
#109 = PLANE ( 'NONE',  #21 ) ;
#110 = ORIENTED_EDGE ( 'NONE', *, *, #365, .T. ) ;
#111 = CIRCLE ( 'NONE', #193, 5.000000000000000000 ) ;
#112 = CARTESIAN_POINT ( 'NONE',  ( -4.999999999999996447, 63.00000000000000000, 0.000000000000000000 ) ) ;
#113 = EDGE_CURVE ( 'NONE', #215, #139, #98, .T. ) ;
#114 = DIRECTION ( 'NONE',  ( 0.000000000000000000, 0.000000000000000000, -1.000000000000000000 ) ) ;
#115 = DIRECTION ( 'NONE',  ( -0.000000000000000000, -1.000000000000000000, -0.000000000000000000 ) ) ;
#116 = CIRCLE ( 'NONE', #337, 4.000000000000000000 ) ;
#117 =( GEOMETRIC_REPRESENTATION_CONTEXT ( 3 ) GLOBAL_UNCERTAINTY_ASSIGNED_CONTEXT ( ( #270 ) ) GLOBAL_UNIT_ASSIGNED_CONTEXT ( ( #358, #333, #242 ) ) REPRESENTATION_CONTEXT ( 'NONE', 'WORKASPACE' ) );
#118 = PRESENTATION_LAYER_ASSIGNMENT (  '', '', ( #344 ) ) ;
#119 = UNCERTAINTY_MEASURE_WITH_UNIT (LENGTH_MEASURE( 1.000000000000000082E-05 ), #161, 'distance_accuracy_value', 'NONE');
#120 = EDGE_CURVE ( 'NONE', #18, #301, #214, .T. ) ;
#121 = FACE_OUTER_BOUND ( 'NONE', #24, .T. ) ;
#122 = MECHANICAL_DESIGN_GEOMETRIC_PRESENTATION_REPRESENTATION (  '', ( #330 ), #304 ) ;
#123 = UNCERTAINTY_MEASURE_WITH_UNIT (LENGTH_MEASURE( 1.000000000000000082E-05 ), #228, 'distance_accuracy_value', 'NONE');
#124 = SURFACE_STYLE_USAGE ( .BOTH. , #190 ) ;
#125 = ORIENTED_EDGE ( 'NONE', *, *, #332, .F. ) ;
#126 = CARTESIAN_POINT ( 'NONE',  ( 0.000000000000000000, 0.000000000000000000, 0.000000000000000000 ) ) ;
#127 = EDGE_CURVE ( 'NONE', #301, #139, #22, .T. ) ;
#128 = ORIENTED_EDGE ( 'NONE', *, *, #332, .T. ) ;
#129 = CARTESIAN_POINT ( 'NONE',  ( 5.510910596163088569E-16, 0.000000000000000000, 4.000000000000000000 ) ) ;
#130 =( GEOMETRIC_REPRESENTATION_CONTEXT ( 3 ) GLOBAL_UNCERTAINTY_ASSIGNED_CONTEXT ( ( #354 ) ) GLOBAL_UNIT_ASSIGNED_CONTEXT ( ( #168, #77, #319 ) ) REPRESENTATION_CONTEXT ( 'NONE', 'WORKASPACE' ) );
#131 = TOROIDAL_SURFACE ( 'NONE', #251, 4.000000000000000000, 1.000000000000000000 ) ;
#132 = ORIENTED_EDGE ( 'NONE', *, *, #197, .T. ) ;
#133 =( NAMED_UNIT ( * ) PLANE_ANGLE_UNIT ( ) SI_UNIT ( $, .RADIAN. ) );
#134 = PLANE ( 'NONE',  #46 ) ;
#135 = DIRECTION ( 'NONE',  ( -1.000000000000000000, 0.000000000000000000, 0.000000000000000000 ) ) ;
#136 = CARTESIAN_POINT ( 'NONE',  ( 0.000000000000000000, 1.000000000000000000, -4.000000000000000000 ) ) ;
#137 = CARTESIAN_POINT ( 'NONE',  ( 1.469576158976823750E-15, 63.00000000000000000, 0.000000000000000000 ) ) ;
#138 = FACE_OUTER_BOUND ( 'NONE', #20, .T. ) ;
#139 = VERTEX_POINT ( 'NONE', #129 ) ;
#140 = DIRECTION ( 'NONE',  ( -1.000000000000000000, 0.000000000000000000, 0.000000000000000000 ) ) ;
#141 = CARTESIAN_POINT ( 'NONE',  ( -4.999999999999987566, 15.00000000000000000, 0.000000000000000000 ) ) ;
#142 = EDGE_CURVE ( 'NONE', #18, #72, #231, .T. ) ;
#143 = FACE_OUTER_BOUND ( 'NONE', #162, .T. ) ;
#144 = EDGE_LOOP ( 'NONE', ( #171, #56, #300, #217 ) ) ;
#145 = FILL_AREA_STYLE ('',( #331 ) ) ;
#146 = CARTESIAN_POINT ( 'NONE',  ( 0.000000000000000000, 0.000000000000000000, 0.000000000000000000 ) ) ;
#147 = CLOSED_SHELL ( 'NONE', ( #99, #94, #25, #102, #209, #245 ) ) ;
#148 = VECTOR ( 'NONE', #13, 1000.000000000000000 ) ;
#149 =( NAMED_UNIT ( * ) SI_UNIT ( $, .STERADIAN. ) SOLID_ANGLE_UNIT ( ) );
#150 = MECHANICAL_DESIGN_GEOMETRIC_PRESENTATION_REPRESENTATION (  '', ( #180 ), #186 ) ;
#151 = CARTESIAN_POINT ( 'NONE',  ( 0.000000000000000000, 0.000000000000000000, 0.000000000000000000 ) ) ;
#152 = UNCERTAINTY_MEASURE_WITH_UNIT (LENGTH_MEASURE( 1.000000000000000082E-05 ), #328, 'distance_accuracy_value', 'NONE');
#153 = CARTESIAN_POINT ( 'NONE',  ( 1.469576158976823750E-15, 63.00000000000000000, 0.000000000000000000 ) ) ;
#154 = EDGE_LOOP ( 'NONE', ( #185, #239, #191, #1 ) ) ;
#155 = ORIENTED_EDGE ( 'NONE', *, *, #254, .F. ) ;
#156 = MECHANICAL_DESIGN_GEOMETRIC_PRESENTATION_REPRESENTATION (  '', ( #259 ), #8 ) ;
#157 = AXIS2_PLACEMENT_3D ( 'NONE', #341, #366, #75 ) ;
#158 = PLANE ( 'NONE',  #55 ) ;
#159 = EDGE_LOOP ( 'NONE', ( #308, #241, #273, #321 ) ) ;
#160 = FILL_AREA_STYLE ('',( #338 ) ) ;
#161 =( LENGTH_UNIT ( ) NAMED_UNIT ( * ) SI_UNIT ( .MILLI., .METRE. ) );
#162 = EDGE_LOOP ( 'NONE', ( #182, #334, #282, #44 ) ) ;
#163 = DIRECTION ( 'NONE',  ( -0.000000000000000000, -1.000000000000000000, -0.000000000000000000 ) ) ;
#164 = DIRECTION ( 'NONE',  ( -1.000000000000000000, 0.000000000000000000, 0.000000000000000000 ) ) ;
#165 = DIRECTION ( 'NONE',  ( 0.000000000000000000, 0.000000000000000000, 1.000000000000000000 ) ) ;
#166 = COLOUR_RGB ( '',1.000000000000000000, 0.000000000000000000, 0.000000000000000000 ) ;
#167 = AXIS2_PLACEMENT_3D ( 'NONE', #246, #220, #291 ) ;
#168 =( LENGTH_UNIT ( ) NAMED_UNIT ( * ) SI_UNIT ( .MILLI., .METRE. ) );
#169 = SURFACE_SIDE_STYLE ('',( #257 ) ) ;
#170 = FILL_AREA_STYLE ('',( #84 ) ) ;
#171 = ORIENTED_EDGE ( 'NONE', *, *, #263, .T. ) ;
#172 = SURFACE_STYLE_USAGE ( .BOTH. , #202 ) ;
#173 = MECHANICAL_DESIGN_GEOMETRIC_PRESENTATION_REPRESENTATION (  '', ( #342 ), #63 ) ;
#174 = CARTESIAN_POINT ( 'NONE',  ( 0.000000000000000000, 1.000000000000000000, 0.000000000000000000 ) ) ;
#175 = EDGE_CURVE ( 'NONE', #97, #256, #16, .T. ) ;
#176 = SURFACE_STYLE_FILL_AREA ( #145 ) ;
#177 = SURFACE_STYLE_FILL_AREA ( #87 ) ;
#178 =( GEOMETRIC_REPRESENTATION_CONTEXT ( 3 ) GLOBAL_UNCERTAINTY_ASSIGNED_CONTEXT ( ( #9 ) ) GLOBAL_UNIT_ASSIGNED_CONTEXT ( ( #233, #86, #149 ) ) REPRESENTATION_CONTEXT ( 'NONE', 'WORKASPACE' ) );
#179 = FILL_AREA_STYLE_COLOUR ( '', #166 ) ;
#180 = STYLED_ITEM ( 'NONE', ( #248 ), #237 ) ;
#181 =( NAMED_UNIT ( * ) PLANE_ANGLE_UNIT ( ) SI_UNIT ( $, .RADIAN. ) );
#182 = ORIENTED_EDGE ( 'NONE', *, *, #127, .F. ) ;
#183 = ORIENTED_EDGE ( 'NONE', *, *, #203, .F. ) ;
#184 = CARTESIAN_POINT ( 'NONE',  ( 0.000000000000000000, 0.000000000000000000, -4.000000000000000000 ) ) ;
#185 = ORIENTED_EDGE ( 'NONE', *, *, #188, .T. ) ;
#186 =( GEOMETRIC_REPRESENTATION_CONTEXT ( 3 ) GLOBAL_UNCERTAINTY_ASSIGNED_CONTEXT ( ( #119 ) ) GLOBAL_UNIT_ASSIGNED_CONTEXT ( ( #161, #223, #73 ) ) REPRESENTATION_CONTEXT ( 'NONE', 'WORKASPACE' ) );
#187 = APPLICATION_CONTEXT ( 'automotive_design' ) ;
#188 = EDGE_CURVE ( 'NONE', #192, #301, #68, .T. ) ;
#189 = CARTESIAN_POINT ( 'NONE',  ( 0.000000000000000000, 15.00000000000000000, 0.000000000000000000 ) ) ;
#190 = SURFACE_SIDE_STYLE ('',( #363 ) ) ;
#191 = ORIENTED_EDGE ( 'NONE', *, *, #113, .F. ) ;
#192 = VERTEX_POINT ( 'NONE', #101 ) ;
#193 = AXIS2_PLACEMENT_3D ( 'NONE', #19, #216, #51 ) ;
#194 = CIRCLE ( 'NONE', #157, 4.999999999999998224 ) ;
#195 = LINE ( 'NONE', #312, #268 ) ;
#196 = CARTESIAN_POINT ( 'NONE',  ( 5.000000000000000000, 63.00000000000000000, 6.123233995736762338E-16 ) ) ;
#197 = EDGE_CURVE ( 'NONE', #2, #256, #357, .T. ) ;
#198 = APPLICATION_PROTOCOL_DEFINITION ( 'draft international standard', 'automotive_design', 1998, #229 ) ;
#199 = DIRECTION ( 'NONE',  ( -9.135657442593541248E-17, 1.000000000000000000, -0.000000000000000000 ) ) ;
#200 = DIRECTION ( 'NONE',  ( 1.000000000000000000, 0.000000000000000000, 0.000000000000000000 ) ) ;
#201 = VECTOR ( 'NONE', #211, 1000.000000000000000 ) ;
#202 = SURFACE_SIDE_STYLE ('',( #33 ) ) ;
#203 = EDGE_CURVE ( 'NONE', #301, #192, #111, .T. ) ;
#204 = AXIS2_PLACEMENT_3D ( 'NONE', #230, #269, #10 ) ;
#205 = AXIS2_PLACEMENT_3D ( 'NONE', #76, #227, #218 ) ;
#206 = FILL_AREA_STYLE_COLOUR ( '', #47 ) ;
#207 =( LENGTH_UNIT ( ) NAMED_UNIT ( * ) SI_UNIT ( .MILLI., .METRE. ) );
#208 = AXIS2_PLACEMENT_3D ( 'NONE', #294, #26, #35 ) ;
#209 = ADVANCED_FACE ( 'NONE', ( #121 ), #240, .T. ) ;
#210 = DIRECTION ( 'NONE',  ( -0.000000000000000000, -1.000000000000000000, -0.000000000000000000 ) ) ;
#211 = DIRECTION ( 'NONE',  ( -9.135657442593541248E-17, 1.000000000000000000, -0.000000000000000000 ) ) ;
#212 = DIRECTION ( 'NONE',  ( -0.000000000000000000, -1.000000000000000000, -0.000000000000000000 ) ) ;
#213 = PLANE ( 'NONE',  #167 ) ;
#214 = LINE ( 'NONE', #339, #148 ) ;
#215 = VERTEX_POINT ( 'NONE', #184 ) ;
#216 = DIRECTION ( 'NONE',  ( -0.000000000000000000, -1.000000000000000000, -0.000000000000000000 ) ) ;
#217 = ORIENTED_EDGE ( 'NONE', *, *, #322, .F. ) ;
#218 = DIRECTION ( 'NONE',  ( 0.000000000000000000, 0.000000000000000000, -1.000000000000000000 ) ) ;
#219 = SURFACE_STYLE_USAGE ( .BOTH. , #247 ) ;
#220 = DIRECTION ( 'NONE',  ( 0.000000000000000000, 1.000000000000000000, 0.000000000000000000 ) ) ;
#221 = UNCERTAINTY_MEASURE_WITH_UNIT (LENGTH_MEASURE( 1.000000000000000082E-05 ), #318, 'distance_accuracy_value', 'NONE');
#222 = CARTESIAN_POINT ( 'NONE',  ( 6.123233995736766282E-16, 1.000000000000000000, 5.000000000000000000 ) ) ;
#223 =( NAMED_UNIT ( * ) PLANE_ANGLE_UNIT ( ) SI_UNIT ( $, .RADIAN. ) );
#224 = FACE_OUTER_BOUND ( 'NONE', #159, .T. ) ;
#225 = AXIS2_PLACEMENT_3D ( 'NONE', #153, #45, #307 ) ;
#226 = PRODUCT_DEFINITION_FORMATION_WITH_SPECIFIED_SOURCE ( 'ANY', '', #302, .NOT_KNOWN. ) ;
#227 = DIRECTION ( 'NONE',  ( -0.000000000000000000, -1.000000000000000000, -0.000000000000000000 ) ) ;
#228 =( LENGTH_UNIT ( ) NAMED_UNIT ( * ) SI_UNIT ( .MILLI., .METRE. ) );
#229 = APPLICATION_CONTEXT ( 'automotive_design' ) ;
#230 = CARTESIAN_POINT ( 'NONE',  ( 0.000000000000000000, 1.000000000000000000, 0.000000000000000000 ) ) ;
#231 = CIRCLE ( 'NONE', #284, 5.000000000000000000 ) ;
#232 = AXIS2_PLACEMENT_3D ( 'NONE', #137, #347, #164 ) ;
#233 =( LENGTH_UNIT ( ) NAMED_UNIT ( * ) SI_UNIT ( .MILLI., .METRE. ) );
#234 = ADVANCED_FACE ( 'NONE', ( #49 ), #158, .F. ) ;
#235 = COLOUR_RGB ( '',1.000000000000000000, 0.000000000000000000, 0.000000000000000000 ) ;
#236 = FILL_AREA_STYLE_COLOUR ( '', #235 ) ;
#237 = MANIFOLD_SOLID_BREP ( 'Revolve - Tool Body (Straight Shanked)', #3 ) ;
#238 = FILL_AREA_STYLE ('',( #236 ) ) ;
#239 = ORIENTED_EDGE ( 'NONE', *, *, #127, .T. ) ;
#240 = CYLINDRICAL_SURFACE ( 'NONE', #92, 5.000000000000000000 ) ;
#241 = ORIENTED_EDGE ( 'NONE', *, *, #254, .T. ) ;
#242 =( NAMED_UNIT ( * ) SI_UNIT ( $, .STERADIAN. ) SOLID_ANGLE_UNIT ( ) );
#243 = PRESENTATION_LAYER_ASSIGNMENT (  '', '', ( #59 ) ) ;
#244 = PRODUCT_CONTEXT ( 'NONE', #187, 'mechanical' ) ;
#245 = ADVANCED_FACE ( 'NONE', ( #57 ), #213, .T. ) ;
#246 = CARTESIAN_POINT ( 'NONE',  ( 0.000000000000000000, 15.00000000000000000, 0.000000000000000000 ) ) ;
#247 = SURFACE_SIDE_STYLE ('',( #4 ) ) ;
#248 = PRESENTATION_STYLE_ASSIGNMENT (( #60 ) ) ;
#249 = CARTESIAN_POINT ( 'NONE',  ( 5.000000000000000000, 15.00000000000000000, 6.123233995736762338E-16 ) ) ;
#250 = STYLED_ITEM ( 'NONE', ( #255 ), #25 ) ;
#251 = AXIS2_PLACEMENT_3D ( 'NONE', #174, #356, #297 ) ;
#252 = DIRECTION ( 'NONE',  ( -9.135657442593541248E-17, 1.000000000000000000, -0.000000000000000000 ) ) ;
#253 = PRESENTATION_STYLE_ASSIGNMENT (( #219 ) ) ;
#254 = EDGE_CURVE ( 'NONE', #6, #97, #15, .T. ) ;
#255 = PRESENTATION_STYLE_ASSIGNMENT (( #172 ) ) ;
#256 = VERTEX_POINT ( 'NONE', #112 ) ;
#257 = SURFACE_STYLE_FILL_AREA ( #349 ) ;
#258 = CARTESIAN_POINT ( 'NONE',  ( 5.000000000000000000, 63.00000000000000000, 0.000000000000000000 ) ) ;
#259 = STYLED_ITEM ( 'NONE', ( #253 ), #94 ) ;
#260 = PRESENTATION_LAYER_ASSIGNMENT (  '', '', ( #342 ) ) ;
#261 = EDGE_LOOP ( 'NONE', ( #125, #155 ) ) ;
#262 =( GEOMETRIC_REPRESENTATION_CONTEXT ( 3 ) GLOBAL_UNCERTAINTY_ASSIGNED_CONTEXT ( ( #221 ) ) GLOBAL_UNIT_ASSIGNED_CONTEXT ( ( #318, #133, #293 ) ) REPRESENTATION_CONTEXT ( 'NONE', 'WORKASPACE' ) );
#263 = EDGE_CURVE ( 'NONE', #72, #18, #306, .T. ) ;
#264 =( NAMED_UNIT ( * ) SI_UNIT ( $, .STERADIAN. ) SOLID_ANGLE_UNIT ( ) );
#265 =( LENGTH_UNIT ( ) NAMED_UNIT ( * ) SI_UNIT ( .MILLI., .METRE. ) );
#266 = PRESENTATION_STYLE_ASSIGNMENT (( #40 ) ) ;
#267 = COLOUR_RGB ( '',0.7921568627450980005, 0.8196078431372548767, 0.9333333333333333481 ) ;
#268 = VECTOR ( 'NONE', #163, 1000.000000000000000 ) ;
#269 = DIRECTION ( 'NONE',  ( -0.000000000000000000, -1.000000000000000000, -0.000000000000000000 ) ) ;
#270 = UNCERTAINTY_MEASURE_WITH_UNIT (LENGTH_MEASURE( 1.000000000000000082E-05 ), #358, 'distance_accuracy_value', 'NONE');
#271 = SURFACE_STYLE_USAGE ( .BOTH. , #5 ) ;
#272 = DIRECTION ( 'NONE',  ( 1.000000000000000000, 0.000000000000000000, -1.224646799147353207E-16 ) ) ;
#273 = ORIENTED_EDGE ( 'NONE', *, *, #175, .T. ) ;
#274 = AXIS2_PLACEMENT_3D ( 'NONE', #71, #103, #305 ) ;
#275 = DIRECTION ( 'NONE',  ( 0.000000000000000000, 0.000000000000000000, -1.000000000000000000 ) ) ;
#276 = MECHANICAL_DESIGN_GEOMETRIC_PRESENTATION_REPRESENTATION (  '', ( #344 ), #262 ) ;
#277 = ORIENTED_EDGE ( 'NONE', *, *, #281, .F. ) ;
#278 = CARTESIAN_POINT ( 'NONE',  ( 5.854691731421723944E-15, 15.00000000000000000, 0.000000000000000000 ) ) ;
#279 = ORIENTED_EDGE ( 'NONE', *, *, #106, .T. ) ;
#280 = DIRECTION ( 'NONE',  ( -1.224646799147353454E-16, 0.000000000000000000, -1.000000000000000000 ) ) ;
#281 = EDGE_CURVE ( 'NONE', #256, #2, #194, .T. ) ;
#282 = ORIENTED_EDGE ( 'NONE', *, *, #90, .T. ) ;
#283 = DIRECTION ( 'NONE',  ( -0.000000000000000000, -1.000000000000000000, -0.000000000000000000 ) ) ;
#284 = AXIS2_PLACEMENT_3D ( 'NONE', #189, #43, #335 ) ;
#285 = VECTOR ( 'NONE', #107, 1000.000000000000000 ) ;
#286 =( NAMED_UNIT ( * ) SI_UNIT ( $, .STERADIAN. ) SOLID_ANGLE_UNIT ( ) );
#287 = DIRECTION ( 'NONE',  ( 9.135657442593541248E-17, -1.000000000000000000, 0.000000000000000000 ) ) ;
#288 = LINE ( 'NONE', #370, #285 ) ;
#289 = DIRECTION ( 'NONE',  ( 0.000000000000000000, 0.000000000000000000, -1.000000000000000000 ) ) ;
#290 = PRESENTATION_LAYER_ASSIGNMENT (  '', '', ( #14 ) ) ;
#291 = DIRECTION ( 'NONE',  ( 0.000000000000000000, -0.000000000000000000, 1.000000000000000000 ) ) ;
#292 = FACE_OUTER_BOUND ( 'NONE', #359, .T. ) ;
#293 =( NAMED_UNIT ( * ) SI_UNIT ( $, .STERADIAN. ) SOLID_ANGLE_UNIT ( ) );
#294 = CARTESIAN_POINT ( 'NONE',  ( 1.469576158976823750E-15, 63.00000000000000000, 0.000000000000000000 ) ) ;
#295 = ORIENTED_EDGE ( 'NONE', *, *, #281, .T. ) ;
#296 = SURFACE_SIDE_STYLE ('',( #177 ) ) ;
#297 = DIRECTION ( 'NONE',  ( 0.000000000000000000, 0.000000000000000000, -1.000000000000000000 ) ) ;
#298 = PRESENTATION_STYLE_ASSIGNMENT (( #37 ) ) ;
#299 =( NAMED_UNIT ( * ) SI_UNIT ( $, .STERADIAN. ) SOLID_ANGLE_UNIT ( ) );
#300 = ORIENTED_EDGE ( 'NONE', *, *, #188, .F. ) ;
#301 = VERTEX_POINT ( 'NONE', #222 ) ;
#302 = PRODUCT ( '59706', '59706', '', ( #244 ) ) ;
#303 = PRESENTATION_LAYER_ASSIGNMENT (  '', '', ( #250 ) ) ;
#304 =( GEOMETRIC_REPRESENTATION_CONTEXT ( 3 ) GLOBAL_UNCERTAINTY_ASSIGNED_CONTEXT ( ( #64 ) ) GLOBAL_UNIT_ASSIGNED_CONTEXT ( ( #207, #326, #264 ) ) REPRESENTATION_CONTEXT ( 'NONE', 'WORKASPACE' ) );
#305 = DIRECTION ( 'NONE',  ( 0.000000000000000000, 0.000000000000000000, -1.000000000000000000 ) ) ;
#306 = CIRCLE ( 'NONE', #205, 5.000000000000000000 ) ;
#307 = DIRECTION ( 'NONE',  ( -1.000000000000000000, 0.000000000000000000, 0.000000000000000000 ) ) ;
#308 = ORIENTED_EDGE ( 'NONE', *, *, #365, .F. ) ;
#309 = FILL_AREA_STYLE_COLOUR ( '', #31 ) ;
#310 = COLOUR_RGB ( '',0.7921568627450980005, 0.8196078431372548767, 0.9333333333333333481 ) ;
#311 = ORIENTED_EDGE ( 'NONE', *, *, #142, .T. ) ;
#312 = CARTESIAN_POINT ( 'NONE',  ( 0.000000000000000000, 0.000000000000000000, -5.000000000000000000 ) ) ;
#313 =( NAMED_UNIT ( * ) SI_UNIT ( $, .STERADIAN. ) SOLID_ANGLE_UNIT ( ) );
#314 = PRODUCT_RELATED_PRODUCT_CATEGORY ( 'part', '', ( #302 ) ) ;
#315 = CYLINDRICAL_SURFACE ( 'NONE', #232, 4.999999999999995559 ) ;
#316 = CARTESIAN_POINT ( 'NONE',  ( 0.000000000000000000, 15.00000000000000000, -5.000000000000000000 ) ) ;
#317 = SHAPE_DEFINITION_REPRESENTATION ( #50, #327 ) ;
#318 =( LENGTH_UNIT ( ) NAMED_UNIT ( * ) SI_UNIT ( .MILLI., .METRE. ) );
#319 =( NAMED_UNIT ( * ) SI_UNIT ( $, .STERADIAN. ) SOLID_ANGLE_UNIT ( ) );
#320 = DIRECTION ( 'NONE',  ( 0.000000000000000000, -1.000000000000000000, -0.000000000000000000 ) ) ;
#321 = ORIENTED_EDGE ( 'NONE', *, *, #197, .F. ) ;
#322 = EDGE_CURVE ( 'NONE', #72, #192, #195, .T. ) ;
#323 = COLOUR_RGB ( '',1.000000000000000000, 0.000000000000000000, 0.000000000000000000 ) ;
#324 = PRESENTATION_LAYER_ASSIGNMENT (  '', '', ( #259 ) ) ;
#325 = PRESENTATION_LAYER_ASSIGNMENT (  '', '', ( #180 ) ) ;
#326 =( NAMED_UNIT ( * ) PLANE_ANGLE_UNIT ( ) SI_UNIT ( $, .RADIAN. ) );
#327 = ADVANCED_BREP_SHAPE_REPRESENTATION ( '59706', ( #108, #237, #89 ), #39 ) ;
#328 =( LENGTH_UNIT ( ) NAMED_UNIT ( * ) SI_UNIT ( .MILLI., .METRE. ) );
#329 = AXIS2_PLACEMENT_3D ( 'NONE', #136, #58, #165 ) ;
#330 = STYLED_ITEM ( 'NONE', ( #298 ), #99 ) ;
#331 = FILL_AREA_STYLE_COLOUR ( '', #267 ) ;
#332 = EDGE_CURVE ( 'NONE', #97, #6, #100, .T. ) ;
#333 =( NAMED_UNIT ( * ) PLANE_ANGLE_UNIT ( ) SI_UNIT ( $, .RADIAN. ) );
#334 = ORIENTED_EDGE ( 'NONE', *, *, #203, .T. ) ;
#335 = DIRECTION ( 'NONE',  ( 0.000000000000000000, 0.000000000000000000, -1.000000000000000000 ) ) ;
#336 = EDGE_LOOP ( 'NONE', ( #368, #95 ) ) ;
#337 = AXIS2_PLACEMENT_3D ( 'NONE', #91, #210, #7 ) ;
#338 = FILL_AREA_STYLE_COLOUR ( '', #310 ) ;
#339 = CARTESIAN_POINT ( 'NONE',  ( 6.123233995736766282E-16, 0.000000000000000000, 5.000000000000000000 ) ) ;
#340 = ORIENTED_EDGE ( 'NONE', *, *, #175, .F. ) ;
#341 = CARTESIAN_POINT ( 'NONE',  ( 1.469576158976823750E-15, 63.00000000000000000, 0.000000000000000000 ) ) ;
#342 = STYLED_ITEM ( 'NONE', ( #266 ), #108 ) ;
#343 = FILL_AREA_STYLE ('',( #62 ) ) ;
#344 = STYLED_ITEM ( 'NONE', ( #83 ), #245 ) ;
#345 = ADVANCED_FACE ( 'NONE', ( #104 ), #315, .T. ) ;
#346 = CARTESIAN_POINT ( 'NONE',  ( 6.123233995736766282E-16, 15.00000000000000000, 5.000000000000000000 ) ) ;
#347 = DIRECTION ( 'NONE',  ( -9.135657442593541248E-17, 1.000000000000000000, -0.000000000000000000 ) ) ;
#348 = PRODUCT_DEFINITION_CONTEXT ( 'detailed design', #229, 'design' ) ;
#349 = FILL_AREA_STYLE ('',( #309 ) ) ;
#350 = DIRECTION ( 'NONE',  ( 1.000000000000000000, 9.135657442593541248E-17, 0.000000000000000000 ) ) ;
#351 = AXIS2_PLACEMENT_3D ( 'NONE', #146, #283, #275 ) ;
#352 = FACE_OUTER_BOUND ( 'NONE', #154, .T. ) ;
#353 = FACE_OUTER_BOUND ( 'NONE', #144, .T. ) ;
#354 = UNCERTAINTY_MEASURE_WITH_UNIT (LENGTH_MEASURE( 1.000000000000000082E-05 ), #168, 'distance_accuracy_value', 'NONE');
#355 = CYLINDRICAL_SURFACE ( 'NONE', #362, 5.000000000000000000 ) ;
#356 = DIRECTION ( 'NONE',  ( -0.000000000000000000, -1.000000000000000000, -0.000000000000000000 ) ) ;
#357 = CIRCLE ( 'NONE', #225, 4.999999999999998224 ) ;
#358 =( LENGTH_UNIT ( ) NAMED_UNIT ( * ) SI_UNIT ( .MILLI., .METRE. ) );
#359 = EDGE_LOOP ( 'NONE', ( #52, #279 ) ) ;
#360 = DIRECTION ( 'NONE',  ( -9.135657442593541248E-17, 1.000000000000000000, 0.000000000000000000 ) ) ;
#361 = EDGE_LOOP ( 'NONE', ( #128, #110, #277, #340 ) ) ;
#362 = AXIS2_PLACEMENT_3D ( 'NONE', #151, #115, #114 ) ;
#363 = SURFACE_STYLE_FILL_AREA ( #238 ) ;
#364 = CARTESIAN_POINT ( 'NONE',  ( 5.854691731421723944E-15, 15.00000000000000000, 0.000000000000000000 ) ) ;
#365 = EDGE_CURVE ( 'NONE', #6, #2, #288, .T. ) ;
#366 = DIRECTION ( 'NONE',  ( -9.135657442593541248E-17, 1.000000000000000000, -0.000000000000000000 ) ) ;
#367 = TOROIDAL_SURFACE ( 'NONE', #204, 4.000000000000000000, 1.000000000000000000 ) ;
#368 = ORIENTED_EDGE ( 'NONE', *, *, #263, .F. ) ;
#369 =( NAMED_UNIT ( * ) PLANE_ANGLE_UNIT ( ) SI_UNIT ( $, .RADIAN. ) );
#370 = CARTESIAN_POINT ( 'NONE',  ( 4.999999999999997335, 63.00000000000000000, 6.123233995736761352E-16 ) ) ;
ENDSEC;
END-ISO-10303-21;
