ISO-10303-21;
HEADER;
FILE_DESCRIPTION (( 'STEP AP214' ),
    '1' );
FILE_NAME ('Micro_SEM-156-03.STEP',
    '2021-09-02T01:49:29',
    ( '' ),
    ( '' ),
    'SwSTEP 2.0',
    'SolidWorks 2020',
    '' );
FILE_SCHEMA (( 'AUTOMOTIVE_DESIGN' ));
ENDSEC;

DATA;
#1 = COLOUR_RGB ( '',0.7921568627450980005, 0.8196078431372548767, 0.9333333333333333481 ) ;
#2 = ORIENTED_EDGE ( 'NONE', *, *, #204, .T. ) ;
#3 = LINE ( 'NONE', #36, #32 ) ;
#4 =( CONVERSION_BASED_UNIT ( 'INCH', #275 ) LENGTH_UNIT ( ) NAMED_UNIT ( #102 ) );
#5 = ADVANCED_FACE ( 'NONE', ( #233 ), #55, .T. ) ;
#6 =( NAMED_UNIT ( * ) SI_UNIT ( $, .STERADIAN. ) SOLID_ANGLE_UNIT ( ) );
#7 = AXIS2_PLACEMENT_3D ( 'NONE', #10, #289, #163 ) ;
#8 = VERTEX_POINT ( 'NONE', #101 ) ;
#9 = FILL_AREA_STYLE ('',( #255 ) ) ;
#10 = CARTESIAN_POINT ( 'NONE',  ( 0.0000000000000000000, 0.0000000000000000000, 0.0000000000000000000 ) ) ;
#11 = AXIS2_PLACEMENT_3D ( 'NONE', #69, #22, #223 ) ;
#12 =( GEOMETRIC_REPRESENTATION_CONTEXT ( 3 ) GLOBAL_UNCERTAINTY_ASSIGNED_CONTEXT ( ( #116 ) ) GLOBAL_UNIT_ASSIGNED_CONTEXT ( ( #47, #72, #45 ) ) REPRESENTATION_CONTEXT ( 'NONE', 'WORKASPACE' ) );
#13 = DIRECTION ( 'NONE',  ( -1.224646799147353454E-16, -0.0000000000000000000, -1.000000000000000000 ) ) ;
#14 = EDGE_LOOP ( 'NONE', ( #186, #266, #31, #17 ) ) ;
#15 = EDGE_CURVE ( 'NONE', #286, #294, #146, .T. ) ;
#16 = CARTESIAN_POINT ( 'NONE',  ( 0.0000000000000000000, 0.0000000000000000000, 1.500000000000000222 ) ) ;
#17 = ORIENTED_EDGE ( 'NONE', *, *, #15, .F. ) ;
#18 = DIMENSIONAL_EXPONENTS ( 1.000000000000000000, 0.0000000000000000000, 0.0000000000000000000, 0.0000000000000000000, 0.0000000000000000000, 0.0000000000000000000, 0.0000000000000000000 ) ;
#19 = ADVANCED_FACE ( 'NONE', ( #263 ), #118, .T. ) ;
#20 =( CONVERSION_BASED_UNIT ( 'INCH', #244 ) LENGTH_UNIT ( ) NAMED_UNIT ( #18 ) );
#21 = AXIS2_PLACEMENT_3D ( 'NONE', #177, #64, #246 ) ;
#22 = DIRECTION ( 'NONE',  ( 0.0000000000000000000, 0.0000000000000000000, 1.000000000000000000 ) ) ;
#23 = DIRECTION ( 'NONE',  ( 1.224646799147353454E-16, 0.0000000000000000000, 1.000000000000000000 ) ) ;
#24 = AXIS2_PLACEMENT_3D ( 'NONE', #16, #99, #258 ) ;
#25 = ORIENTED_EDGE ( 'NONE', *, *, #287, .T. ) ;
#26 = CIRCLE ( 'NONE', #127, 0.07802190000000000514 ) ;
#27 = ORIENTED_EDGE ( 'NONE', *, *, #49, .T. ) ;
#28 = EDGE_CURVE ( 'NONE', #291, #98, #293, .T. ) ;
#29 = DIRECTION ( 'NONE',  ( 1.000000000000000000, 0.0000000000000000000, 0.0000000000000000000 ) ) ;
#30 = ORIENTED_EDGE ( 'NONE', *, *, #87, .F. ) ;
#31 = ORIENTED_EDGE ( 'NONE', *, *, #235, .F. ) ;
#32 = VECTOR ( 'NONE', #173, 39.37007874015748143 ) ;
#33 = DIRECTION ( 'NONE',  ( -1.000000000000000000, 0.0000000000000000000, 0.0000000000000000000 ) ) ;
#34 =( GEOMETRIC_REPRESENTATION_CONTEXT ( 3 ) GLOBAL_UNCERTAINTY_ASSIGNED_CONTEXT ( ( #180 ) ) GLOBAL_UNIT_ASSIGNED_CONTEXT ( ( #4, #227, #6 ) ) REPRESENTATION_CONTEXT ( 'NONE', 'WORKASPACE' ) );
#35 = FILL_AREA_STYLE_COLOUR ( '', #77 ) ;
#36 = CARTESIAN_POINT ( 'NONE',  ( 0.07875000000000061118, 9.644093543285480678E-18, 1.500000000000000222 ) ) ;
#37 = DIRECTION ( 'NONE',  ( 0.0000000000000000000, 0.0000000000000000000, -1.000000000000000000 ) ) ;
#38 = DIRECTION ( 'NONE',  ( -1.224646799147353454E-16, -0.0000000000000000000, -1.000000000000000000 ) ) ;
#39 = DIRECTION ( 'NONE',  ( -1.224646799147353454E-16, -0.0000000000000000000, -1.000000000000000000 ) ) ;
#40 = DIRECTION ( 'NONE',  ( 1.224646799147353454E-16, 0.0000000000000000000, 1.000000000000000000 ) ) ;
#41 = AXIS2_PLACEMENT_3D ( 'NONE', #50, #37, #281 ) ;
#42 = DIRECTION ( 'NONE',  ( -1.000000000000000000, 0.0000000000000000000, 0.0000000000000000000 ) ) ;
#43 = ADVANCED_FACE ( 'NONE', ( #191 ), #242, .T. ) ;
#44 = CARTESIAN_POINT ( 'NONE',  ( 4.925510904454838295E-17, 0.0000000000000000000, 0.4021984875871287279 ) ) ;
#45 =( NAMED_UNIT ( * ) SI_UNIT ( $, .STERADIAN. ) SOLID_ANGLE_UNIT ( ) );
#46 = CIRCLE ( 'NONE', #166, 0.09375000000000001388 ) ;
#47 =( CONVERSION_BASED_UNIT ( 'INCH', #283 ) LENGTH_UNIT ( ) NAMED_UNIT ( #106 ) );
#48 = DIRECTION ( 'NONE',  ( -1.224646799147353454E-16, -0.0000000000000000000, -1.000000000000000000 ) ) ;
#49 = EDGE_CURVE ( 'NONE', #298, #144, #195, .T. ) ;
#50 = CARTESIAN_POINT ( 'NONE',  ( 0.0000000000000000000, 0.0000000000000000000, 1.485000000000000986 ) ) ;
#51 = CONICAL_SURFACE ( 'NONE', #216, 0.07875000000000061118, 0.7853981633974562726 ) ;
#52 = VERTEX_POINT ( 'NONE', #53 ) ;
#53 = CARTESIAN_POINT ( 'NONE',  ( 0.07875000000000061118, 1.056257864264595965E-17, 1.500000000000000222 ) ) ;
#54 = CARTESIAN_POINT ( 'NONE',  ( 0.0000000000000000000, 0.0000000000000000000, 0.0000000000000000000 ) ) ;
#55 = CYLINDRICAL_SURFACE ( 'NONE', #284, 0.07802190000000000514 ) ;
#56 = CIRCLE ( 'NONE', #230, 0.07802190000000000514 ) ;
#57 = SURFACE_SIDE_STYLE ('',( #150 ) ) ;
#58 = APPLICATION_CONTEXT ( 'automotive_design' ) ;
#59 = CARTESIAN_POINT ( 'NONE',  ( 3.833144481331216295E-17, 0.0000000000000000000, 0.3130000000000000004 ) ) ;
#60 = CARTESIAN_POINT ( 'NONE',  ( 0.09375000000000001388, 1.148106374200643401E-17, 1.485000000000000986 ) ) ;
#61 = VECTOR ( 'NONE', #181, 39.37007874015747433 ) ;
#62 = SURFACE_STYLE_USAGE ( .BOTH. , #57 ) ;
#63 = CARTESIAN_POINT ( 'NONE',  ( 0.07802190000000004677, 0.0000000000000000000, 0.3130000000000000004 ) ) ;
#64 = DIRECTION ( 'NONE',  ( 0.0000000000000000000, 0.0000000000000000000, 1.000000000000000000 ) ) ;
#65 = DIRECTION ( 'NONE',  ( -1.000000000000000000, 0.0000000000000000000, 0.0000000000000000000 ) ) ;
#66 = ADVANCED_FACE ( 'NONE', ( #267 ), #271, .T. ) ;
#67 = VECTOR ( 'NONE', #13, 39.37007874015748143 ) ;
#68 = VECTOR ( 'NONE', #261, 39.37007874015748143 ) ;
#69 = CARTESIAN_POINT ( 'NONE',  ( 0.0000000000000000000, 0.0000000000000000000, 1.500000000000000222 ) ) ;
#70 = ADVANCED_FACE ( 'NONE', ( #239 ), #51, .T. ) ;
#71 = ORIENTED_EDGE ( 'NONE', *, *, #199, .F. ) ;
#72 =( NAMED_UNIT ( * ) PLANE_ANGLE_UNIT ( ) SI_UNIT ( $, .RADIAN. ) );
#73 = AXIS2_PLACEMENT_3D ( 'NONE', #174, #90, #112 ) ;
#74 = ORIENTED_EDGE ( 'NONE', *, *, #295, .F. ) ;
#75 = EDGE_CURVE ( 'NONE', #286, #238, #212, .T. ) ;
#76 = ORIENTED_EDGE ( 'NONE', *, *, #295, .T. ) ;
#77 = COLOUR_RGB ( '',0.7921568627450980005, 0.8196078431372548767, 0.9333333333333333481 ) ;
#78 = ORIENTED_EDGE ( 'NONE', *, *, #199, .T. ) ;
#79 = DIRECTION ( 'NONE',  ( -1.224646799147353454E-16, -0.0000000000000000000, -1.000000000000000000 ) ) ;
#80 = CIRCLE ( 'NONE', #73, 0.07802190000000000514 ) ;
#81 = DIRECTION ( 'NONE',  ( 1.000000000000000000, 0.0000000000000000000, 0.0000000000000000000 ) ) ;
#82 = PRODUCT_CONTEXT ( 'NONE', #253, 'mechanical' ) ;
#83 = EDGE_LOOP ( 'NONE', ( #215, #142, #202, #237 ) ) ;
#84 = DIRECTION ( 'NONE',  ( 1.000000000000000000, 0.0000000000000000000, 0.0000000000000000000 ) ) ;
#85 = VECTOR ( 'NONE', #108, 39.37007874015748143 ) ;
#86 = FACE_OUTER_BOUND ( 'NONE', #214, .T. ) ;
#87 = EDGE_CURVE ( 'NONE', #286, #291, #56, .T. ) ;
#88 = CARTESIAN_POINT ( 'NONE',  ( 0.0000000000000000000, 0.0000000000000000000, 1.500000000000000222 ) ) ;
#89 =( LENGTH_UNIT ( ) NAMED_UNIT ( * ) SI_UNIT ( $, .METRE. ) );
#90 = DIRECTION ( 'NONE',  ( -1.224646799147353454E-16, -0.0000000000000000000, -1.000000000000000000 ) ) ;
#91 = CARTESIAN_POINT ( 'NONE',  ( 0.0000000000000000000, 0.0000000000000000000, 0.0000000000000000000 ) ) ;
#92 = PRESENTATION_LAYER_ASSIGNMENT (  '', '', ( #152 ) ) ;
#93 = ORIENTED_EDGE ( 'NONE', *, *, #125, .F. ) ;
#94 = PRESENTATION_STYLE_ASSIGNMENT (( #190 ) ) ;
#95 = EDGE_LOOP ( 'NONE', ( #93, #27, #145, #170 ) ) ;
#96 = ORIENTED_EDGE ( 'NONE', *, *, #140, .T. ) ;
#97 = CARTESIAN_POINT ( 'NONE',  ( 0.0000000000000000000, 0.0000000000000000000, 0.0000000000000000000 ) ) ;
#98 = VERTEX_POINT ( 'NONE', #228 ) ;
#99 = DIRECTION ( 'NONE',  ( -0.0000000000000000000, -0.0000000000000000000, -1.000000000000000000 ) ) ;
#100 =( GEOMETRIC_REPRESENTATION_CONTEXT ( 3 ) GLOBAL_UNCERTAINTY_ASSIGNED_CONTEXT ( ( #229 ) ) GLOBAL_UNIT_ASSIGNED_CONTEXT ( ( #20, #105, #113 ) ) REPRESENTATION_CONTEXT ( 'NONE', 'WORKASPACE' ) );
#101 = CARTESIAN_POINT ( 'NONE',  ( -0.07875000000000061118, 0.0000000000000000000, 1.500000000000000222 ) ) ;
#102 = DIMENSIONAL_EXPONENTS ( 1.000000000000000000, 0.0000000000000000000, 0.0000000000000000000, 0.0000000000000000000, 0.0000000000000000000, 0.0000000000000000000, 0.0000000000000000000 ) ;
#103 = CARTESIAN_POINT ( 'NONE',  ( -0.07802189999999997738, 9.554927009839488851E-18, 0.3130000000000000004 ) ) ;
#104 = VECTOR ( 'NONE', #154, 39.37007874015748143 ) ;
#105 =( NAMED_UNIT ( * ) PLANE_ANGLE_UNIT ( ) SI_UNIT ( $, .RADIAN. ) );
#106 = DIMENSIONAL_EXPONENTS ( 1.000000000000000000, 0.0000000000000000000, 0.0000000000000000000, 0.0000000000000000000, 0.0000000000000000000, 0.0000000000000000000, 0.0000000000000000000 ) ;
#107 = CARTESIAN_POINT ( 'NONE',  ( 0.0000000000000000000, 0.0000000000000000000, 1.500000000000000222 ) ) ;
#108 = DIRECTION ( 'NONE',  ( -0.0000000000000000000, -0.0000000000000000000, -1.000000000000000000 ) ) ;
#109 = PRODUCT_DEFINITION_CONTEXT ( 'detailed design', #58, 'design' ) ;
#110 = ADVANCED_FACE ( 'NONE', ( #234 ), #296, .F. ) ;
#111 = MECHANICAL_DESIGN_GEOMETRIC_PRESENTATION_REPRESENTATION (  '', ( #152 ), #100 ) ;
#112 = DIRECTION ( 'NONE',  ( -1.000000000000000000, 0.0000000000000000000, 1.224646799147353700E-16 ) ) ;
#113 =( NAMED_UNIT ( * ) SI_UNIT ( $, .STERADIAN. ) SOLID_ANGLE_UNIT ( ) );
#114 = PLANE ( 'NONE',  #21 ) ;
#115 = ADVANCED_FACE ( 'NONE', ( #217 ), #218, .T. ) ;
#116 = UNCERTAINTY_MEASURE_WITH_UNIT (LENGTH_MEASURE( 1.000000000000000082E-05 ), #47, 'distance_accuracy_value', 'NONE');
#117 = CIRCLE ( 'NONE', #279, 0.07802190000000000514 ) ;
#118 = CYLINDRICAL_SURFACE ( 'NONE', #24, 0.09375000000000001388 ) ;
#119 = EDGE_LOOP ( 'NONE', ( #176, #213, #232, #122 ) ) ;
#120 = PRESENTATION_LAYER_ASSIGNMENT (  '', '', ( #189 ) ) ;
#121 = ORIENTED_EDGE ( 'NONE', *, *, #251, .F. ) ;
#122 = ORIENTED_EDGE ( 'NONE', *, *, #204, .F. ) ;
#123 = EDGE_LOOP ( 'NONE', ( #74, #25, #209, #165 ) ) ;
#124 = AXIS2_PLACEMENT_3D ( 'NONE', #107, #203, #84 ) ;
#125 = EDGE_CURVE ( 'NONE', #298, #130, #201, .T. ) ;
#126 = CARTESIAN_POINT ( 'NONE',  ( 4.925510904454838295E-17, 0.0000000000000000000, 0.4021984875871287279 ) ) ;
#127 = AXIS2_PLACEMENT_3D ( 'NONE', #273, #39, #151 ) ;
#128 = DIRECTION ( 'NONE',  ( -1.224646799147353454E-16, -0.0000000000000000000, -1.000000000000000000 ) ) ;
#129 = PRESENTATION_STYLE_ASSIGNMENT (( #62 ) ) ;
#130 = VERTEX_POINT ( 'NONE', #274 ) ;
#131 = ADVANCED_FACE ( 'NONE', ( #86 ), #158, .T. ) ;
#132 = CARTESIAN_POINT ( 'NONE',  ( -0.07802189999999997738, 1.051799537592296220E-17, 0.3130000000000000004 ) ) ;
#133 = AXIS2_PLACEMENT_3D ( 'NONE', #91, #241, #205 ) ;
#134 = CARTESIAN_POINT ( 'NONE',  ( -0.07875000000000061118, 0.0000000000000000000, 1.500000000000000222 ) ) ;
#135 = FACE_OUTER_BOUND ( 'NONE', #282, .T. ) ;
#136 = DIRECTION ( 'NONE',  ( 0.1736481776669314137, 0.0000000000000000000, 0.9848077530122077983 ) ) ;
#137 = MANIFOLD_SOLID_BREP ( 'Cut-Revolve1', #171 ) ;
#138 = SURFACE_STYLE_FILL_AREA ( #9 ) ;
#139 = VECTOR ( 'NONE', #136, 39.37007874015748143 ) ;
#140 = EDGE_CURVE ( 'NONE', #130, #238, #200, .T. ) ;
#141 = EDGE_LOOP ( 'NONE', ( #30, #193, #240, #71 ) ) ;
#142 = ORIENTED_EDGE ( 'NONE', *, *, #192, .F. ) ;
#143 = AXIS2_PLACEMENT_3D ( 'NONE', #59, #23, #81 ) ;
#144 = VERTEX_POINT ( 'NONE', #149 ) ;
#145 = ORIENTED_EDGE ( 'NONE', *, *, #185, .T. ) ;
#146 = LINE ( 'NONE', #194, #67 ) ;
#147 = AXIS2_PLACEMENT_3D ( 'NONE', #206, #221, #42 ) ;
#148 = PRODUCT_DEFINITION_FORMATION_WITH_SPECIFIED_SOURCE ( 'ANY', '', #260, .NOT_KNOWN. ) ;
#149 = CARTESIAN_POINT ( 'NONE',  ( -0.09375000000000001388, 0.0000000000000000000, 1.485000000000000986 ) ) ;
#150 = SURFACE_STYLE_FILL_AREA ( #172 ) ;
#151 = DIRECTION ( 'NONE',  ( -1.000000000000000000, 0.0000000000000000000, 1.224646799147353700E-16 ) ) ;
#152 = STYLED_ITEM ( 'NONE', ( #129 ), #137 ) ;
#153 = EDGE_CURVE ( 'NONE', #144, #298, #211, .T. ) ;
#154 = DIRECTION ( 'NONE',  ( -0.0000000000000000000, -0.0000000000000000000, -1.000000000000000000 ) ) ;
#155 = DIRECTION ( 'NONE',  ( 1.000000000000000000, 0.0000000000000000000, 0.0000000000000000000 ) ) ;
#156 = ORIENTED_EDGE ( 'NONE', *, *, #153, .T. ) ;
#157 = CARTESIAN_POINT ( 'NONE',  ( 3.833144481331216295E-17, 0.0000000000000000000, 0.3130000000000000004 ) ) ;
#158 = CONICAL_SURFACE ( 'NONE', #143, 0.07802190000000000514, 0.1745329251994339192 ) ;
#159 = CARTESIAN_POINT ( 'NONE',  ( 3.833144481331216295E-17, 0.0000000000000000000, 0.3130000000000000004 ) ) ;
#160 = DIRECTION ( 'NONE',  ( -1.224646799147353454E-16, -0.0000000000000000000, -1.000000000000000000 ) ) ;
#161 = MECHANICAL_DESIGN_GEOMETRIC_PRESENTATION_REPRESENTATION (  '', ( #189 ), #12 ) ;
#162 = ORIENTED_EDGE ( 'NONE', *, *, #185, .F. ) ;
#163 = DIRECTION ( 'NONE',  ( -1.000000000000000000, 0.0000000000000000000, 1.224646799147353700E-16 ) ) ;
#164 = SURFACE_SIDE_STYLE ('',( #138 ) ) ;
#165 = ORIENTED_EDGE ( 'NONE', *, *, #183, .F. ) ;
#166 = AXIS2_PLACEMENT_3D ( 'NONE', #44, #38, #182 ) ;
#167 = ORIENTED_EDGE ( 'NONE', *, *, #125, .T. ) ;
#168 = APPLICATION_PROTOCOL_DEFINITION ( 'draft international standard', 'automotive_design', 1998, #58 ) ;
#169 = DIRECTION ( 'NONE',  ( -0.0000000000000000000, -0.0000000000000000000, -1.000000000000000000 ) ) ;
#170 = ORIENTED_EDGE ( 'NONE', *, *, #140, .F. ) ;
#171 = CLOSED_SHELL ( 'NONE', ( #43, #115, #70, #66, #19, #299, #243, #131, #5, #110 ) ) ;
#172 = FILL_AREA_STYLE ('',( #35 ) ) ;
#173 = DIRECTION ( 'NONE',  ( 0.7071067811865531239, 8.659560562355003116E-17, -0.7071067811865419106 ) ) ;
#174 = CARTESIAN_POINT ( 'NONE',  ( 1.170141077868652707E-33, 0.0000000000000000000, 9.554927009839491933E-18 ) ) ;
#175 = AXIS2_PLACEMENT_3D ( 'NONE', #290, #179, #207 ) ;
#176 = ORIENTED_EDGE ( 'NONE', *, *, #28, .F. ) ;
#177 = CARTESIAN_POINT ( 'NONE',  ( 0.0000000000000000000, 0.0000000000000000000, 1.500000000000000222 ) ) ;
#178 = LINE ( 'NONE', #250, #104 ) ;
#179 = DIRECTION ( 'NONE',  ( 0.0000000000000000000, 0.0000000000000000000, -1.000000000000000000 ) ) ;
#180 = UNCERTAINTY_MEASURE_WITH_UNIT (LENGTH_MEASURE( 1.000000000000000082E-05 ), #4, 'distance_accuracy_value', 'NONE');
#181 = DIRECTION ( 'NONE',  ( -0.1736481776669312194, 2.126576849575783625E-17, 0.9848077530122080203 ) ) ;
#182 = DIRECTION ( 'NONE',  ( 1.000000000000000000, 0.0000000000000000000, 0.0000000000000000000 ) ) ;
#183 = EDGE_CURVE ( 'NONE', #8, #144, #276, .T. ) ;
#184 = CIRCLE ( 'NONE', #124, 0.07875000000000061118 ) ;
#185 = EDGE_CURVE ( 'NONE', #144, #238, #178, .T. ) ;
#186 = ORIENTED_EDGE ( 'NONE', *, *, #87, .T. ) ;
#187 =( LENGTH_UNIT ( ) NAMED_UNIT ( * ) SI_UNIT ( $, .METRE. ) );
#188 = ORIENTED_EDGE ( 'NONE', *, *, #192, .T. ) ;
#189 = STYLED_ITEM ( 'NONE', ( #94 ), #270 ) ;
#190 = SURFACE_STYLE_USAGE ( .BOTH. , #164 ) ;
#191 = FACE_OUTER_BOUND ( 'NONE', #14, .T. ) ;
#192 = EDGE_CURVE ( 'NONE', #8, #52, #224, .T. ) ;
#193 = ORIENTED_EDGE ( 'NONE', *, *, #75, .T. ) ;
#194 = CARTESIAN_POINT ( 'NONE',  ( -0.07802190000000000514, 0.0000000000000000000, 9.554927009839491933E-18 ) ) ;
#195 = CIRCLE ( 'NONE', #41, 0.09375000000000001388 ) ;
#196 = CARTESIAN_POINT ( 'NONE',  ( 0.07802190000000000514, 9.554927009839488851E-18, -9.554927009839491933E-18 ) ) ;
#197 = DIRECTION ( 'NONE',  ( 0.0000000000000000000, 0.0000000000000000000, 1.000000000000000000 ) ) ;
#198 = DIRECTION ( 'NONE',  ( 1.000000000000000000, 0.0000000000000000000, 0.0000000000000000000 ) ) ;
#199 = EDGE_CURVE ( 'NONE', #291, #130, #278, .T. ) ;
#200 = CIRCLE ( 'NONE', #245, 0.09375000000000001388 ) ;
#201 = LINE ( 'NONE', #226, #85 ) ;
#202 = ORIENTED_EDGE ( 'NONE', *, *, #183, .T. ) ;
#203 = DIRECTION ( 'NONE',  ( 0.0000000000000000000, 0.0000000000000000000, 1.000000000000000000 ) ) ;
#204 = EDGE_CURVE ( 'NONE', #98, #294, #26, .T. ) ;
#205 = DIRECTION ( 'NONE',  ( 1.000000000000000000, 0.0000000000000000000, -0.0000000000000000000 ) ) ;
#206 = CARTESIAN_POINT ( 'NONE',  ( 0.0000000000000000000, 0.0000000000000000000, 1.500000000000000222 ) ) ;
#207 = DIRECTION ( 'NONE',  ( 1.000000000000000000, 0.0000000000000000000, 0.0000000000000000000 ) ) ;
#208 = DIRECTION ( 'NONE',  ( -1.000000000000000000, 0.0000000000000000000, 0.0000000000000000000 ) ) ;
#209 = ORIENTED_EDGE ( 'NONE', *, *, #153, .F. ) ;
#210 = DIRECTION ( 'NONE',  ( -1.000000000000000000, 0.0000000000000000000, 1.224646799147353700E-16 ) ) ;
#211 = CIRCLE ( 'NONE', #175, 0.09375000000000001388 ) ;
#212 = LINE ( 'NONE', #103, #61 ) ;
#213 = ORIENTED_EDGE ( 'NONE', *, *, #251, .T. ) ;
#214 = EDGE_LOOP ( 'NONE', ( #249, #121, #78, #96 ) ) ;
#215 = ORIENTED_EDGE ( 'NONE', *, *, #287, .F. ) ;
#216 = AXIS2_PLACEMENT_3D ( 'NONE', #88, #259, #252 ) ;
#217 = FACE_OUTER_BOUND ( 'NONE', #141, .T. ) ;
#218 = CONICAL_SURFACE ( 'NONE', #262, 0.07802190000000000514, 0.1745329251994339192 ) ;
#219 = AXIS2_PLACEMENT_3D ( 'NONE', #97, #197, #29 ) ;
#220 = CARTESIAN_POINT ( 'NONE',  ( 3.833144481331216295E-17, 0.0000000000000000000, 0.3130000000000000004 ) ) ;
#221 = DIRECTION ( 'NONE',  ( 0.0000000000000000000, 0.0000000000000000000, -1.000000000000000000 ) ) ;
#222 =( LENGTH_UNIT ( ) NAMED_UNIT ( * ) SI_UNIT ( $, .METRE. ) );
#223 = DIRECTION ( 'NONE',  ( 1.000000000000000000, 0.0000000000000000000, 0.0000000000000000000 ) ) ;
#224 = CIRCLE ( 'NONE', #11, 0.07875000000000061118 ) ;
#225 = PRODUCT_RELATED_PRODUCT_CATEGORY ( 'part', '', ( #260 ) ) ;
#226 = CARTESIAN_POINT ( 'NONE',  ( 0.09375000000000001388, 1.148106374200643401E-17, 1.500000000000000222 ) ) ;
#227 =( NAMED_UNIT ( * ) PLANE_ANGLE_UNIT ( ) SI_UNIT ( $, .RADIAN. ) );
#228 = CARTESIAN_POINT ( 'NONE',  ( 0.07802190000000000514, 9.554927009839488851E-18, 0.0000000000000000000 ) ) ;
#229 = UNCERTAINTY_MEASURE_WITH_UNIT (LENGTH_MEASURE( 1.000000000000000082E-05 ), #20, 'distance_accuracy_value', 'NONE');
#230 = AXIS2_PLACEMENT_3D ( 'NONE', #220, #265, #33 ) ;
#231 = APPLICATION_PROTOCOL_DEFINITION ( 'draft international standard', 'automotive_design', 1998, #253 ) ;
#232 = ORIENTED_EDGE ( 'NONE', *, *, #15, .T. ) ;
#233 = FACE_OUTER_BOUND ( 'NONE', #119, .T. ) ;
#234 = FACE_OUTER_BOUND ( 'NONE', #247, .T. ) ;
#235 = EDGE_CURVE ( 'NONE', #294, #98, #80, .T. ) ;
#236 = AXIS2_PLACEMENT_3D ( 'NONE', #292, #169, #208 ) ;
#237 = ORIENTED_EDGE ( 'NONE', *, *, #49, .F. ) ;
#238 = VERTEX_POINT ( 'NONE', #254 ) ;
#239 = FACE_OUTER_BOUND ( 'NONE', #123, .T. ) ;
#240 = ORIENTED_EDGE ( 'NONE', *, *, #257, .T. ) ;
#241 = DIRECTION ( 'NONE',  ( 0.0000000000000000000, 0.0000000000000000000, 1.000000000000000000 ) ) ;
#242 = CYLINDRICAL_SURFACE ( 'NONE', #7, 0.07802190000000000514 ) ;
#243 = ADVANCED_FACE ( 'NONE', ( #248 ), #285, .T. ) ;
#244 = LENGTH_MEASURE_WITH_UNIT ( LENGTH_MEASURE( 0.02539999999999999897 ), #222 );
#245 = AXIS2_PLACEMENT_3D ( 'NONE', #126, #160, #198 ) ;
#246 = DIRECTION ( 'NONE',  ( 1.000000000000000000, 0.0000000000000000000, -0.0000000000000000000 ) ) ;
#247 = EDGE_LOOP ( 'NONE', ( #268, #2 ) ) ;
#248 = FACE_OUTER_BOUND ( 'NONE', #83, .T. ) ;
#249 = ORIENTED_EDGE ( 'NONE', *, *, #75, .F. ) ;
#250 = CARTESIAN_POINT ( 'NONE',  ( -0.09375000000000001388, 0.0000000000000000000, 1.500000000000000222 ) ) ;
#251 = EDGE_CURVE ( 'NONE', #291, #286, #117, .T. ) ;
#252 = DIRECTION ( 'NONE',  ( -1.000000000000000000, 0.0000000000000000000, 0.0000000000000000000 ) ) ;
#253 = APPLICATION_CONTEXT ( 'automotive_design' ) ;
#254 = CARTESIAN_POINT ( 'NONE',  ( -0.09374999999999995837, 0.0000000000000000000, 0.4021984875871287279 ) ) ;
#255 = FILL_AREA_STYLE_COLOUR ( '', #1 ) ;
#256 = EDGE_LOOP ( 'NONE', ( #156, #167, #272, #162 ) ) ;
#257 = EDGE_CURVE ( 'NONE', #238, #130, #46, .T. ) ;
#258 = DIRECTION ( 'NONE',  ( -1.000000000000000000, 0.0000000000000000000, 0.0000000000000000000 ) ) ;
#259 = DIRECTION ( 'NONE',  ( 0.0000000000000000000, 0.0000000000000000000, -1.000000000000000000 ) ) ;
#260 = PRODUCT ( 'Micro_SEM-156-03', 'Micro_SEM-156-03', '', ( #82 ) ) ;
#261 = DIRECTION ( 'NONE',  ( -0.7071067811865531239, 0.0000000000000000000, -0.7071067811865419106 ) ) ;
#262 = AXIS2_PLACEMENT_3D ( 'NONE', #157, #40, #155 ) ;
#263 = FACE_OUTER_BOUND ( 'NONE', #95, .T. ) ;
#264 = SHAPE_DEFINITION_REPRESENTATION ( #288, #270 ) ;
#265 = DIRECTION ( 'NONE',  ( -1.224646799147353454E-16, -0.0000000000000000000, -1.000000000000000000 ) ) ;
#266 = ORIENTED_EDGE ( 'NONE', *, *, #28, .T. ) ;
#267 = FACE_OUTER_BOUND ( 'NONE', #256, .T. ) ;
#268 = ORIENTED_EDGE ( 'NONE', *, *, #235, .T. ) ;
#269 = CARTESIAN_POINT ( 'NONE',  ( 0.07802190000000004677, 0.0000000000000000000, 0.3130000000000000004 ) ) ;
#270 = ADVANCED_BREP_SHAPE_REPRESENTATION ( 'Micro_SEM-156-03', ( #137, #219 ), #34 ) ;
#271 = CYLINDRICAL_SURFACE ( 'NONE', #236, 0.09375000000000001388 ) ;
#272 = ORIENTED_EDGE ( 'NONE', *, *, #257, .F. ) ;
#273 = CARTESIAN_POINT ( 'NONE',  ( 1.170141077868652707E-33, 0.0000000000000000000, 9.554927009839491933E-18 ) ) ;
#274 = CARTESIAN_POINT ( 'NONE',  ( 0.09375000000000004163, 1.148106374200644017E-17, 0.4021984875871287279 ) ) ;
#275 = LENGTH_MEASURE_WITH_UNIT ( LENGTH_MEASURE( 0.02539999999999999897 ), #89 );
#276 = LINE ( 'NONE', #134, #68 ) ;
#277 = VECTOR ( 'NONE', #79, 39.37007874015748143 ) ;
#278 = LINE ( 'NONE', #63, #139 ) ;
#279 = AXIS2_PLACEMENT_3D ( 'NONE', #159, #128, #65 ) ;
#280 = PRODUCT_DEFINITION ( 'UNKNOWN', '', #148, #109 ) ;
#281 = DIRECTION ( 'NONE',  ( 1.000000000000000000, 0.0000000000000000000, 0.0000000000000000000 ) ) ;
#282 = EDGE_LOOP ( 'NONE', ( #188, #76 ) ) ;
#283 = LENGTH_MEASURE_WITH_UNIT ( LENGTH_MEASURE( 0.02539999999999999897 ), #187 );
#284 = AXIS2_PLACEMENT_3D ( 'NONE', #54, #48, #210 ) ;
#285 = CONICAL_SURFACE ( 'NONE', #147, 0.07875000000000061118, 0.7853981633974562726 ) ;
#286 = VERTEX_POINT ( 'NONE', #132 ) ;
#287 = EDGE_CURVE ( 'NONE', #52, #298, #3, .T. ) ;
#288 = PRODUCT_DEFINITION_SHAPE ( 'NONE', 'NONE',  #280 ) ;
#289 = DIRECTION ( 'NONE',  ( -1.224646799147353454E-16, -0.0000000000000000000, -1.000000000000000000 ) ) ;
#290 = CARTESIAN_POINT ( 'NONE',  ( 0.0000000000000000000, 0.0000000000000000000, 1.485000000000000986 ) ) ;
#291 = VERTEX_POINT ( 'NONE', #269 ) ;
#292 = CARTESIAN_POINT ( 'NONE',  ( 0.0000000000000000000, 0.0000000000000000000, 1.500000000000000222 ) ) ;
#293 = LINE ( 'NONE', #196, #277 ) ;
#294 = VERTEX_POINT ( 'NONE', #297 ) ;
#295 = EDGE_CURVE ( 'NONE', #52, #8, #184, .T. ) ;
#296 = PLANE ( 'NONE',  #133 ) ;
#297 = CARTESIAN_POINT ( 'NONE',  ( -0.07802190000000000514, 0.0000000000000000000, 1.910985401967898387E-17 ) ) ;
#298 = VERTEX_POINT ( 'NONE', #60 ) ;
#299 = ADVANCED_FACE ( 'NONE', ( #135 ), #114, .T. ) ;
ENDSEC;
END-ISO-10303-21;
