ISO-10303-21;
HEADER;
FILE_DESCRIPTION (( 'STEP AP214' ),
    '1' );
FILE_NAME ('Micro_SEM-078-04.STEP',
    '2021-09-02T01:01:56',
    ( '' ),
    ( '' ),
    'SwSTEP 2.0',
    'SolidWorks 2020',
    '' );
FILE_SCHEMA (( 'AUTOMOTIVE_DESIGN' ));
ENDSEC;

DATA;
#1 = CIRCLE ( 'NONE', #251, 0.03901095000000000257 ) ;
#2 = DIRECTION ( 'NONE',  ( 1.000000000000000000, 0.0000000000000000000, 0.0000000000000000000 ) ) ;
#3 = CARTESIAN_POINT ( 'NONE',  ( 0.0000000000000000000, 0.0000000000000000000, 1.500000000000000222 ) ) ;
#4 = EDGE_CURVE ( 'NONE', #81, #78, #45, .T. ) ;
#5 = EDGE_LOOP ( 'NONE', ( #150, #242 ) ) ;
#6 = DIRECTION ( 'NONE',  ( 0.0000000000000000000, 0.0000000000000000000, -1.000000000000000000 ) ) ;
#7 = FACE_OUTER_BOUND ( 'NONE', #46, .T. ) ;
#8 = ORIENTED_EDGE ( 'NONE', *, *, #31, .T. ) ;
#9 = DIRECTION ( 'NONE',  ( -1.000000000000000000, 0.0000000000000000000, 1.224646799147353700E-16 ) ) ;
#10 = CONICAL_SURFACE ( 'NONE', #200, 0.03901095000000000257, 0.1745329251994338915 ) ;
#11 = VERTEX_POINT ( 'NONE', #184 ) ;
#12 = SURFACE_SIDE_STYLE ('',( #194 ) ) ;
#13 = ORIENTED_EDGE ( 'NONE', *, *, #220, .F. ) ;
#14 = CARTESIAN_POINT ( 'NONE',  ( 0.0000000000000000000, 0.0000000000000000000, 1.500000000000000222 ) ) ;
#15 = LINE ( 'NONE', #249, #218 ) ;
#16 = AXIS2_PLACEMENT_3D ( 'NONE', #298, #83, #89 ) ;
#17 = DIRECTION ( 'NONE',  ( -1.000000000000000000, 0.0000000000000000000, 0.0000000000000000000 ) ) ;
#18 =( NAMED_UNIT ( * ) PLANE_ANGLE_UNIT ( ) SI_UNIT ( $, .RADIAN. ) );
#19 = VECTOR ( 'NONE', #109, 39.37007874015748143 ) ;
#20 = LINE ( 'NONE', #141, #19 ) ;
#21 = DIRECTION ( 'NONE',  ( 1.000000000000000000, 0.0000000000000000000, -0.0000000000000000000 ) ) ;
#22 = FACE_OUTER_BOUND ( 'NONE', #176, .T. ) ;
#23 = ORIENTED_EDGE ( 'NONE', *, *, #107, .F. ) ;
#24 = DIRECTION ( 'NONE',  ( 0.0000000000000000000, 0.0000000000000000000, 1.000000000000000000 ) ) ;
#25 = EDGE_LOOP ( 'NONE', ( #13, #69, #265, #147 ) ) ;
#26 = CARTESIAN_POINT ( 'NONE',  ( 0.0000000000000000000, 0.0000000000000000000, 0.0000000000000000000 ) ) ;
#27 = EDGE_LOOP ( 'NONE', ( #193, #171, #8, #271 ) ) ;
#28 = CYLINDRICAL_SURFACE ( 'NONE', #234, 0.06250000000000000000 ) ;
#29 = EDGE_CURVE ( 'NONE', #102, #235, #108, .T. ) ;
#30 = DIMENSIONAL_EXPONENTS ( 1.000000000000000000, 0.0000000000000000000, 0.0000000000000000000, 0.0000000000000000000, 0.0000000000000000000, 0.0000000000000000000, 0.0000000000000000000 ) ;
#31 = EDGE_CURVE ( 'NONE', #213, #235, #15, .T. ) ;
#32 = VERTEX_POINT ( 'NONE', #275 ) ;
#33 = PRODUCT_DEFINITION ( 'UNKNOWN', '', #224, #178 ) ;
#34 =( LENGTH_UNIT ( ) NAMED_UNIT ( * ) SI_UNIT ( $, .METRE. ) );
#35 = DIRECTION ( 'NONE',  ( 1.000000000000000000, 0.0000000000000000000, 0.0000000000000000000 ) ) ;
#36 = DIRECTION ( 'NONE',  ( 1.000000000000000000, 0.0000000000000000000, 0.0000000000000000000 ) ) ;
#37 = FILL_AREA_STYLE ('',( #155 ) ) ;
#38 = APPLICATION_PROTOCOL_DEFINITION ( 'draft international standard', 'automotive_design', 1998, #289 ) ;
#39 = MANIFOLD_SOLID_BREP ( 'Cut-Revolve1', #196 ) ;
#40 = CARTESIAN_POINT ( 'NONE',  ( -0.06250000000000000000, 0.0000000000000000000, 1.485000000000000764 ) ) ;
#41 = EDGE_CURVE ( 'NONE', #75, #78, #252, .T. ) ;
#42 = AXIS2_PLACEMENT_3D ( 'NONE', #142, #96, #207 ) ;
#43 = PRODUCT ( 'Micro_SEM-078-04', 'Micro_SEM-078-04', '', ( #231 ) ) ;
#44 = DIRECTION ( 'NONE',  ( -1.000000000000000000, 0.0000000000000000000, 1.224646799147353700E-16 ) ) ;
#45 = CIRCLE ( 'NONE', #257, 0.06250000000000000000 ) ;
#46 = EDGE_LOOP ( 'NONE', ( #244, #197, #97, #67 ) ) ;
#47 =( CONVERSION_BASED_UNIT ( 'INCH', #245 ) LENGTH_UNIT ( ) NAMED_UNIT ( #130 ) );
#48 = CIRCLE ( 'NONE', #42, 0.03901095000000000257 ) ;
#49 = CARTESIAN_POINT ( 'NONE',  ( 0.0000000000000000000, 0.0000000000000000000, 0.0000000000000000000 ) ) ;
#50 = CARTESIAN_POINT ( 'NONE',  ( -0.03901095000000000257, 0.0000000000000000000, 9.554927009839491933E-18 ) ) ;
#51 = EDGE_CURVE ( 'NONE', #219, #213, #279, .T. ) ;
#52 = ORIENTED_EDGE ( 'NONE', *, *, #185, .T. ) ;
#53 =( CONVERSION_BASED_UNIT ( 'INCH', #180 ) LENGTH_UNIT ( ) NAMED_UNIT ( #134 ) );
#54 = ORIENTED_EDGE ( 'NONE', *, *, #162, .T. ) ;
#55 =( NAMED_UNIT ( * ) SI_UNIT ( $, .STERADIAN. ) SOLID_ANGLE_UNIT ( ) );
#56 = CIRCLE ( 'NONE', #228, 0.06250000000000000000 ) ;
#57 = ORIENTED_EDGE ( 'NONE', *, *, #157, .T. ) ;
#58 = CARTESIAN_POINT ( 'NONE',  ( -0.06250000000000000000, 0.0000000000000000000, 1.500000000000000222 ) ) ;
#59 = CIRCLE ( 'NONE', #63, 0.04750000000000064587 ) ;
#60 = FACE_OUTER_BOUND ( 'NONE', #25, .T. ) ;
#61 = CARTESIAN_POINT ( 'NONE',  ( 0.0000000000000000000, 0.0000000000000000000, 1.485000000000000764 ) ) ;
#62 = VERTEX_POINT ( 'NONE', #156 ) ;
#63 = AXIS2_PLACEMENT_3D ( 'NONE', #66, #24, #230 ) ;
#64 = CYLINDRICAL_SURFACE ( 'NONE', #166, 0.03901095000000000257 ) ;
#65 = AXIS2_PLACEMENT_3D ( 'NONE', #49, #276, #21 ) ;
#66 = CARTESIAN_POINT ( 'NONE',  ( 0.0000000000000000000, 0.0000000000000000000, 1.500000000000000222 ) ) ;
#67 = ORIENTED_EDGE ( 'NONE', *, *, #31, .F. ) ;
#68 = DIRECTION ( 'NONE',  ( 1.000000000000000000, 0.0000000000000000000, 0.0000000000000000000 ) ) ;
#69 = ORIENTED_EDGE ( 'NONE', *, *, #107, .T. ) ;
#70 = DIRECTION ( 'NONE',  ( -0.0000000000000000000, -0.0000000000000000000, -1.000000000000000000 ) ) ;
#71 = AXIS2_PLACEMENT_3D ( 'NONE', #293, #201, #35 ) ;
#72 = DIRECTION ( 'NONE',  ( -1.000000000000000000, 0.0000000000000000000, 1.224646799147353700E-16 ) ) ;
#73 = ORIENTED_EDGE ( 'NONE', *, *, #79, .F. ) ;
#74 = SURFACE_STYLE_USAGE ( .BOTH. , #12 ) ;
#75 = VERTEX_POINT ( 'NONE', #254 ) ;
#76 = FACE_OUTER_BOUND ( 'NONE', #179, .T. ) ;
#77 = UNCERTAINTY_MEASURE_WITH_UNIT (LENGTH_MEASURE( 1.000000000000000082E-05 ), #47, 'distance_accuracy_value', 'NONE');
#78 = VERTEX_POINT ( 'NONE', #40 ) ;
#79 = EDGE_CURVE ( 'NONE', #78, #11, #105, .T. ) ;
#80 = AXIS2_PLACEMENT_3D ( 'NONE', #253, #222, #17 ) ;
#81 = VERTEX_POINT ( 'NONE', #199 ) ;
#82 = DIRECTION ( 'NONE',  ( -0.7071067811865456854, 0.0000000000000000000, -0.7071067811865493491 ) ) ;
#83 = DIRECTION ( 'NONE',  ( 0.0000000000000000000, 0.0000000000000000000, 1.000000000000000000 ) ) ;
#84 = DIRECTION ( 'NONE',  ( -0.1736481776669311916, 2.126576849575783316E-17, 0.9848077530122080203 ) ) ;
#85 =( GEOMETRIC_REPRESENTATION_CONTEXT ( 3 ) GLOBAL_UNCERTAINTY_ASSIGNED_CONTEXT ( ( #248 ) ) GLOBAL_UNIT_ASSIGNED_CONTEXT ( ( #272, #18, #206 ) ) REPRESENTATION_CONTEXT ( 'NONE', 'WORKASPACE' ) );
#86 = STYLED_ITEM ( 'NONE', ( #131 ), #39 ) ;
#87 = EDGE_CURVE ( 'NONE', #75, #32, #204, .T. ) ;
#88 = DIRECTION ( 'NONE',  ( 0.0000000000000000000, 0.0000000000000000000, -1.000000000000000000 ) ) ;
#89 = DIRECTION ( 'NONE',  ( 1.000000000000000000, 0.0000000000000000000, 0.0000000000000000000 ) ) ;
#90 = PLANE ( 'NONE',  #65 ) ;
#91 = FACE_OUTER_BOUND ( 'NONE', #5, .T. ) ;
#92 = DIRECTION ( 'NONE',  ( -0.0000000000000000000, -0.0000000000000000000, -1.000000000000000000 ) ) ;
#93 = DIRECTION ( 'NONE',  ( -1.224646799147353454E-16, -0.0000000000000000000, -1.000000000000000000 ) ) ;
#94 = ORIENTED_EDGE ( 'NONE', *, *, #41, .T. ) ;
#95 = DIRECTION ( 'NONE',  ( -1.000000000000000000, 0.0000000000000000000, 0.0000000000000000000 ) ) ;
#96 = DIRECTION ( 'NONE',  ( -1.224646799147353454E-16, -0.0000000000000000000, -1.000000000000000000 ) ) ;
#97 = ORIENTED_EDGE ( 'NONE', *, *, #149, .F. ) ;
#98 = FILL_AREA_STYLE ('',( #125 ) ) ;
#99 = ORIENTED_EDGE ( 'NONE', *, *, #4, .F. ) ;
#100 = ORIENTED_EDGE ( 'NONE', *, *, #185, .F. ) ;
#101 = DIRECTION ( 'NONE',  ( 1.000000000000000000, 0.0000000000000000000, -0.0000000000000000000 ) ) ;
#102 = VERTEX_POINT ( 'NONE', #128 ) ;
#103 =( LENGTH_UNIT ( ) NAMED_UNIT ( * ) SI_UNIT ( $, .METRE. ) );
#104 = AXIS2_PLACEMENT_3D ( 'NONE', #118, #6, #198 ) ;
#105 = LINE ( 'NONE', #58, #274 ) ;
#106 = ORIENTED_EDGE ( 'NONE', *, *, #87, .F. ) ;
#107 = EDGE_CURVE ( 'NONE', #213, #11, #225, .T. ) ;
#108 = CIRCLE ( 'NONE', #277, 0.03901095000000000257 ) ;
#109 = DIRECTION ( 'NONE',  ( -0.0000000000000000000, -0.0000000000000000000, -1.000000000000000000 ) ) ;
#110 = CIRCLE ( 'NONE', #187, 0.06250000000000000000 ) ;
#111 = LINE ( 'NONE', #261, #183 ) ;
#112 = DIRECTION ( 'NONE',  ( 0.0000000000000000000, 0.0000000000000000000, -1.000000000000000000 ) ) ;
#113 = PRESENTATION_LAYER_ASSIGNMENT (  '', '', ( #86 ) ) ;
#114 = CARTESIAN_POINT ( 'NONE',  ( 0.04750000000000064587, 5.817072295950006528E-18, 1.500000000000000222 ) ) ;
#115 = CARTESIAN_POINT ( 'NONE',  ( 0.0000000000000000000, 0.0000000000000000000, 1.500000000000000222 ) ) ;
#116 = CARTESIAN_POINT ( 'NONE',  ( 3.541838019396895887E-17, 0.0000000000000000000, 0.2892130222250905436 ) ) ;
#117 = ORIENTED_EDGE ( 'NONE', *, *, #79, .T. ) ;
#118 = CARTESIAN_POINT ( 'NONE',  ( 0.0000000000000000000, 0.0000000000000000000, 1.500000000000000222 ) ) ;
#119 = FACE_OUTER_BOUND ( 'NONE', #27, .T. ) ;
#120 = STYLED_ITEM ( 'NONE', ( #173 ), #172 ) ;
#121 = EDGE_CURVE ( 'NONE', #11, #62, #110, .T. ) ;
#122 = ORIENTED_EDGE ( 'NONE', *, *, #4, .T. ) ;
#123 = ADVANCED_FACE ( 'NONE', ( #60 ), #10, .T. ) ;
#124 = ORIENTED_EDGE ( 'NONE', *, *, #121, .F. ) ;
#125 = FILL_AREA_STYLE_COLOUR ( '', #259 ) ;
#126 = LENGTH_MEASURE_WITH_UNIT ( LENGTH_MEASURE( 0.02539999999999999897 ), #34 );
#127 = AXIS2_PLACEMENT_3D ( 'NONE', #146, #168, #294 ) ;
#128 = CARTESIAN_POINT ( 'NONE',  ( 0.03901095000000000257, 4.777463504919744426E-18, 0.0000000000000000000 ) ) ;
#129 = CARTESIAN_POINT ( 'NONE',  ( 1.910449006669871395E-17, 0.0000000000000000000, 0.1559999999999999998 ) ) ;
#130 = DIMENSIONAL_EXPONENTS ( 1.000000000000000000, 0.0000000000000000000, 0.0000000000000000000, 0.0000000000000000000, 0.0000000000000000000, 0.0000000000000000000, 0.0000000000000000000 ) ;
#131 = PRESENTATION_STYLE_ASSIGNMENT (( #203 ) ) ;
#132 = AXIS2_PLACEMENT_3D ( 'NONE', #26, #217, #9 ) ;
#133 = ADVANCED_FACE ( 'NONE', ( #91 ), #90, .F. ) ;
#134 = DIMENSIONAL_EXPONENTS ( 1.000000000000000000, 0.0000000000000000000, 0.0000000000000000000, 0.0000000000000000000, 0.0000000000000000000, 0.0000000000000000000, 0.0000000000000000000 ) ;
#135 = DIRECTION ( 'NONE',  ( -0.0000000000000000000, -0.0000000000000000000, -1.000000000000000000 ) ) ;
#136 = SHAPE_DEFINITION_REPRESENTATION ( #188, #172 ) ;
#137 = DIRECTION ( 'NONE',  ( 0.1736481776669313859, 0.0000000000000000000, 0.9848077530122077983 ) ) ;
#138 = VECTOR ( 'NONE', #84, 39.37007874015747433 ) ;
#139 =( GEOMETRIC_REPRESENTATION_CONTEXT ( 3 ) GLOBAL_UNCERTAINTY_ASSIGNED_CONTEXT ( ( #267 ) ) GLOBAL_UNIT_ASSIGNED_CONTEXT ( ( #53, #236, #55 ) ) REPRESENTATION_CONTEXT ( 'NONE', 'WORKASPACE' ) );
#140 = FACE_OUTER_BOUND ( 'NONE', #269, .T. ) ;
#141 = CARTESIAN_POINT ( 'NONE',  ( 0.06250000000000000000, 7.654042494670956004E-18, 1.500000000000000222 ) ) ;
#142 = CARTESIAN_POINT ( 'NONE',  ( 1.910449006669871395E-17, 0.0000000000000000000, 0.1559999999999999998 ) ) ;
#143 = EDGE_LOOP ( 'NONE', ( #23, #266, #54, #164 ) ) ;
#144 = CARTESIAN_POINT ( 'NONE',  ( 0.0000000000000000000, 0.0000000000000000000, 1.500000000000000222 ) ) ;
#145 = ORIENTED_EDGE ( 'NONE', *, *, #87, .T. ) ;
#146 = CARTESIAN_POINT ( 'NONE',  ( 1.910449006669871395E-17, 0.0000000000000000000, 0.1559999999999999998 ) ) ;
#147 = ORIENTED_EDGE ( 'NONE', *, *, #162, .F. ) ;
#148 = FACE_OUTER_BOUND ( 'NONE', #175, .T. ) ;
#149 = EDGE_CURVE ( 'NONE', #235, #102, #1, .T. ) ;
#150 = ORIENTED_EDGE ( 'NONE', *, *, #149, .T. ) ;
#151 = DIRECTION ( 'NONE',  ( -1.000000000000000000, 0.0000000000000000000, 1.224646799147353700E-16 ) ) ;
#152 = EDGE_CURVE ( 'NONE', #78, #81, #243, .T. ) ;
#153 = COLOUR_RGB ( '',0.7921568627450980005, 0.8196078431372548767, 0.9333333333333333481 ) ;
#154 = DIRECTION ( 'NONE',  ( -1.224646799147353454E-16, -0.0000000000000000000, -1.000000000000000000 ) ) ;
#155 = FILL_AREA_STYLE_COLOUR ( '', #153 ) ;
#156 = CARTESIAN_POINT ( 'NONE',  ( 0.06250000000000002776, 7.654042494670959086E-18, 0.2892130222250905436 ) ) ;
#157 = EDGE_CURVE ( 'NONE', #32, #81, #232, .T. ) ;
#158 = AXIS2_PLACEMENT_3D ( 'NONE', #144, #299, #237 ) ;
#159 = DIRECTION ( 'NONE',  ( -1.000000000000000000, 0.0000000000000000000, 0.0000000000000000000 ) ) ;
#160 = ADVANCED_FACE ( 'NONE', ( #210 ), #215, .T. ) ;
#161 = CARTESIAN_POINT ( 'NONE',  ( 5.850705389343263536E-34, 0.0000000000000000000, 4.777463504919745966E-18 ) ) ;
#162 = EDGE_CURVE ( 'NONE', #219, #62, #165, .T. ) ;
#163 = DIRECTION ( 'NONE',  ( -1.224646799147353454E-16, -0.0000000000000000000, -1.000000000000000000 ) ) ;
#164 = ORIENTED_EDGE ( 'NONE', *, *, #229, .T. ) ;
#165 = LINE ( 'NONE', #285, #292 ) ;
#166 = AXIS2_PLACEMENT_3D ( 'NONE', #283, #212, #72 ) ;
#167 = ORIENTED_EDGE ( 'NONE', *, *, #152, .F. ) ;
#168 = DIRECTION ( 'NONE',  ( 1.224646799147353454E-16, 0.0000000000000000000, 1.000000000000000000 ) ) ;
#169 = DIRECTION ( 'NONE',  ( -1.224646799147353454E-16, -0.0000000000000000000, -1.000000000000000000 ) ) ;
#170 = ADVANCED_FACE ( 'NONE', ( #7 ), #64, .T. ) ;
#171 = ORIENTED_EDGE ( 'NONE', *, *, #51, .T. ) ;
#172 = ADVANCED_BREP_SHAPE_REPRESENTATION ( 'Micro_SEM-078-04', ( #39, #16 ), #263 ) ;
#173 = PRESENTATION_STYLE_ASSIGNMENT (( #74 ) ) ;
#174 = EDGE_CURVE ( 'NONE', #81, #62, #20, .T. ) ;
#175 = EDGE_LOOP ( 'NONE', ( #284, #106, #94, #99 ) ) ;
#176 = EDGE_LOOP ( 'NONE', ( #100, #57, #167, #195 ) ) ;
#177 = CONICAL_SURFACE ( 'NONE', #104, 0.04750000000000064587, 0.7853981633974457255 ) ;
#178 = PRODUCT_DEFINITION_CONTEXT ( 'detailed design', #289, 'design' ) ;
#179 = EDGE_LOOP ( 'NONE', ( #145, #52 ) ) ;
#180 = LENGTH_MEASURE_WITH_UNIT ( LENGTH_MEASURE( 0.02539999999999999897 ), #103 );
#181 = DIRECTION ( 'NONE',  ( -1.224646799147353454E-16, -0.0000000000000000000, -1.000000000000000000 ) ) ;
#182 = CARTESIAN_POINT ( 'NONE',  ( 3.541838019396895887E-17, 0.0000000000000000000, 0.2892130222250905436 ) ) ;
#183 = VECTOR ( 'NONE', #163, 39.37007874015748143 ) ;
#184 = CARTESIAN_POINT ( 'NONE',  ( -0.06249999999999996531, 0.0000000000000000000, 0.2892130222250905436 ) ) ;
#185 = EDGE_CURVE ( 'NONE', #32, #75, #59, .T. ) ;
#186 = CARTESIAN_POINT ( 'NONE',  ( -0.04750000000000064587, 0.0000000000000000000, 1.500000000000000222 ) ) ;
#187 = AXIS2_PLACEMENT_3D ( 'NONE', #182, #273, #36 ) ;
#188 = PRODUCT_DEFINITION_SHAPE ( 'NONE', 'NONE',  #33 ) ;
#189 = EDGE_CURVE ( 'NONE', #219, #102, #111, .T. ) ;
#190 = CONICAL_SURFACE ( 'NONE', #158, 0.04750000000000064587, 0.7853981633974457255 ) ;
#191 = CARTESIAN_POINT ( 'NONE',  ( -0.03901094999999998869, 6.215752999795350985E-18, 0.1559999999999999998 ) ) ;
#192 = AXIS2_PLACEMENT_3D ( 'NONE', #3, #92, #159 ) ;
#193 = ORIENTED_EDGE ( 'NONE', *, *, #189, .F. ) ;
#194 = SURFACE_STYLE_FILL_AREA ( #98 ) ;
#195 = ORIENTED_EDGE ( 'NONE', *, *, #41, .F. ) ;
#196 = CLOSED_SHELL ( 'NONE', ( #170, #123, #227, #256, #160, #280, #290, #295, #238, #133 ) ) ;
#197 = ORIENTED_EDGE ( 'NONE', *, *, #189, .T. ) ;
#198 = DIRECTION ( 'NONE',  ( -1.000000000000000000, 0.0000000000000000000, 0.0000000000000000000 ) ) ;
#199 = CARTESIAN_POINT ( 'NONE',  ( 0.06250000000000000000, 7.654042494670956004E-18, 1.485000000000000764 ) ) ;
#200 = AXIS2_PLACEMENT_3D ( 'NONE', #129, #281, #2 ) ;
#201 = DIRECTION ( 'NONE',  ( 0.0000000000000000000, 0.0000000000000000000, 1.000000000000000000 ) ) ;
#202 = CARTESIAN_POINT ( 'NONE',  ( -0.03901094999999998869, 4.777463504919744426E-18, 0.1559999999999999998 ) ) ;
#203 = SURFACE_STYLE_USAGE ( .BOTH. , #250 ) ;
#204 = CIRCLE ( 'NONE', #71, 0.04750000000000064587 ) ;
#205 = PRESENTATION_LAYER_ASSIGNMENT (  '', '', ( #120 ) ) ;
#206 =( NAMED_UNIT ( * ) SI_UNIT ( $, .STERADIAN. ) SOLID_ANGLE_UNIT ( ) );
#207 = DIRECTION ( 'NONE',  ( -1.000000000000000000, 0.0000000000000000000, 0.0000000000000000000 ) ) ;
#208 = MECHANICAL_DESIGN_GEOMETRIC_PRESENTATION_REPRESENTATION (  '', ( #120 ), #139 ) ;
#209 = CARTESIAN_POINT ( 'NONE',  ( 0.03901095000000002339, 0.0000000000000000000, 0.1559999999999999998 ) ) ;
#210 = FACE_OUTER_BOUND ( 'NONE', #246, .T. ) ;
#211 = MECHANICAL_DESIGN_GEOMETRIC_PRESENTATION_REPRESENTATION (  '', ( #86 ), #85 ) ;
#212 = DIRECTION ( 'NONE',  ( -1.224646799147353454E-16, -0.0000000000000000000, -1.000000000000000000 ) ) ;
#213 = VERTEX_POINT ( 'NONE', #191 ) ;
#214 = FACE_OUTER_BOUND ( 'NONE', #143, .T. ) ;
#215 = CYLINDRICAL_SURFACE ( 'NONE', #192, 0.06250000000000000000 ) ;
#216 = PLANE ( 'NONE',  #268 ) ;
#217 = DIRECTION ( 'NONE',  ( -1.224646799147353454E-16, -0.0000000000000000000, -1.000000000000000000 ) ) ;
#218 = VECTOR ( 'NONE', #154, 39.37007874015748143 ) ;
#219 = VERTEX_POINT ( 'NONE', #209 ) ;
#220 = EDGE_CURVE ( 'NONE', #213, #219, #48, .T. ) ;
#221 = ORIENTED_EDGE ( 'NONE', *, *, #229, .F. ) ;
#222 = DIRECTION ( 'NONE',  ( -1.224646799147353454E-16, -0.0000000000000000000, -1.000000000000000000 ) ) ;
#223 = AXIS2_PLACEMENT_3D ( 'NONE', #233, #112, #68 ) ;
#224 = PRODUCT_DEFINITION_FORMATION_WITH_SPECIFIED_SOURCE ( 'ANY', '', #43, .NOT_KNOWN. ) ;
#225 = LINE ( 'NONE', #202, #138 ) ;
#226 = CARTESIAN_POINT ( 'NONE',  ( 5.850705389343263536E-34, 0.0000000000000000000, 4.777463504919745966E-18 ) ) ;
#227 = ADVANCED_FACE ( 'NONE', ( #22 ), #190, .T. ) ;
#228 = AXIS2_PLACEMENT_3D ( 'NONE', #116, #169, #264 ) ;
#229 = EDGE_CURVE ( 'NONE', #62, #11, #56, .T. ) ;
#230 = DIRECTION ( 'NONE',  ( 1.000000000000000000, 0.0000000000000000000, 0.0000000000000000000 ) ) ;
#231 = PRODUCT_CONTEXT ( 'NONE', #278, 'mechanical' ) ;
#232 = LINE ( 'NONE', #114, #286 ) ;
#233 = CARTESIAN_POINT ( 'NONE',  ( 0.0000000000000000000, 0.0000000000000000000, 1.485000000000000764 ) ) ;
#234 = AXIS2_PLACEMENT_3D ( 'NONE', #115, #70, #95 ) ;
#235 = VERTEX_POINT ( 'NONE', #50 ) ;
#236 =( NAMED_UNIT ( * ) PLANE_ANGLE_UNIT ( ) SI_UNIT ( $, .RADIAN. ) );
#237 = DIRECTION ( 'NONE',  ( -1.000000000000000000, 0.0000000000000000000, 0.0000000000000000000 ) ) ;
#238 = ADVANCED_FACE ( 'NONE', ( #119 ), #241, .T. ) ;
#239 = ORIENTED_EDGE ( 'NONE', *, *, #174, .T. ) ;
#240 =( NAMED_UNIT ( * ) PLANE_ANGLE_UNIT ( ) SI_UNIT ( $, .RADIAN. ) );
#241 = CYLINDRICAL_SURFACE ( 'NONE', #132, 0.03901095000000000257 ) ;
#242 = ORIENTED_EDGE ( 'NONE', *, *, #29, .T. ) ;
#243 = CIRCLE ( 'NONE', #223, 0.06250000000000000000 ) ;
#244 = ORIENTED_EDGE ( 'NONE', *, *, #220, .T. ) ;
#245 = LENGTH_MEASURE_WITH_UNIT ( LENGTH_MEASURE( 0.02539999999999999897 ), #291 );
#246 = EDGE_LOOP ( 'NONE', ( #282, #122, #117, #221 ) ) ;
#247 = APPLICATION_PROTOCOL_DEFINITION ( 'draft international standard', 'automotive_design', 1998, #278 ) ;
#248 = UNCERTAINTY_MEASURE_WITH_UNIT (LENGTH_MEASURE( 1.000000000000000082E-05 ), #272, 'distance_accuracy_value', 'NONE');
#249 = CARTESIAN_POINT ( 'NONE',  ( -0.03901095000000000257, 0.0000000000000000000, 4.777463504919745966E-18 ) ) ;
#250 = SURFACE_SIDE_STYLE ('',( #296 ) ) ;
#251 = AXIS2_PLACEMENT_3D ( 'NONE', #161, #93, #44 ) ;
#252 = LINE ( 'NONE', #186, #258 ) ;
#253 = CARTESIAN_POINT ( 'NONE',  ( 1.910449006669871395E-17, 0.0000000000000000000, 0.1559999999999999998 ) ) ;
#254 = CARTESIAN_POINT ( 'NONE',  ( -0.04750000000000064587, 0.0000000000000000000, 1.500000000000000222 ) ) ;
#255 = PRODUCT_RELATED_PRODUCT_CATEGORY ( 'part', '', ( #43 ) ) ;
#256 = ADVANCED_FACE ( 'NONE', ( #140 ), #28, .T. ) ;
#257 = AXIS2_PLACEMENT_3D ( 'NONE', #61, #88, #297 ) ;
#258 = VECTOR ( 'NONE', #82, 39.37007874015748143 ) ;
#259 = COLOUR_RGB ( '',0.7921568627450980005, 0.8196078431372548767, 0.9333333333333333481 ) ;
#260 = DIRECTION ( 'NONE',  ( 0.7071067811865456854, 8.659560562354911904E-17, -0.7071067811865493491 ) ) ;
#261 = CARTESIAN_POINT ( 'NONE',  ( 0.03901095000000000257, 4.777463504919744426E-18, -4.777463504919745966E-18 ) ) ;
#262 = CONICAL_SURFACE ( 'NONE', #127, 0.03901095000000000257, 0.1745329251994338915 ) ;
#263 =( GEOMETRIC_REPRESENTATION_CONTEXT ( 3 ) GLOBAL_UNCERTAINTY_ASSIGNED_CONTEXT ( ( #77 ) ) GLOBAL_UNIT_ASSIGNED_CONTEXT ( ( #47, #240, #270 ) ) REPRESENTATION_CONTEXT ( 'NONE', 'WORKASPACE' ) );
#264 = DIRECTION ( 'NONE',  ( 1.000000000000000000, 0.0000000000000000000, 0.0000000000000000000 ) ) ;
#265 = ORIENTED_EDGE ( 'NONE', *, *, #121, .T. ) ;
#266 = ORIENTED_EDGE ( 'NONE', *, *, #51, .F. ) ;
#267 = UNCERTAINTY_MEASURE_WITH_UNIT (LENGTH_MEASURE( 1.000000000000000082E-05 ), #53, 'distance_accuracy_value', 'NONE');
#268 = AXIS2_PLACEMENT_3D ( 'NONE', #14, #288, #101 ) ;
#269 = EDGE_LOOP ( 'NONE', ( #287, #239, #124, #73 ) ) ;
#270 =( NAMED_UNIT ( * ) SI_UNIT ( $, .STERADIAN. ) SOLID_ANGLE_UNIT ( ) );
#271 = ORIENTED_EDGE ( 'NONE', *, *, #29, .F. ) ;
#272 =( CONVERSION_BASED_UNIT ( 'INCH', #126 ) LENGTH_UNIT ( ) NAMED_UNIT ( #30 ) );
#273 = DIRECTION ( 'NONE',  ( -1.224646799147353454E-16, -0.0000000000000000000, -1.000000000000000000 ) ) ;
#274 = VECTOR ( 'NONE', #135, 39.37007874015748143 ) ;
#275 = CARTESIAN_POINT ( 'NONE',  ( 0.04750000000000064587, 6.735557395310482421E-18, 1.500000000000000222 ) ) ;
#276 = DIRECTION ( 'NONE',  ( 0.0000000000000000000, 0.0000000000000000000, 1.000000000000000000 ) ) ;
#277 = AXIS2_PLACEMENT_3D ( 'NONE', #226, #181, #151 ) ;
#278 = APPLICATION_CONTEXT ( 'automotive_design' ) ;
#279 = CIRCLE ( 'NONE', #80, 0.03901095000000000257 ) ;
#280 = ADVANCED_FACE ( 'NONE', ( #76 ), #216, .T. ) ;
#281 = DIRECTION ( 'NONE',  ( 1.224646799147353454E-16, 0.0000000000000000000, 1.000000000000000000 ) ) ;
#282 = ORIENTED_EDGE ( 'NONE', *, *, #174, .F. ) ;
#283 = CARTESIAN_POINT ( 'NONE',  ( 0.0000000000000000000, 0.0000000000000000000, 0.0000000000000000000 ) ) ;
#284 = ORIENTED_EDGE ( 'NONE', *, *, #157, .F. ) ;
#285 = CARTESIAN_POINT ( 'NONE',  ( 0.03901095000000002339, 0.0000000000000000000, 0.1559999999999999998 ) ) ;
#286 = VECTOR ( 'NONE', #260, 39.37007874015748143 ) ;
#287 = ORIENTED_EDGE ( 'NONE', *, *, #152, .T. ) ;
#288 = DIRECTION ( 'NONE',  ( 0.0000000000000000000, 0.0000000000000000000, 1.000000000000000000 ) ) ;
#289 = APPLICATION_CONTEXT ( 'automotive_design' ) ;
#290 = ADVANCED_FACE ( 'NONE', ( #148 ), #177, .T. ) ;
#291 =( LENGTH_UNIT ( ) NAMED_UNIT ( * ) SI_UNIT ( $, .METRE. ) );
#292 = VECTOR ( 'NONE', #137, 39.37007874015748143 ) ;
#293 = CARTESIAN_POINT ( 'NONE',  ( 0.0000000000000000000, 0.0000000000000000000, 1.500000000000000222 ) ) ;
#294 = DIRECTION ( 'NONE',  ( 1.000000000000000000, 0.0000000000000000000, 0.0000000000000000000 ) ) ;
#295 = ADVANCED_FACE ( 'NONE', ( #214 ), #262, .T. ) ;
#296 = SURFACE_STYLE_FILL_AREA ( #37 ) ;
#297 = DIRECTION ( 'NONE',  ( 1.000000000000000000, 0.0000000000000000000, 0.0000000000000000000 ) ) ;
#298 = CARTESIAN_POINT ( 'NONE',  ( 0.0000000000000000000, 0.0000000000000000000, 0.0000000000000000000 ) ) ;
#299 = DIRECTION ( 'NONE',  ( 0.0000000000000000000, 0.0000000000000000000, -1.000000000000000000 ) ) ;
ENDSEC;
END-ISO-10303-21;
