ISO-10303-21;
HEADER;
FILE_DESCRIPTION (( 'STEP AP214' ),
    '1' );
FILE_NAME ('81714.STEP',
    '2023-06-23T02:57:56',
    ( '' ),
    ( '' ),
    'SwSTEP 2.0',
    'SolidWorks 2023',
    '' );
FILE_SCHEMA (( 'AUTOMOTIVE_DESIGN' ));
ENDSEC;

DATA;
#1 = FILL_AREA_STYLE_COLOUR ( '', #33 ) ;
#2 = DIMENSIONAL_EXPONENTS ( 1.000000000000000000, 0.000000000000000000, 0.000000000000000000, 0.000000000000000000, 0.000000000000000000, 0.000000000000000000, 0.000000000000000000 ) ;
#3 =( GEOMETRIC_REPRESENTATION_CONTEXT ( 3 ) GLOBAL_UNCERTAINTY_ASSIGNED_CONTEXT ( ( #58 ) ) GLOBAL_UNIT_ASSIGNED_CONTEXT ( ( #265, #7, #168 ) ) REPRESENTATION_CONTEXT ( 'NONE', 'WORKASPACE' ) );
#4 = DIRECTION ( 'NONE',  ( 3.498990854706726443E-17, 1.000000000000000000, -0.000000000000000000 ) ) ;
#5 = ADVANCED_BREP_SHAPE_REPRESENTATION ( '81714', ( #85, #286, #228 ), #66 ) ;
#6 = FILL_AREA_STYLE ('',( #10 ) ) ;
#7 =( NAMED_UNIT ( * ) PLANE_ANGLE_UNIT ( ) SI_UNIT ( $, .RADIAN. ) );
#8 = ADVANCED_FACE ( 'NONE', ( #102 ), #124, .T. ) ;
#9 =( LENGTH_UNIT ( ) NAMED_UNIT ( * ) SI_UNIT ( $, .METRE. ) );
#10 = FILL_AREA_STYLE_COLOUR ( '', #198 ) ;
#11 = CARTESIAN_POINT ( 'NONE',  ( 0.000000000000000000, 0.000000000000000000, -0.1875000000000000278 ) ) ;
#12 = ORIENTED_EDGE ( 'NONE', *, *, #208, .F. ) ;
#13 =( NAMED_UNIT ( * ) SI_UNIT ( $, .STERADIAN. ) SOLID_ANGLE_UNIT ( ) );
#14 = COLOUR_RGB ( '',1.000000000000000000, 0.000000000000000000, 0.000000000000000000 ) ;
#15 = DIRECTION ( 'NONE',  ( 3.498990854706726443E-17, 1.000000000000000000, -0.000000000000000000 ) ) ;
#16 = CYLINDRICAL_SURFACE ( 'NONE', #22, 0.1874999999999999722 ) ;
#17 = CARTESIAN_POINT ( 'NONE',  ( 2.296212748401287726E-17, 0.7500000000000001110, 0.1875000000000000278 ) ) ;
#18 = DIRECTION ( 'NONE',  ( -0.000000000000000000, -1.000000000000000000, -0.000000000000000000 ) ) ;
#19 = PRESENTATION_LAYER_ASSIGNMENT (  '', '', ( #135 ) ) ;
#20 = ORIENTED_EDGE ( 'NONE', *, *, #254, .T. ) ;
#21 =( NAMED_UNIT ( * ) PLANE_ANGLE_UNIT ( ) SI_UNIT ( $, .RADIAN. ) );
#22 = AXIS2_PLACEMENT_3D ( 'NONE', #251, #113, #159 ) ;
#23 = PRESENTATION_STYLE_ASSIGNMENT (( #238 ) ) ;
#24 =( CONVERSION_BASED_UNIT ( 'INCH', #195 ) LENGTH_UNIT ( ) NAMED_UNIT ( #2 ) );
#25 = LENGTH_MEASURE_WITH_UNIT ( LENGTH_MEASURE( 0.02539999999999999897 ), #215 );
#26 = MECHANICAL_DESIGN_GEOMETRIC_PRESENTATION_REPRESENTATION (  '', ( #160 ), #162 ) ;
#27 = MECHANICAL_DESIGN_GEOMETRIC_PRESENTATION_REPRESENTATION (  '', ( #244 ), #297 ) ;
#28 = FILL_AREA_STYLE ('',( #239 ) ) ;
#29 = SURFACE_SIDE_STYLE ('',( #197 ) ) ;
#30 = APPLICATION_CONTEXT ( 'automotive_design' ) ;
#31 =( NAMED_UNIT ( * ) SI_UNIT ( $, .STERADIAN. ) SOLID_ANGLE_UNIT ( ) );
#32 =( NAMED_UNIT ( * ) SI_UNIT ( $, .STERADIAN. ) SOLID_ANGLE_UNIT ( ) );
#33 = COLOUR_RGB ( '',1.000000000000000000, 0.000000000000000000, 0.000000000000000000 ) ;
#34 = UNCERTAINTY_MEASURE_WITH_UNIT (LENGTH_MEASURE( 1.000000000000000082E-05 ), #278, 'distance_accuracy_value', 'NONE');
#35 = SURFACE_STYLE_USAGE ( .BOTH. , #39 ) ;
#36 = CARTESIAN_POINT ( 'NONE',  ( 0.1875000000000000278, 2.500000000000000000, 2.296212748401287109E-17 ) ) ;
#37 =( LENGTH_UNIT ( ) NAMED_UNIT ( * ) SI_UNIT ( $, .METRE. ) );
#38 =( NAMED_UNIT ( * ) PLANE_ANGLE_UNIT ( ) SI_UNIT ( $, .RADIAN. ) );
#39 = SURFACE_SIDE_STYLE ('',( #280 ) ) ;
#40 = AXIS2_PLACEMENT_3D ( 'NONE', #112, #133, #229 ) ;
#41 = PLANE ( 'NONE',  #40 ) ;
#42 = DIRECTION ( 'NONE',  ( 0.000000000000000000, 0.000000000000000000, -1.000000000000000000 ) ) ;
#43 = PRESENTATION_LAYER_ASSIGNMENT (  '', '', ( #259 ) ) ;
#44 = CARTESIAN_POINT ( 'NONE',  ( 6.123233995736772199E-17, 2.500000000000000000, 0.000000000000000000 ) ) ;
#45 = ORIENTED_EDGE ( 'NONE', *, *, #81, .T. ) ;
#46 = ORIENTED_EDGE ( 'NONE', *, *, #55, .F. ) ;
#47 = PLANE ( 'NONE',  #250 ) ;
#48 = DIMENSIONAL_EXPONENTS ( 1.000000000000000000, 0.000000000000000000, 0.000000000000000000, 0.000000000000000000, 0.000000000000000000, 0.000000000000000000, 0.000000000000000000 ) ;
#49 = DIRECTION ( 'NONE',  ( 0.000000000000000000, 0.000000000000000000, -1.000000000000000000 ) ) ;
#50 = DIMENSIONAL_EXPONENTS ( 1.000000000000000000, 0.000000000000000000, 0.000000000000000000, 0.000000000000000000, 0.000000000000000000, 0.000000000000000000, 0.000000000000000000 ) ;
#51 = AXIS2_PLACEMENT_3D ( 'NONE', #121, #236, #191 ) ;
#52 = DIRECTION ( 'NONE',  ( -1.000000000000000000, 3.498990854706726443E-17, 0.000000000000000000 ) ) ;
#53 =( NAMED_UNIT ( * ) SI_UNIT ( $, .STERADIAN. ) SOLID_ANGLE_UNIT ( ) );
#54 = CARTESIAN_POINT ( 'NONE',  ( 0.000000000000000000, 0.7500000000000001110, 0.000000000000000000 ) ) ;
#55 = EDGE_CURVE ( 'NONE', #233, #177, #87, .T. ) ;
#56 =( CONVERSION_BASED_UNIT ( 'INCH', #224 ) LENGTH_UNIT ( ) NAMED_UNIT ( #294 ) );
#57 = CARTESIAN_POINT ( 'NONE',  ( 0.000000000000000000, 0.7500000000000001110, 0.000000000000000000 ) ) ;
#58 = UNCERTAINTY_MEASURE_WITH_UNIT (LENGTH_MEASURE( 1.000000000000000082E-05 ), #265, 'distance_accuracy_value', 'NONE');
#59 = DIRECTION ( 'NONE',  ( -1.000000000000000000, 0.000000000000000000, 0.000000000000000000 ) ) ;
#60 = LINE ( 'NONE', #180, #106 ) ;
#61 = ADVANCED_FACE ( 'NONE', ( #122 ), #218, .F. ) ;
#62 = CLOSED_SHELL ( 'NONE', ( #202, #147, #8, #206 ) ) ;
#63 = AXIS2_PLACEMENT_3D ( 'NONE', #101, #187, #282 ) ;
#64 = LINE ( 'NONE', #277, #179 ) ;
#65 = EDGE_LOOP ( 'NONE', ( #20, #68 ) ) ;
#66 =( GEOMETRIC_REPRESENTATION_CONTEXT ( 3 ) GLOBAL_UNCERTAINTY_ASSIGNED_CONTEXT ( ( #300 ) ) GLOBAL_UNIT_ASSIGNED_CONTEXT ( ( #174, #176, #31 ) ) REPRESENTATION_CONTEXT ( 'NONE', 'WORKASPACE' ) );
#67 = VERTEX_POINT ( 'NONE', #99 ) ;
#68 = ORIENTED_EDGE ( 'NONE', *, *, #185, .T. ) ;
#69 = FACE_OUTER_BOUND ( 'NONE', #65, .T. ) ;
#70 = ORIENTED_EDGE ( 'NONE', *, *, #81, .F. ) ;
#71 = DIRECTION ( 'NONE',  ( -1.000000000000000000, 0.000000000000000000, 0.000000000000000000 ) ) ;
#72 = AXIS2_PLACEMENT_3D ( 'NONE', #57, #154, #84 ) ;
#73 = ORIENTED_EDGE ( 'NONE', *, *, #103, .F. ) ;
#74 = SURFACE_STYLE_USAGE ( .BOTH. , #308 ) ;
#75 = SURFACE_STYLE_FILL_AREA ( #97 ) ;
#76 = ORIENTED_EDGE ( 'NONE', *, *, #188, .T. ) ;
#77 = DIRECTION ( 'NONE',  ( 0.000000000000000000, 0.000000000000000000, -1.000000000000000000 ) ) ;
#78 = UNCERTAINTY_MEASURE_WITH_UNIT (LENGTH_MEASURE( 1.000000000000000082E-05 ), #183, 'distance_accuracy_value', 'NONE');
#79 = EDGE_LOOP ( 'NONE', ( #137, #12 ) ) ;
#80 = LENGTH_MEASURE_WITH_UNIT ( LENGTH_MEASURE( 0.02539999999999999897 ), #9 );
#81 = EDGE_CURVE ( 'NONE', #255, #235, #296, .T. ) ;
#82 = DIMENSIONAL_EXPONENTS ( 1.000000000000000000, 0.000000000000000000, 0.000000000000000000, 0.000000000000000000, 0.000000000000000000, 0.000000000000000000, 0.000000000000000000 ) ;
#83 = ORIENTED_EDGE ( 'NONE', *, *, #116, .T. ) ;
#84 = DIRECTION ( 'NONE',  ( 0.000000000000000000, 0.000000000000000000, -1.000000000000000000 ) ) ;
#85 = MANIFOLD_SOLID_BREP ( 'Revolve - Cutting Edge', #62 ) ;
#86 = CARTESIAN_POINT ( 'NONE',  ( 0.000000000000000000, 0.7499999999999998890, 0.000000000000000000 ) ) ;
#87 = CIRCLE ( 'NONE', #253, 0.1875000000000000278 ) ;
#88 = MECHANICAL_DESIGN_GEOMETRIC_PRESENTATION_REPRESENTATION (  '', ( #135 ), #3 ) ;
#89 = PRODUCT_DEFINITION_FORMATION_WITH_SPECIFIED_SOURCE ( 'ANY', '', #258, .NOT_KNOWN. ) ;
#90 = DIRECTION ( 'NONE',  ( -0.000000000000000000, -1.000000000000000000, -0.000000000000000000 ) ) ;
#91 = DIRECTION ( 'NONE',  ( -1.000000000000000000, 0.000000000000000000, 0.000000000000000000 ) ) ;
#92 = PRESENTATION_STYLE_ASSIGNMENT (( #35 ) ) ;
#93 = DIRECTION ( 'NONE',  ( -0.000000000000000000, -1.000000000000000000, -0.000000000000000000 ) ) ;
#94 = EDGE_CURVE ( 'NONE', #233, #292, #60, .T. ) ;
#95 = VERTEX_POINT ( 'NONE', #241 ) ;
#96 =( CONVERSION_BASED_UNIT ( 'INCH', #189 ) LENGTH_UNIT ( ) NAMED_UNIT ( #108 ) );
#97 = FILL_AREA_STYLE ('',( #119 ) ) ;
#98 = DIRECTION ( 'NONE',  ( -3.498990854706726443E-17, -1.000000000000000000, 0.000000000000000000 ) ) ;
#99 = CARTESIAN_POINT ( 'NONE',  ( 2.296212748401287726E-17, 0.000000000000000000, 0.1875000000000000278 ) ) ;
#100 =( NAMED_UNIT ( * ) PLANE_ANGLE_UNIT ( ) SI_UNIT ( $, .RADIAN. ) );
#101 = CARTESIAN_POINT ( 'NONE',  ( 0.000000000000000000, 0.000000000000000000, 0.000000000000000000 ) ) ;
#102 = FACE_OUTER_BOUND ( 'NONE', #138, .T. ) ;
#103 = EDGE_CURVE ( 'NONE', #177, #67, #64, .T. ) ;
#104 = PRESENTATION_LAYER_ASSIGNMENT (  '', '', ( #160 ) ) ;
#105 = CIRCLE ( 'NONE', #279, 0.1875000000000000278 ) ;
#106 = VECTOR ( 'NONE', #18, 39.37007874015748143 ) ;
#107 = SURFACE_STYLE_FILL_AREA ( #6 ) ;
#108 = DIMENSIONAL_EXPONENTS ( 1.000000000000000000, 0.000000000000000000, 0.000000000000000000, 0.000000000000000000, 0.000000000000000000, 0.000000000000000000, 0.000000000000000000 ) ;
#109 = COLOUR_RGB ( '',1.000000000000000000, 0.000000000000000000, 0.000000000000000000 ) ;
#110 = DIRECTION ( 'NONE',  ( 1.000000000000000000, -3.498990854706726443E-17, 0.000000000000000000 ) ) ;
#111 = FILL_AREA_STYLE ('',( #155 ) ) ;
#112 = CARTESIAN_POINT ( 'NONE',  ( 0.000000000000000000, 0.7500000000000001110, 0.000000000000000000 ) ) ;
#113 = DIRECTION ( 'NONE',  ( 3.498990854706726443E-17, 1.000000000000000000, -0.000000000000000000 ) ) ;
#114 = AXIS2_PLACEMENT_3D ( 'NONE', #44, #196, #71 ) ;
#115 = ORIENTED_EDGE ( 'NONE', *, *, #185, .F. ) ;
#116 = EDGE_CURVE ( 'NONE', #95, #266, #284, .T. ) ;
#117 = ADVANCED_FACE ( 'NONE', ( #153 ), #134, .T. ) ;
#118 = VECTOR ( 'NONE', #245, 39.37007874015748143 ) ;
#119 = FILL_AREA_STYLE_COLOUR ( '', #109 ) ;
#120 = DIRECTION ( 'NONE',  ( -1.000000000000000000, 0.000000000000000000, 0.000000000000000000 ) ) ;
#121 = CARTESIAN_POINT ( 'NONE',  ( 0.000000000000000000, 0.000000000000000000, 0.000000000000000000 ) ) ;
#122 = FACE_OUTER_BOUND ( 'NONE', #79, .T. ) ;
#123 = PRESENTATION_LAYER_ASSIGNMENT (  '', '', ( #244 ) ) ;
#124 = CYLINDRICAL_SURFACE ( 'NONE', #219, 0.1875000000000000278 ) ;
#125 = CIRCLE ( 'NONE', #114, 0.1874999999999999445 ) ;
#126 = DIRECTION ( 'NONE',  ( 3.498990854706726443E-17, 1.000000000000000000, -0.000000000000000000 ) ) ;
#127 = DIMENSIONAL_EXPONENTS ( 1.000000000000000000, 0.000000000000000000, 0.000000000000000000, 0.000000000000000000, 0.000000000000000000, 0.000000000000000000, 0.000000000000000000 ) ;
#128 = APPLICATION_PROTOCOL_DEFINITION ( 'draft international standard', 'automotive_design', 1998, #30 ) ;
#129 = LENGTH_MEASURE_WITH_UNIT ( LENGTH_MEASURE( 0.02539999999999999897 ), #37 );
#130 = CARTESIAN_POINT ( 'NONE',  ( -0.1874999999999998890, 2.500000000000000000, 0.000000000000000000 ) ) ;
#131 = CARTESIAN_POINT ( 'NONE',  ( 0.1875000000000000555, 2.500000000000000000, 2.296212748401286801E-17 ) ) ;
#132 = MECHANICAL_DESIGN_GEOMETRIC_PRESENTATION_REPRESENTATION (  '', ( #166 ), #306 ) ;
#133 = DIRECTION ( 'NONE',  ( 0.000000000000000000, 1.000000000000000000, 0.000000000000000000 ) ) ;
#134 = CYLINDRICAL_SURFACE ( 'NONE', #231, 0.1874999999999999722 ) ;
#135 = STYLED_ITEM ( 'NONE', ( #23 ), #202 ) ;
#136 = ORIENTED_EDGE ( 'NONE', *, *, #281, .F. ) ;
#137 = ORIENTED_EDGE ( 'NONE', *, *, #116, .F. ) ;
#138 = EDGE_LOOP ( 'NONE', ( #73, #149, #260, #115 ) ) ;
#139 = CIRCLE ( 'NONE', #72, 0.1875000000000000278 ) ;
#140 = FILL_AREA_STYLE ('',( #1 ) ) ;
#141 = ADVANCED_FACE ( 'NONE', ( #230 ), #16, .T. ) ;
#142 = PLANE ( 'NONE',  #63 ) ;
#143 = SURFACE_SIDE_STYLE ('',( #75 ) ) ;
#144 = DIRECTION ( 'NONE',  ( -1.000000000000000000, 0.000000000000000000, 0.000000000000000000 ) ) ;
#145 =( GEOMETRIC_REPRESENTATION_CONTEXT ( 3 ) GLOBAL_UNCERTAINTY_ASSIGNED_CONTEXT ( ( #192 ) ) GLOBAL_UNIT_ASSIGNED_CONTEXT ( ( #96, #21, #194 ) ) REPRESENTATION_CONTEXT ( 'NONE', 'WORKASPACE' ) );
#146 = CARTESIAN_POINT ( 'NONE',  ( 6.123233995736772199E-17, 2.500000000000000000, 0.000000000000000000 ) ) ;
#147 = ADVANCED_FACE ( 'NONE', ( #295 ), #41, .T. ) ;
#148 = UNCERTAINTY_MEASURE_WITH_UNIT (LENGTH_MEASURE( 1.000000000000000082E-05 ), #24, 'distance_accuracy_value', 'NONE');
#149 = ORIENTED_EDGE ( 'NONE', *, *, #252, .T. ) ;
#150 = ORIENTED_EDGE ( 'NONE', *, *, #256, .F. ) ;
#151 = FILL_AREA_STYLE_COLOUR ( '', #220 ) ;
#152 = AXIS2_PLACEMENT_3D ( 'NONE', #302, #93, #42 ) ;
#153 = FACE_OUTER_BOUND ( 'NONE', #262, .T. ) ;
#154 = DIRECTION ( 'NONE',  ( -0.000000000000000000, -1.000000000000000000, -0.000000000000000000 ) ) ;
#155 = FILL_AREA_STYLE_COLOUR ( '', #14 ) ;
#156 = LINE ( 'NONE', #131, #268 ) ;
#157 = DIRECTION ( 'NONE',  ( -0.000000000000000000, -1.000000000000000000, -0.000000000000000000 ) ) ;
#158 = AXIS2_PLACEMENT_3D ( 'NONE', #86, #299, #91 ) ;
#159 = DIRECTION ( 'NONE',  ( -1.000000000000000000, 0.000000000000000000, 0.000000000000000000 ) ) ;
#160 = STYLED_ITEM ( 'NONE', ( #288 ), #85 ) ;
#161 = ORIENTED_EDGE ( 'NONE', *, *, #55, .T. ) ;
#162 =( GEOMETRIC_REPRESENTATION_CONTEXT ( 3 ) GLOBAL_UNCERTAINTY_ASSIGNED_CONTEXT ( ( #34 ) ) GLOBAL_UNIT_ASSIGNED_CONTEXT ( ( #278, #204, #210 ) ) REPRESENTATION_CONTEXT ( 'NONE', 'WORKASPACE' ) );
#163 = SHAPE_DEFINITION_REPRESENTATION ( #214, #5 ) ;
#164 = CARTESIAN_POINT ( 'NONE',  ( 0.000000000000000000, 0.7499999999999998890, 0.000000000000000000 ) ) ;
#165 = ORIENTED_EDGE ( 'NONE', *, *, #103, .T. ) ;
#166 = STYLED_ITEM ( 'NONE', ( #92 ), #147 ) ;
#167 = FACE_OUTER_BOUND ( 'NONE', #242, .T. ) ;
#168 =( NAMED_UNIT ( * ) SI_UNIT ( $, .STERADIAN. ) SOLID_ANGLE_UNIT ( ) );
#169 = PRESENTATION_STYLE_ASSIGNMENT (( #74 ) ) ;
#170 = DIRECTION ( 'NONE',  ( 0.000000000000000000, 0.000000000000000000, -1.000000000000000000 ) ) ;
#171 = COLOUR_RGB ( '',0.7921568627450980005, 0.8196078431372548767, 0.9333333333333333481 ) ;
#172 = SURFACE_SIDE_STYLE ('',( #298 ) ) ;
#173 = ORIENTED_EDGE ( 'NONE', *, *, #208, .T. ) ;
#174 =( CONVERSION_BASED_UNIT ( 'INCH', #80 ) LENGTH_UNIT ( ) NAMED_UNIT ( #127 ) );
#175 = CARTESIAN_POINT ( 'NONE',  ( 1.147775343873872857E-34, 0.7500000000000001110, 0.000000000000000000 ) ) ;
#176 =( NAMED_UNIT ( * ) PLANE_ANGLE_UNIT ( ) SI_UNIT ( $, .RADIAN. ) );
#177 = VERTEX_POINT ( 'NONE', #17 ) ;
#178 = CARTESIAN_POINT ( 'NONE',  ( 0.000000000000000000, 0.000000000000000000, 0.000000000000000000 ) ) ;
#179 = VECTOR ( 'NONE', #157, 39.37007874015748143 ) ;
#180 = CARTESIAN_POINT ( 'NONE',  ( 0.000000000000000000, 0.000000000000000000, -0.1875000000000000278 ) ) ;
#181 = SURFACE_STYLE_USAGE ( .BOTH. , #172 ) ;
#182 = LENGTH_MEASURE_WITH_UNIT ( LENGTH_MEASURE( 0.02539999999999999897 ), #207 );
#183 =( CONVERSION_BASED_UNIT ( 'INCH', #129 ) LENGTH_UNIT ( ) NAMED_UNIT ( #82 ) );
#184 = APPLICATION_PROTOCOL_DEFINITION ( 'draft international standard', 'automotive_design', 1998, #257 ) ;
#185 = EDGE_CURVE ( 'NONE', #67, #292, #275, .T. ) ;
#186 = ORIENTED_EDGE ( 'NONE', *, *, #188, .F. ) ;
#187 = DIRECTION ( 'NONE',  ( 0.000000000000000000, -1.000000000000000000, -0.000000000000000000 ) ) ;
#188 = EDGE_CURVE ( 'NONE', #235, #255, #125, .T. ) ;
#189 = LENGTH_MEASURE_WITH_UNIT ( LENGTH_MEASURE( 0.02539999999999999897 ), #234 );
#190 = EDGE_LOOP ( 'NONE', ( #46, #307 ) ) ;
#191 = DIRECTION ( 'NONE',  ( 0.000000000000000000, 0.000000000000000000, -1.000000000000000000 ) ) ;
#192 = UNCERTAINTY_MEASURE_WITH_UNIT (LENGTH_MEASURE( 1.000000000000000082E-05 ), #96, 'distance_accuracy_value', 'NONE');
#193 = ORIENTED_EDGE ( 'NONE', *, *, #281, .T. ) ;
#194 =( NAMED_UNIT ( * ) SI_UNIT ( $, .STERADIAN. ) SOLID_ANGLE_UNIT ( ) );
#195 = LENGTH_MEASURE_WITH_UNIT ( LENGTH_MEASURE( 0.02539999999999999897 ), #274 );
#196 = DIRECTION ( 'NONE',  ( 3.498990854706726443E-17, 1.000000000000000000, -0.000000000000000000 ) ) ;
#197 = SURFACE_STYLE_FILL_AREA ( #28 ) ;
#198 = COLOUR_RGB ( '',1.000000000000000000, 0.000000000000000000, 0.000000000000000000 ) ;
#199 = MECHANICAL_DESIGN_GEOMETRIC_PRESENTATION_REPRESENTATION (  '', ( #227 ), #145 ) ;
#200 = SURFACE_SIDE_STYLE ('',( #107 ) ) ;
#201 = CARTESIAN_POINT ( 'NONE',  ( 0.000000000000000000, 0.000000000000000000, 0.000000000000000000 ) ) ;
#202 = ADVANCED_FACE ( 'NONE', ( #309 ), #221, .T. ) ;
#203 = DIRECTION ( 'NONE',  ( 0.000000000000000000, 0.000000000000000000, 1.000000000000000000 ) ) ;
#204 =( NAMED_UNIT ( * ) PLANE_ANGLE_UNIT ( ) SI_UNIT ( $, .RADIAN. ) );
#205 = LINE ( 'NONE', #246, #118 ) ;
#206 = ADVANCED_FACE ( 'NONE', ( #69 ), #142, .T. ) ;
#207 =( LENGTH_UNIT ( ) NAMED_UNIT ( * ) SI_UNIT ( $, .METRE. ) );
#208 = EDGE_CURVE ( 'NONE', #266, #95, #105, .T. ) ;
#209 = CARTESIAN_POINT ( 'NONE',  ( 6.123233995736772199E-17, 2.500000000000000000, 0.000000000000000000 ) ) ;
#210 =( NAMED_UNIT ( * ) SI_UNIT ( $, .STERADIAN. ) SOLID_ANGLE_UNIT ( ) );
#211 = PRESENTATION_LAYER_ASSIGNMENT (  '', '', ( #166 ) ) ;
#212 = AXIS2_PLACEMENT_3D ( 'NONE', #146, #4, #144 ) ;
#213 = PRESENTATION_LAYER_ASSIGNMENT (  '', '', ( #227 ) ) ;
#214 = PRODUCT_DEFINITION_SHAPE ( 'NONE', 'NONE',  #270 ) ;
#215 =( LENGTH_UNIT ( ) NAMED_UNIT ( * ) SI_UNIT ( $, .METRE. ) );
#216 = ORIENTED_EDGE ( 'NONE', *, *, #256, .T. ) ;
#217 = CARTESIAN_POINT ( 'NONE',  ( 0.1875000000000000278, 2.500000000000000000, 0.000000000000000000 ) ) ;
#218 = PLANE ( 'NONE',  #249 ) ;
#219 = AXIS2_PLACEMENT_3D ( 'NONE', #201, #291, #170 ) ;
#220 = COLOUR_RGB ( '',0.7921568627450980005, 0.8196078431372548767, 0.9333333333333333481 ) ;
#221 = CYLINDRICAL_SURFACE ( 'NONE', #51, 0.1875000000000000278 ) ;
#222 = ORIENTED_EDGE ( 'NONE', *, *, #254, .F. ) ;
#223 = SURFACE_STYLE_USAGE ( .BOTH. , #29 ) ;
#224 = LENGTH_MEASURE_WITH_UNIT ( LENGTH_MEASURE( 0.02539999999999999897 ), #226 );
#225 = ADVANCED_FACE ( 'NONE', ( #167 ), #47, .F. ) ;
#226 =( LENGTH_UNIT ( ) NAMED_UNIT ( * ) SI_UNIT ( $, .METRE. ) );
#227 = STYLED_ITEM ( 'NONE', ( #169 ), #206 ) ;
#228 = AXIS2_PLACEMENT_3D ( 'NONE', #178, #203, #293 ) ;
#229 = DIRECTION ( 'NONE',  ( 0.000000000000000000, -0.000000000000000000, 1.000000000000000000 ) ) ;
#230 = FACE_OUTER_BOUND ( 'NONE', #243, .T. ) ;
#231 = AXIS2_PLACEMENT_3D ( 'NONE', #209, #247, #59 ) ;
#232 = EDGE_LOOP ( 'NONE', ( #161, #165, #222, #273 ) ) ;
#233 = VERTEX_POINT ( 'NONE', #287 ) ;
#234 =( LENGTH_UNIT ( ) NAMED_UNIT ( * ) SI_UNIT ( $, .METRE. ) );
#235 = VERTEX_POINT ( 'NONE', #36 ) ;
#236 = DIRECTION ( 'NONE',  ( -0.000000000000000000, -1.000000000000000000, -0.000000000000000000 ) ) ;
#237 = DIRECTION ( 'NONE',  ( -0.000000000000000000, -1.000000000000000000, -0.000000000000000000 ) ) ;
#238 = SURFACE_STYLE_USAGE ( .BOTH. , #143 ) ;
#239 = FILL_AREA_STYLE_COLOUR ( '', #171 ) ;
#240 = AXIS2_PLACEMENT_3D ( 'NONE', #289, #90, #77 ) ;
#241 = CARTESIAN_POINT ( 'NONE',  ( -0.1875000000000000278, 0.7499999999999998890, 0.000000000000000000 ) ) ;
#242 = EDGE_LOOP ( 'NONE', ( #45, #76 ) ) ;
#243 = EDGE_LOOP ( 'NONE', ( #83, #216, #70, #136 ) ) ;
#244 = STYLED_ITEM ( 'NONE', ( #269 ), #286 ) ;
#245 = DIRECTION ( 'NONE',  ( 3.498990854706726443E-17, 1.000000000000000000, -0.000000000000000000 ) ) ;
#246 = CARTESIAN_POINT ( 'NONE',  ( -0.1874999999999999167, 2.500000000000000000, 0.000000000000000000 ) ) ;
#247 = DIRECTION ( 'NONE',  ( 3.498990854706726443E-17, 1.000000000000000000, -0.000000000000000000 ) ) ;
#248 = PRODUCT_CONTEXT ( 'NONE', #30, 'mechanical' ) ;
#249 = AXIS2_PLACEMENT_3D ( 'NONE', #175, #126, #52 ) ;
#250 = AXIS2_PLACEMENT_3D ( 'NONE', #217, #98, #110 ) ;
#251 = CARTESIAN_POINT ( 'NONE',  ( 6.123233995736772199E-17, 2.500000000000000000, 0.000000000000000000 ) ) ;
#252 = EDGE_CURVE ( 'NONE', #177, #233, #139, .T. ) ;
#253 = AXIS2_PLACEMENT_3D ( 'NONE', #54, #237, #49 ) ;
#254 = EDGE_CURVE ( 'NONE', #292, #67, #304, .T. ) ;
#255 = VERTEX_POINT ( 'NONE', #130 ) ;
#256 = EDGE_CURVE ( 'NONE', #266, #235, #156, .T. ) ;
#257 = APPLICATION_CONTEXT ( 'automotive_design' ) ;
#258 = PRODUCT ( '81714', '81714', '', ( #248 ) ) ;
#259 = STYLED_ITEM ( 'NONE', ( #285 ), #8 ) ;
#260 = ORIENTED_EDGE ( 'NONE', *, *, #94, .T. ) ;
#261 = DIRECTION ( 'NONE',  ( 3.498990854706726443E-17, 1.000000000000000000, -0.000000000000000000 ) ) ;
#262 = EDGE_LOOP ( 'NONE', ( #150, #173, #193, #186 ) ) ;
#263 = SURFACE_STYLE_FILL_AREA ( #140 ) ;
#264 = UNCERTAINTY_MEASURE_WITH_UNIT (LENGTH_MEASURE( 1.000000000000000082E-05 ), #56, 'distance_accuracy_value', 'NONE');
#265 =( CONVERSION_BASED_UNIT ( 'INCH', #25 ) LENGTH_UNIT ( ) NAMED_UNIT ( #50 ) );
#266 = VERTEX_POINT ( 'NONE', #272 ) ;
#267 = MECHANICAL_DESIGN_GEOMETRIC_PRESENTATION_REPRESENTATION (  '', ( #259 ), #303 ) ;
#268 = VECTOR ( 'NONE', #15, 39.37007874015748143 ) ;
#269 = PRESENTATION_STYLE_ASSIGNMENT (( #181 ) ) ;
#270 = PRODUCT_DEFINITION ( 'UNKNOWN', '', #89, #283 ) ;
#271 = SURFACE_STYLE_USAGE ( .BOTH. , #200 ) ;
#272 = CARTESIAN_POINT ( 'NONE',  ( 0.1875000000000000278, 0.7499999999999998890, 2.296212748401287109E-17 ) ) ;
#273 = ORIENTED_EDGE ( 'NONE', *, *, #94, .F. ) ;
#274 =( LENGTH_UNIT ( ) NAMED_UNIT ( * ) SI_UNIT ( $, .METRE. ) );
#275 = CIRCLE ( 'NONE', #152, 0.1875000000000000278 ) ;
#276 = FILL_AREA_STYLE ('',( #151 ) ) ;
#277 = CARTESIAN_POINT ( 'NONE',  ( 2.296212748401287726E-17, 0.000000000000000000, 0.1875000000000000278 ) ) ;
#278 =( CONVERSION_BASED_UNIT ( 'INCH', #182 ) LENGTH_UNIT ( ) NAMED_UNIT ( #48 ) );
#279 = AXIS2_PLACEMENT_3D ( 'NONE', #164, #261, #120 ) ;
#280 = SURFACE_STYLE_FILL_AREA ( #111 ) ;
#281 = EDGE_CURVE ( 'NONE', #95, #255, #205, .T. ) ;
#282 = DIRECTION ( 'NONE',  ( 0.000000000000000000, 0.000000000000000000, -1.000000000000000000 ) ) ;
#283 = PRODUCT_DEFINITION_CONTEXT ( 'detailed design', #257, 'design' ) ;
#284 = CIRCLE ( 'NONE', #158, 0.1875000000000000278 ) ;
#285 = PRESENTATION_STYLE_ASSIGNMENT (( #271 ) ) ;
#286 = MANIFOLD_SOLID_BREP ( 'Revolve - Tool Body (Straight Shanked)', #305 ) ;
#287 = CARTESIAN_POINT ( 'NONE',  ( 0.000000000000000000, 0.7500000000000001110, -0.1875000000000000278 ) ) ;
#288 = PRESENTATION_STYLE_ASSIGNMENT (( #223 ) ) ;
#289 = CARTESIAN_POINT ( 'NONE',  ( 0.000000000000000000, 0.000000000000000000, 0.000000000000000000 ) ) ;
#290 = PRODUCT_RELATED_PRODUCT_CATEGORY ( 'part', '', ( #258 ) ) ;
#291 = DIRECTION ( 'NONE',  ( -0.000000000000000000, -1.000000000000000000, -0.000000000000000000 ) ) ;
#292 = VERTEX_POINT ( 'NONE', #11 ) ;
#293 = DIRECTION ( 'NONE',  ( 1.000000000000000000, 0.000000000000000000, 0.000000000000000000 ) ) ;
#294 = DIMENSIONAL_EXPONENTS ( 1.000000000000000000, 0.000000000000000000, 0.000000000000000000, 0.000000000000000000, 0.000000000000000000, 0.000000000000000000, 0.000000000000000000 ) ;
#295 = FACE_OUTER_BOUND ( 'NONE', #190, .T. ) ;
#296 = CIRCLE ( 'NONE', #212, 0.1874999999999999445 ) ;
#297 =( GEOMETRIC_REPRESENTATION_CONTEXT ( 3 ) GLOBAL_UNCERTAINTY_ASSIGNED_CONTEXT ( ( #264 ) ) GLOBAL_UNIT_ASSIGNED_CONTEXT ( ( #56, #38, #53 ) ) REPRESENTATION_CONTEXT ( 'NONE', 'WORKASPACE' ) );
#298 = SURFACE_STYLE_FILL_AREA ( #276 ) ;
#299 = DIRECTION ( 'NONE',  ( 3.498990854706726443E-17, 1.000000000000000000, -0.000000000000000000 ) ) ;
#300 = UNCERTAINTY_MEASURE_WITH_UNIT (LENGTH_MEASURE( 1.000000000000000082E-05 ), #174, 'distance_accuracy_value', 'NONE');
#301 =( NAMED_UNIT ( * ) PLANE_ANGLE_UNIT ( ) SI_UNIT ( $, .RADIAN. ) );
#302 = CARTESIAN_POINT ( 'NONE',  ( 0.000000000000000000, 0.000000000000000000, 0.000000000000000000 ) ) ;
#303 =( GEOMETRIC_REPRESENTATION_CONTEXT ( 3 ) GLOBAL_UNCERTAINTY_ASSIGNED_CONTEXT ( ( #148 ) ) GLOBAL_UNIT_ASSIGNED_CONTEXT ( ( #24, #100, #32 ) ) REPRESENTATION_CONTEXT ( 'NONE', 'WORKASPACE' ) );
#304 = CIRCLE ( 'NONE', #240, 0.1875000000000000278 ) ;
#305 = CLOSED_SHELL ( 'NONE', ( #141, #61, #117, #225 ) ) ;
#306 =( GEOMETRIC_REPRESENTATION_CONTEXT ( 3 ) GLOBAL_UNCERTAINTY_ASSIGNED_CONTEXT ( ( #78 ) ) GLOBAL_UNIT_ASSIGNED_CONTEXT ( ( #183, #301, #13 ) ) REPRESENTATION_CONTEXT ( 'NONE', 'WORKASPACE' ) );
#307 = ORIENTED_EDGE ( 'NONE', *, *, #252, .F. ) ;
#308 = SURFACE_SIDE_STYLE ('',( #263 ) ) ;
#309 = FACE_OUTER_BOUND ( 'NONE', #232, .T. ) ;
ENDSEC;
END-ISO-10303-21;
