ISO-10303-21;
HEADER;
FILE_DESCRIPTION (( 'STEP AP214' ),
    '1' );
FILE_NAME ('59265.STEP',
    '2023-06-22T22:31:13',
    ( '' ),
    ( '' ),
    'SwSTEP 2.0',
    'SolidWorks 2023',
    '' );
FILE_SCHEMA (( 'AUTOMOTIVE_DESIGN' ));
ENDSEC;

DATA;
#1 = EDGE_LOOP ( 'NONE', ( #239, #100 ) ) ;
#2 = DIRECTION ( 'NONE',  ( -0.000000000000000000, -1.000000000000000000, -0.000000000000000000 ) ) ;
#3 = AXIS2_PLACEMENT_3D ( 'NONE', #267, #160, #247 ) ;
#4 = ORIENTED_EDGE ( 'NONE', *, *, #65, .T. ) ;
#5 = FILL_AREA_STYLE ('',( #113 ) ) ;
#6 = FILL_AREA_STYLE_COLOUR ( '', #146 ) ;
#7 = VERTEX_POINT ( 'NONE', #15 ) ;
#8 = CARTESIAN_POINT ( 'NONE',  ( -1.224646799147352714E-16, 4.000000000000000000, 0.000000000000000000 ) ) ;
#9 = ORIENTED_EDGE ( 'NONE', *, *, #49, .T. ) ;
#10 = VERTEX_POINT ( 'NONE', #111 ) ;
#11 = MANIFOLD_SOLID_BREP ( 'Revolve - Cutting Edge', #44 ) ;
#12 = STYLED_ITEM ( 'NONE', ( #237 ), #31 ) ;
#13 = AXIS2_PLACEMENT_3D ( 'NONE', #241, #227, #27 ) ;
#14 = MECHANICAL_DESIGN_GEOMETRIC_PRESENTATION_REPRESENTATION (  '', ( #19 ), #250 ) ;
#15 = CARTESIAN_POINT ( 'NONE',  ( -0.2500000000000000555, 1.625000000000000000, 0.000000000000000000 ) ) ;
#16 = CIRCLE ( 'NONE', #122, 0.2500000000000000555 ) ;
#17 =( LENGTH_UNIT ( ) NAMED_UNIT ( * ) SI_UNIT ( $, .METRE. ) );
#18 = APPLICATION_CONTEXT ( 'automotive_design' ) ;
#19 = STYLED_ITEM ( 'NONE', ( #156 ), #199 ) ;
#20 = DIRECTION ( 'NONE',  ( -0.000000000000000000, -1.000000000000000000, -0.000000000000000000 ) ) ;
#21 =( LENGTH_UNIT ( ) NAMED_UNIT ( * ) SI_UNIT ( $, .METRE. ) );
#22 = CARTESIAN_POINT ( 'NONE',  ( 0.000000000000000000, 1.625000000000000000, 0.000000000000000000 ) ) ;
#23 = AXIS2_PLACEMENT_3D ( 'NONE', #162, #30, #136 ) ;
#24 = DIRECTION ( 'NONE',  ( 0.000000000000000000, 0.000000000000000000, -1.000000000000000000 ) ) ;
#25 = LINE ( 'NONE', #152, #90 ) ;
#26 =( LENGTH_UNIT ( ) NAMED_UNIT ( * ) SI_UNIT ( $, .METRE. ) );
#27 = DIRECTION ( 'NONE',  ( -1.000000000000000000, 0.000000000000000000, 0.000000000000000000 ) ) ;
#28 = DIRECTION ( 'NONE',  ( 0.000000000000000000, 0.000000000000000000, -1.000000000000000000 ) ) ;
#29 =( NAMED_UNIT ( * ) PLANE_ANGLE_UNIT ( ) SI_UNIT ( $, .RADIAN. ) );
#30 = DIRECTION ( 'NONE',  ( 0.000000000000000000, -1.000000000000000000, -0.000000000000000000 ) ) ;
#31 = ADVANCED_FACE ( 'NONE', ( #73 ), #308, .T. ) ;
#32 = DIRECTION ( 'NONE',  ( 1.000000000000000000, 0.000000000000000000, 0.000000000000000000 ) ) ;
#33 = SURFACE_STYLE_USAGE ( .BOTH. , #79 ) ;
#34 = LINE ( 'NONE', #179, #127 ) ;
#35 = DIRECTION ( 'NONE',  ( -5.156407575357275299E-17, 1.000000000000000000, -0.000000000000000000 ) ) ;
#36 = CLOSED_SHELL ( 'NONE', ( #61, #171, #307, #182 ) ) ;
#37 =( NAMED_UNIT ( * ) SI_UNIT ( $, .STERADIAN. ) SOLID_ANGLE_UNIT ( ) );
#38 = DIMENSIONAL_EXPONENTS ( 1.000000000000000000, 0.000000000000000000, 0.000000000000000000, 0.000000000000000000, 0.000000000000000000, 0.000000000000000000, 0.000000000000000000 ) ;
#39 = ORIENTED_EDGE ( 'NONE', *, *, #126, .T. ) ;
#40 = VERTEX_POINT ( 'NONE', #245 ) ;
#41 = EDGE_CURVE ( 'NONE', #69, #190, #115, .T. ) ;
#42 = CYLINDRICAL_SURFACE ( 'NONE', #176, 0.2500000000000000000 ) ;
#43 = DIRECTION ( 'NONE',  ( -0.000000000000000000, -1.000000000000000000, -0.000000000000000000 ) ) ;
#44 = CLOSED_SHELL ( 'NONE', ( #199, #254, #56, #31 ) ) ;
#45 =( GEOMETRIC_REPRESENTATION_CONTEXT ( 3 ) GLOBAL_UNCERTAINTY_ASSIGNED_CONTEXT ( ( #172 ) ) GLOBAL_UNIT_ASSIGNED_CONTEXT ( ( #207, #266, #209 ) ) REPRESENTATION_CONTEXT ( 'NONE', 'WORKASPACE' ) );
#46 = CARTESIAN_POINT ( 'NONE',  ( 0.000000000000000000, 0.000000000000000000, 0.000000000000000000 ) ) ;
#47 = DIRECTION ( 'NONE',  ( -5.156407575357275916E-17, 1.000000000000000000, -0.000000000000000000 ) ) ;
#48 = SURFACE_SIDE_STYLE ('',( #88 ) ) ;
#49 = EDGE_CURVE ( 'NONE', #190, #69, #16, .T. ) ;
#50 = SURFACE_SIDE_STYLE ('',( #260 ) ) ;
#51 = ORIENTED_EDGE ( 'NONE', *, *, #54, .F. ) ;
#52 = CARTESIAN_POINT ( 'NONE',  ( -1.224646799147352714E-16, 4.000000000000000000, 0.000000000000000000 ) ) ;
#53 = CARTESIAN_POINT ( 'NONE',  ( 3.061616997868383018E-17, 0.000000000000000000, 0.2500000000000000000 ) ) ;
#54 = EDGE_CURVE ( 'NONE', #112, #40, #285, .T. ) ;
#55 = EDGE_LOOP ( 'NONE', ( #84, #91, #279, #264 ) ) ;
#56 = ADVANCED_FACE ( 'NONE', ( #123 ), #252, .T. ) ;
#57 = SURFACE_STYLE_FILL_AREA ( #202 ) ;
#58 = DIRECTION ( 'NONE',  ( -5.156407575357275299E-17, 1.000000000000000000, -0.000000000000000000 ) ) ;
#59 = PLANE ( 'NONE',  #240 ) ;
#60 = DIRECTION ( 'NONE',  ( 0.000000000000000000, 0.000000000000000000, -1.000000000000000000 ) ) ;
#61 = ADVANCED_FACE ( 'NONE', ( #223 ), #244, .T. ) ;
#62 = SURFACE_SIDE_STYLE ('',( #158 ) ) ;
#63 = DIRECTION ( 'NONE',  ( -0.000000000000000000, -1.000000000000000000, -0.000000000000000000 ) ) ;
#64 = PRESENTATION_LAYER_ASSIGNMENT (  '', '', ( #19 ) ) ;
#65 = EDGE_CURVE ( 'NONE', #10, #7, #89, .T. ) ;
#66 = MECHANICAL_DESIGN_GEOMETRIC_PRESENTATION_REPRESENTATION (  '', ( #12 ), #141 ) ;
#67 =( GEOMETRIC_REPRESENTATION_CONTEXT ( 3 ) GLOBAL_UNCERTAINTY_ASSIGNED_CONTEXT ( ( #71 ) ) GLOBAL_UNIT_ASSIGNED_CONTEXT ( ( #195, #76, #133 ) ) REPRESENTATION_CONTEXT ( 'NONE', 'WORKASPACE' ) );
#68 = DIRECTION ( 'NONE',  ( -0.000000000000000000, -1.000000000000000000, -0.000000000000000000 ) ) ;
#69 = VERTEX_POINT ( 'NONE', #201 ) ;
#70 = DIRECTION ( 'NONE',  ( 0.000000000000000000, -0.000000000000000000, 1.000000000000000000 ) ) ;
#71 = UNCERTAINTY_MEASURE_WITH_UNIT (LENGTH_MEASURE( 1.000000000000000082E-05 ), #195, 'distance_accuracy_value', 'NONE');
#72 = STYLED_ITEM ( 'NONE', ( #194 ), #219 ) ;
#73 = FACE_OUTER_BOUND ( 'NONE', #1, .T. ) ;
#74 = UNCERTAINTY_MEASURE_WITH_UNIT (LENGTH_MEASURE( 1.000000000000000082E-05 ), #85, 'distance_accuracy_value', 'NONE');
#75 =( LENGTH_UNIT ( ) NAMED_UNIT ( * ) SI_UNIT ( $, .METRE. ) );
#76 =( NAMED_UNIT ( * ) PLANE_ANGLE_UNIT ( ) SI_UNIT ( $, .RADIAN. ) );
#77 = CARTESIAN_POINT ( 'NONE',  ( 3.032960542342103792E-32, 1.625000000000000000, 0.000000000000000000 ) ) ;
#78 = EDGE_LOOP ( 'NONE', ( #154, #9, #104, #51 ) ) ;
#79 = SURFACE_SIDE_STYLE ('',( #291 ) ) ;
#80 = CARTESIAN_POINT ( 'NONE',  ( -1.224646799147352714E-16, 4.000000000000000000, 0.000000000000000000 ) ) ;
#81 = CIRCLE ( 'NONE', #135, 0.2500000000000001665 ) ;
#82 = MECHANICAL_DESIGN_GEOMETRIC_PRESENTATION_REPRESENTATION (  '', ( #72 ), #67 ) ;
#83 = CARTESIAN_POINT ( 'NONE',  ( 3.323567385400236968E-34, 1.625000000000000000, 0.000000000000000000 ) ) ;
#84 = ORIENTED_EDGE ( 'NONE', *, *, #41, .T. ) ;
#85 =( CONVERSION_BASED_UNIT ( 'INCH', #137 ) LENGTH_UNIT ( ) NAMED_UNIT ( #38 ) );
#86 = ORIENTED_EDGE ( 'NONE', *, *, #309, .T. ) ;
#87 = FACE_OUTER_BOUND ( 'NONE', #96, .T. ) ;
#88 = SURFACE_STYLE_FILL_AREA ( #306 ) ;
#89 = CIRCLE ( 'NONE', #200, 0.2500000000000000555 ) ;
#90 = VECTOR ( 'NONE', #47, 39.37007874015748143 ) ;
#91 = ORIENTED_EDGE ( 'NONE', *, *, #139, .T. ) ;
#92 =( CONVERSION_BASED_UNIT ( 'INCH', #263 ) LENGTH_UNIT ( ) NAMED_UNIT ( #161 ) );
#93 = SURFACE_STYLE_USAGE ( .BOTH. , #130 ) ;
#94 = ORIENTED_EDGE ( 'NONE', *, *, #197, .F. ) ;
#95 = AXIS2_PLACEMENT_3D ( 'NONE', #269, #155, #32 ) ;
#96 = EDGE_LOOP ( 'NONE', ( #243, #4, #86, #278 ) ) ;
#97 = LENGTH_MEASURE_WITH_UNIT ( LENGTH_MEASURE( 0.02539999999999999897 ), #17 );
#98 =( NAMED_UNIT ( * ) SI_UNIT ( $, .STERADIAN. ) SOLID_ANGLE_UNIT ( ) );
#99 = FILL_AREA_STYLE ('',( #6 ) ) ;
#100 = ORIENTED_EDGE ( 'NONE', *, *, #54, .T. ) ;
#101 = FACE_OUTER_BOUND ( 'NONE', #102, .T. ) ;
#102 = EDGE_LOOP ( 'NONE', ( #94, #213 ) ) ;
#103 = CARTESIAN_POINT ( 'NONE',  ( 0.000000000000000000, 0.000000000000000000, 0.000000000000000000 ) ) ;
#104 = ORIENTED_EDGE ( 'NONE', *, *, #246, .T. ) ;
#105 = FACE_OUTER_BOUND ( 'NONE', #55, .T. ) ;
#106 = DIRECTION ( 'NONE',  ( -5.156407575357275299E-17, 1.000000000000000000, -0.000000000000000000 ) ) ;
#107 = PRESENTATION_LAYER_ASSIGNMENT (  '', '', ( #175 ) ) ;
#108 = VECTOR ( 'NONE', #43, 39.37007874015748143 ) ;
#109 = CARTESIAN_POINT ( 'NONE',  ( 0.2500000000000000555, 4.000000000000000000, 0.000000000000000000 ) ) ;
#110 = DIMENSIONAL_EXPONENTS ( 1.000000000000000000, 0.000000000000000000, 0.000000000000000000, 0.000000000000000000, 0.000000000000000000, 0.000000000000000000, 0.000000000000000000 ) ;
#111 = CARTESIAN_POINT ( 'NONE',  ( 0.2500000000000000555, 1.625000000000000000, 3.061616997868384867E-17 ) ) ;
#112 = VERTEX_POINT ( 'NONE', #53 ) ;
#113 = FILL_AREA_STYLE_COLOUR ( '', #236 ) ;
#114 = LENGTH_MEASURE_WITH_UNIT ( LENGTH_MEASURE( 0.02539999999999999897 ), #258 );
#115 = CIRCLE ( 'NONE', #303, 0.2500000000000000555 ) ;
#116 = PRODUCT ( '59265', '59265', '', ( #273 ) ) ;
#117 = EDGE_CURVE ( 'NONE', #204, #234, #81, .T. ) ;
#118 = CARTESIAN_POINT ( 'NONE',  ( -0.2500000000000002776, 4.000000000000000000, 0.000000000000000000 ) ) ;
#119 = ORIENTED_EDGE ( 'NONE', *, *, #49, .F. ) ;
#120 = DIRECTION ( 'NONE',  ( 0.000000000000000000, 0.000000000000000000, -1.000000000000000000 ) ) ;
#121 = CARTESIAN_POINT ( 'NONE',  ( 0.000000000000000000, 1.625000000000000000, 0.000000000000000000 ) ) ;
#122 = AXIS2_PLACEMENT_3D ( 'NONE', #22, #20, #24 ) ;
#123 = FACE_OUTER_BOUND ( 'NONE', #78, .T. ) ;
#124 = SURFACE_STYLE_USAGE ( .BOTH. , #48 ) ;
#125 = PRODUCT_DEFINITION_CONTEXT ( 'detailed design', #18, 'design' ) ;
#126 = EDGE_CURVE ( 'NONE', #234, #204, #298, .T. ) ;
#127 = VECTOR ( 'NONE', #63, 39.37007874015748143 ) ;
#128 = PRODUCT_DEFINITION_FORMATION_WITH_SPECIFIED_SOURCE ( 'ANY', '', #116, .NOT_KNOWN. ) ;
#129 =( NAMED_UNIT ( * ) PLANE_ANGLE_UNIT ( ) SI_UNIT ( $, .RADIAN. ) );
#130 = SURFACE_SIDE_STYLE ('',( #57 ) ) ;
#131 =( NAMED_UNIT ( * ) PLANE_ANGLE_UNIT ( ) SI_UNIT ( $, .RADIAN. ) );
#132 = LINE ( 'NONE', #208, #165 ) ;
#133 =( NAMED_UNIT ( * ) SI_UNIT ( $, .STERADIAN. ) SOLID_ANGLE_UNIT ( ) );
#134 = ORIENTED_EDGE ( 'NONE', *, *, #309, .F. ) ;
#135 = AXIS2_PLACEMENT_3D ( 'NONE', #80, #35, #290 ) ;
#136 = DIRECTION ( 'NONE',  ( 0.000000000000000000, 0.000000000000000000, -1.000000000000000000 ) ) ;
#137 = LENGTH_MEASURE_WITH_UNIT ( LENGTH_MEASURE( 0.02539999999999999897 ), #297 );
#138 = ORIENTED_EDGE ( 'NONE', *, *, #41, .F. ) ;
#139 = EDGE_CURVE ( 'NONE', #190, #112, #34, .T. ) ;
#140 = LENGTH_MEASURE_WITH_UNIT ( LENGTH_MEASURE( 0.02539999999999999897 ), #281 );
#141 =( GEOMETRIC_REPRESENTATION_CONTEXT ( 3 ) GLOBAL_UNCERTAINTY_ASSIGNED_CONTEXT ( ( #211 ) ) GLOBAL_UNIT_ASSIGNED_CONTEXT ( ( #92, #131, #98 ) ) REPRESENTATION_CONTEXT ( 'NONE', 'WORKASPACE' ) );
#142 = PRODUCT_DEFINITION ( 'UNKNOWN', '', #128, #125 ) ;
#143 = LENGTH_MEASURE_WITH_UNIT ( LENGTH_MEASURE( 0.02539999999999999897 ), #21 );
#144 = EDGE_CURVE ( 'NONE', #10, #234, #132, .T. ) ;
#145 = SURFACE_STYLE_USAGE ( .BOTH. , #50 ) ;
#146 = COLOUR_RGB ( '',1.000000000000000000, 0.000000000000000000, 0.000000000000000000 ) ;
#147 = CIRCLE ( 'NONE', #13, 0.2500000000000000555 ) ;
#148 = AXIS2_PLACEMENT_3D ( 'NONE', #52, #262, #286 ) ;
#149 = EDGE_CURVE ( 'NONE', #40, #112, #261, .T. ) ;
#150 = CARTESIAN_POINT ( 'NONE',  ( 3.061616997868383634E-17, 1.625000000000000000, 0.2500000000000000555 ) ) ;
#151 = ORIENTED_EDGE ( 'NONE', *, *, #197, .T. ) ;
#152 = CARTESIAN_POINT ( 'NONE',  ( -0.2500000000000002220, 4.000000000000000000, 0.000000000000000000 ) ) ;
#153 = DIRECTION ( 'NONE',  ( -1.000000000000000000, 0.000000000000000000, 0.000000000000000000 ) ) ;
#154 = ORIENTED_EDGE ( 'NONE', *, *, #139, .F. ) ;
#155 = DIRECTION ( 'NONE',  ( 0.000000000000000000, 0.000000000000000000, 1.000000000000000000 ) ) ;
#156 = PRESENTATION_STYLE_ASSIGNMENT (( #33 ) ) ;
#157 = PLANE ( 'NONE',  #294 ) ;
#158 = SURFACE_STYLE_FILL_AREA ( #228 ) ;
#159 = AXIS2_PLACEMENT_3D ( 'NONE', #205, #242, #28 ) ;
#160 = DIRECTION ( 'NONE',  ( -5.156407575357275299E-17, 1.000000000000000000, -0.000000000000000000 ) ) ;
#161 = DIMENSIONAL_EXPONENTS ( 1.000000000000000000, 0.000000000000000000, 0.000000000000000000, 0.000000000000000000, 0.000000000000000000, 0.000000000000000000, 0.000000000000000000 ) ;
#162 = CARTESIAN_POINT ( 'NONE',  ( 0.000000000000000000, 0.000000000000000000, 0.000000000000000000 ) ) ;
#163 = FILL_AREA_STYLE_COLOUR ( '', #210 ) ;
#164 = FILL_AREA_STYLE ('',( #304 ) ) ;
#165 = VECTOR ( 'NONE', #295, 39.37007874015748143 ) ;
#166 = ORIENTED_EDGE ( 'NONE', *, *, #117, .F. ) ;
#167 =( CONVERSION_BASED_UNIT ( 'INCH', #114 ) LENGTH_UNIT ( ) NAMED_UNIT ( #185 ) );
#168 = DIRECTION ( 'NONE',  ( 0.000000000000000000, 1.000000000000000000, 0.000000000000000000 ) ) ;
#169 = CARTESIAN_POINT ( 'NONE',  ( 0.000000000000000000, 0.000000000000000000, 0.000000000000000000 ) ) ;
#170 = ADVANCED_BREP_SHAPE_REPRESENTATION ( '59265', ( #11, #219, #95 ), #299 ) ;
#171 = ADVANCED_FACE ( 'NONE', ( #101 ), #157, .F. ) ;
#172 = UNCERTAINTY_MEASURE_WITH_UNIT (LENGTH_MEASURE( 1.000000000000000082E-05 ), #207, 'distance_accuracy_value', 'NONE');
#173 = CYLINDRICAL_SURFACE ( 'NONE', #148, 0.2500000000000001110 ) ;
#174 =( NAMED_UNIT ( * ) SI_UNIT ( $, .STERADIAN. ) SOLID_ANGLE_UNIT ( ) );
#175 = STYLED_ITEM ( 'NONE', ( #217 ), #56 ) ;
#176 = AXIS2_PLACEMENT_3D ( 'NONE', #169, #68, #120 ) ;
#177 = FACE_OUTER_BOUND ( 'NONE', #293, .T. ) ;
#178 = DIRECTION ( 'NONE',  ( 0.000000000000000000, 0.000000000000000000, -1.000000000000000000 ) ) ;
#179 = CARTESIAN_POINT ( 'NONE',  ( 3.061616997868383018E-17, 0.000000000000000000, 0.2500000000000000000 ) ) ;
#180 = AXIS2_PLACEMENT_3D ( 'NONE', #46, #196, #192 ) ;
#181 = PRESENTATION_LAYER_ASSIGNMENT (  '', '', ( #72 ) ) ;
#182 = ADVANCED_FACE ( 'NONE', ( #274 ), #229, .F. ) ;
#183 = DIRECTION ( 'NONE',  ( -5.156407575357275916E-17, 1.000000000000000000, 0.000000000000000000 ) ) ;
#184 = EDGE_LOOP ( 'NONE', ( #268, #39 ) ) ;
#185 = DIMENSIONAL_EXPONENTS ( 1.000000000000000000, 0.000000000000000000, 0.000000000000000000, 0.000000000000000000, 0.000000000000000000, 0.000000000000000000, 0.000000000000000000 ) ;
#186 = PRESENTATION_STYLE_ASSIGNMENT (( #222 ) ) ;
#187 = PRODUCT_DEFINITION_SHAPE ( 'NONE', 'NONE',  #142 ) ;
#188 =( NAMED_UNIT ( * ) SI_UNIT ( $, .STERADIAN. ) SOLID_ANGLE_UNIT ( ) );
#189 = SURFACE_STYLE_USAGE ( .BOTH. , #301 ) ;
#190 = VERTEX_POINT ( 'NONE', #150 ) ;
#191 = STYLED_ITEM ( 'NONE', ( #186 ), #11 ) ;
#192 = DIRECTION ( 'NONE',  ( 0.000000000000000000, 0.000000000000000000, -1.000000000000000000 ) ) ;
#193 = UNCERTAINTY_MEASURE_WITH_UNIT (LENGTH_MEASURE( 1.000000000000000082E-05 ), #233, 'distance_accuracy_value', 'NONE');
#194 = PRESENTATION_STYLE_ASSIGNMENT (( #189 ) ) ;
#195 =( CONVERSION_BASED_UNIT ( 'INCH', #140 ) LENGTH_UNIT ( ) NAMED_UNIT ( #296 ) );
#196 = DIRECTION ( 'NONE',  ( -0.000000000000000000, -1.000000000000000000, -0.000000000000000000 ) ) ;
#197 = EDGE_CURVE ( 'NONE', #7, #10, #147, .T. ) ;
#198 = MECHANICAL_DESIGN_GEOMETRIC_PRESENTATION_REPRESENTATION (  '', ( #175 ), #288 ) ;
#199 = ADVANCED_FACE ( 'NONE', ( #105 ), #42, .T. ) ;
#200 = AXIS2_PLACEMENT_3D ( 'NONE', #77, #58, #292 ) ;
#201 = CARTESIAN_POINT ( 'NONE',  ( 0.000000000000000000, 1.625000000000000000, -0.2500000000000000555 ) ) ;
#202 = FILL_AREA_STYLE ('',( #226 ) ) ;
#203 = DIRECTION ( 'NONE',  ( -1.000000000000000000, -5.156407575357275916E-17, 0.000000000000000000 ) ) ;
#204 = VERTEX_POINT ( 'NONE', #118 ) ;
#205 = CARTESIAN_POINT ( 'NONE',  ( 0.000000000000000000, 0.000000000000000000, 0.000000000000000000 ) ) ;
#206 = UNCERTAINTY_MEASURE_WITH_UNIT (LENGTH_MEASURE( 1.000000000000000082E-05 ), #167, 'distance_accuracy_value', 'NONE');
#207 =( CONVERSION_BASED_UNIT ( 'INCH', #97 ) LENGTH_UNIT ( ) NAMED_UNIT ( #276 ) );
#208 = CARTESIAN_POINT ( 'NONE',  ( 0.2499999999999999722, 4.000000000000000000, 3.061616997868384251E-17 ) ) ;
#209 =( NAMED_UNIT ( * ) SI_UNIT ( $, .STERADIAN. ) SOLID_ANGLE_UNIT ( ) );
#210 = COLOUR_RGB ( '',0.7921568627450980005, 0.8196078431372548767, 0.9333333333333333481 ) ;
#211 = UNCERTAINTY_MEASURE_WITH_UNIT (LENGTH_MEASURE( 1.000000000000000082E-05 ), #92, 'distance_accuracy_value', 'NONE');
#212 = SURFACE_STYLE_FILL_AREA ( #164 ) ;
#213 = ORIENTED_EDGE ( 'NONE', *, *, #65, .F. ) ;
#214 = PRESENTATION_LAYER_ASSIGNMENT (  '', '', ( #191 ) ) ;
#215 =( NAMED_UNIT ( * ) PLANE_ANGLE_UNIT ( ) SI_UNIT ( $, .RADIAN. ) );
#216 = FILL_AREA_STYLE_COLOUR ( '', #224 ) ;
#217 = PRESENTATION_STYLE_ASSIGNMENT (( #124 ) ) ;
#218 = MECHANICAL_DESIGN_GEOMETRIC_PRESENTATION_REPRESENTATION (  '', ( #191 ), #259 ) ;
#219 = MANIFOLD_SOLID_BREP ( 'Revolve - Tool Body (Straight Shanked)', #36 ) ;
#220 =( NAMED_UNIT ( * ) PLANE_ANGLE_UNIT ( ) SI_UNIT ( $, .RADIAN. ) );
#221 = PRESENTATION_STYLE_ASSIGNMENT (( #93 ) ) ;
#222 = SURFACE_STYLE_USAGE ( .BOTH. , #62 ) ;
#223 = FACE_OUTER_BOUND ( 'NONE', #302, .T. ) ;
#224 = COLOUR_RGB ( '',1.000000000000000000, 0.000000000000000000, 0.000000000000000000 ) ;
#225 = PRESENTATION_LAYER_ASSIGNMENT (  '', '', ( #256 ) ) ;
#226 = FILL_AREA_STYLE_COLOUR ( '', #289 ) ;
#227 = DIRECTION ( 'NONE',  ( -5.156407575357275299E-17, 1.000000000000000000, -0.000000000000000000 ) ) ;
#228 = FILL_AREA_STYLE ('',( #163 ) ) ;
#229 = PLANE ( 'NONE',  #282 ) ;
#230 =( NAMED_UNIT ( * ) SI_UNIT ( $, .STERADIAN. ) SOLID_ANGLE_UNIT ( ) );
#231 = AXIS2_PLACEMENT_3D ( 'NONE', #103, #2, #178 ) ;
#232 = DIRECTION ( 'NONE',  ( 1.000000000000000000, 5.156407575357275916E-17, 0.000000000000000000 ) ) ;
#233 =( CONVERSION_BASED_UNIT ( 'INCH', #277 ) LENGTH_UNIT ( ) NAMED_UNIT ( #110 ) );
#234 = VERTEX_POINT ( 'NONE', #251 ) ;
#235 = LINE ( 'NONE', #287, #108 ) ;
#236 = COLOUR_RGB ( '',1.000000000000000000, 0.000000000000000000, 0.000000000000000000 ) ;
#237 = PRESENTATION_STYLE_ASSIGNMENT (( #145 ) ) ;
#238 = APPLICATION_PROTOCOL_DEFINITION ( 'draft international standard', 'automotive_design', 1998, #305 ) ;
#239 = ORIENTED_EDGE ( 'NONE', *, *, #149, .T. ) ;
#240 = AXIS2_PLACEMENT_3D ( 'NONE', #121, #168, #70 ) ;
#241 = CARTESIAN_POINT ( 'NONE',  ( 3.032960542342103792E-32, 1.625000000000000000, 0.000000000000000000 ) ) ;
#242 = DIRECTION ( 'NONE',  ( -0.000000000000000000, -1.000000000000000000, -0.000000000000000000 ) ) ;
#243 = ORIENTED_EDGE ( 'NONE', *, *, #144, .F. ) ;
#244 = CYLINDRICAL_SURFACE ( 'NONE', #3, 0.2500000000000001110 ) ;
#245 = CARTESIAN_POINT ( 'NONE',  ( 0.000000000000000000, 0.000000000000000000, -0.2500000000000000000 ) ) ;
#246 = EDGE_CURVE ( 'NONE', #69, #40, #235, .T. ) ;
#247 = DIRECTION ( 'NONE',  ( -1.000000000000000000, 0.000000000000000000, 0.000000000000000000 ) ) ;
#248 =( CONVERSION_BASED_UNIT ( 'INCH', #143 ) LENGTH_UNIT ( ) NAMED_UNIT ( #270 ) );
#249 = PRESENTATION_LAYER_ASSIGNMENT (  '', '', ( #12 ) ) ;
#250 =( GEOMETRIC_REPRESENTATION_CONTEXT ( 3 ) GLOBAL_UNCERTAINTY_ASSIGNED_CONTEXT ( ( #193 ) ) GLOBAL_UNIT_ASSIGNED_CONTEXT ( ( #233, #129, #230 ) ) REPRESENTATION_CONTEXT ( 'NONE', 'WORKASPACE' ) );
#251 = CARTESIAN_POINT ( 'NONE',  ( 0.2500000000000000555, 4.000000000000000000, 3.061616997868384867E-17 ) ) ;
#252 = CYLINDRICAL_SURFACE ( 'NONE', #231, 0.2500000000000000000 ) ;
#253 = CARTESIAN_POINT ( 'NONE',  ( 0.000000000000000000, 1.625000000000000000, 0.000000000000000000 ) ) ;
#254 = ADVANCED_FACE ( 'NONE', ( #177 ), #59, .T. ) ;
#255 = AXIS2_PLACEMENT_3D ( 'NONE', #8, #106, #153 ) ;
#256 = STYLED_ITEM ( 'NONE', ( #221 ), #254 ) ;
#257 = DIRECTION ( 'NONE',  ( -0.000000000000000000, -1.000000000000000000, -0.000000000000000000 ) ) ;
#258 =( LENGTH_UNIT ( ) NAMED_UNIT ( * ) SI_UNIT ( $, .METRE. ) );
#259 =( GEOMETRIC_REPRESENTATION_CONTEXT ( 3 ) GLOBAL_UNCERTAINTY_ASSIGNED_CONTEXT ( ( #74 ) ) GLOBAL_UNIT_ASSIGNED_CONTEXT ( ( #85, #220, #174 ) ) REPRESENTATION_CONTEXT ( 'NONE', 'WORKASPACE' ) );
#260 = SURFACE_STYLE_FILL_AREA ( #5 ) ;
#261 = CIRCLE ( 'NONE', #159, 0.2500000000000000000 ) ;
#262 = DIRECTION ( 'NONE',  ( -5.156407575357275299E-17, 1.000000000000000000, -0.000000000000000000 ) ) ;
#263 = LENGTH_MEASURE_WITH_UNIT ( LENGTH_MEASURE( 0.02539999999999999897 ), #26 );
#264 = ORIENTED_EDGE ( 'NONE', *, *, #246, .F. ) ;
#265 = PRODUCT_RELATED_PRODUCT_CATEGORY ( 'part', '', ( #116 ) ) ;
#266 =( NAMED_UNIT ( * ) PLANE_ANGLE_UNIT ( ) SI_UNIT ( $, .RADIAN. ) );
#267 = CARTESIAN_POINT ( 'NONE',  ( -1.224646799147352714E-16, 4.000000000000000000, 0.000000000000000000 ) ) ;
#268 = ORIENTED_EDGE ( 'NONE', *, *, #117, .T. ) ;
#269 = CARTESIAN_POINT ( 'NONE',  ( 0.000000000000000000, 0.000000000000000000, 0.000000000000000000 ) ) ;
#270 = DIMENSIONAL_EXPONENTS ( 1.000000000000000000, 0.000000000000000000, 0.000000000000000000, 0.000000000000000000, 0.000000000000000000, 0.000000000000000000, 0.000000000000000000 ) ;
#271 = MECHANICAL_DESIGN_GEOMETRIC_PRESENTATION_REPRESENTATION (  '', ( #256 ), #45 ) ;
#272 = APPLICATION_PROTOCOL_DEFINITION ( 'draft international standard', 'automotive_design', 1998, #18 ) ;
#273 = PRODUCT_CONTEXT ( 'NONE', #305, 'mechanical' ) ;
#274 = FACE_OUTER_BOUND ( 'NONE', #184, .T. ) ;
#275 = SHAPE_DEFINITION_REPRESENTATION ( #187, #170 ) ;
#276 = DIMENSIONAL_EXPONENTS ( 1.000000000000000000, 0.000000000000000000, 0.000000000000000000, 0.000000000000000000, 0.000000000000000000, 0.000000000000000000, 0.000000000000000000 ) ;
#277 = LENGTH_MEASURE_WITH_UNIT ( LENGTH_MEASURE( 0.02539999999999999897 ), #75 );
#278 = ORIENTED_EDGE ( 'NONE', *, *, #126, .F. ) ;
#279 = ORIENTED_EDGE ( 'NONE', *, *, #149, .F. ) ;
#280 = UNCERTAINTY_MEASURE_WITH_UNIT (LENGTH_MEASURE( 1.000000000000000082E-05 ), #248, 'distance_accuracy_value', 'NONE');
#281 =( LENGTH_UNIT ( ) NAMED_UNIT ( * ) SI_UNIT ( $, .METRE. ) );
#282 = AXIS2_PLACEMENT_3D ( 'NONE', #109, #300, #232 ) ;
#283 = ORIENTED_EDGE ( 'NONE', *, *, #144, .T. ) ;
#284 = COLOUR_RGB ( '',0.7921568627450980005, 0.8196078431372548767, 0.9333333333333333481 ) ;
#285 = CIRCLE ( 'NONE', #180, 0.2500000000000000000 ) ;
#286 = DIRECTION ( 'NONE',  ( -1.000000000000000000, 0.000000000000000000, 0.000000000000000000 ) ) ;
#287 = CARTESIAN_POINT ( 'NONE',  ( 0.000000000000000000, 0.000000000000000000, -0.2500000000000000000 ) ) ;
#288 =( GEOMETRIC_REPRESENTATION_CONTEXT ( 3 ) GLOBAL_UNCERTAINTY_ASSIGNED_CONTEXT ( ( #206 ) ) GLOBAL_UNIT_ASSIGNED_CONTEXT ( ( #167, #215, #188 ) ) REPRESENTATION_CONTEXT ( 'NONE', 'WORKASPACE' ) );
#289 = COLOUR_RGB ( '',1.000000000000000000, 0.000000000000000000, 0.000000000000000000 ) ;
#290 = DIRECTION ( 'NONE',  ( -1.000000000000000000, 0.000000000000000000, 0.000000000000000000 ) ) ;
#291 = SURFACE_STYLE_FILL_AREA ( #99 ) ;
#292 = DIRECTION ( 'NONE',  ( -1.000000000000000000, 0.000000000000000000, 0.000000000000000000 ) ) ;
#293 = EDGE_LOOP ( 'NONE', ( #138, #119 ) ) ;
#294 = AXIS2_PLACEMENT_3D ( 'NONE', #83, #183, #203 ) ;
#295 = DIRECTION ( 'NONE',  ( -5.156407575357275916E-17, 1.000000000000000000, -0.000000000000000000 ) ) ;
#296 = DIMENSIONAL_EXPONENTS ( 1.000000000000000000, 0.000000000000000000, 0.000000000000000000, 0.000000000000000000, 0.000000000000000000, 0.000000000000000000, 0.000000000000000000 ) ;
#297 =( LENGTH_UNIT ( ) NAMED_UNIT ( * ) SI_UNIT ( $, .METRE. ) );
#298 = CIRCLE ( 'NONE', #255, 0.2500000000000001665 ) ;
#299 =( GEOMETRIC_REPRESENTATION_CONTEXT ( 3 ) GLOBAL_UNCERTAINTY_ASSIGNED_CONTEXT ( ( #280 ) ) GLOBAL_UNIT_ASSIGNED_CONTEXT ( ( #248, #29, #37 ) ) REPRESENTATION_CONTEXT ( 'NONE', 'WORKASPACE' ) );
#300 = DIRECTION ( 'NONE',  ( 5.156407575357275916E-17, -1.000000000000000000, 0.000000000000000000 ) ) ;
#301 = SURFACE_SIDE_STYLE ('',( #212 ) ) ;
#302 = EDGE_LOOP ( 'NONE', ( #151, #283, #166, #134 ) ) ;
#303 = AXIS2_PLACEMENT_3D ( 'NONE', #253, #257, #60 ) ;
#304 = FILL_AREA_STYLE_COLOUR ( '', #284 ) ;
#305 = APPLICATION_CONTEXT ( 'automotive_design' ) ;
#306 = FILL_AREA_STYLE ('',( #216 ) ) ;
#307 = ADVANCED_FACE ( 'NONE', ( #87 ), #173, .T. ) ;
#308 = PLANE ( 'NONE',  #23 ) ;
#309 = EDGE_CURVE ( 'NONE', #7, #204, #25, .T. ) ;
ENDSEC;
END-ISO-10303-21;
