ISO-10303-21;
HEADER;
FILE_DESCRIPTION (( 'STEP AP214' ),
    '1' );
FILE_NAME ('81843.STEP',
    '2023-06-23T03:31:33',
    ( '' ),
    ( '' ),
    'SwSTEP 2.0',
    'SolidWorks 2023',
    '' );
FILE_SCHEMA (( 'AUTOMOTIVE_DESIGN' ));
ENDSEC;

DATA;
#1 = EDGE_CURVE ( 'NONE', #149, #235, #236, .T. ) ;
#2 = CIRCLE ( 'NONE', #252, 0.1875000000000000278 ) ;
#3 = ORIENTED_EDGE ( 'NONE', *, *, #25, .F. ) ;
#4 = AXIS2_PLACEMENT_3D ( 'NONE', #90, #185, #190 ) ;
#5 = APPLICATION_PROTOCOL_DEFINITION ( 'draft international standard', 'automotive_design', 1998, #91 ) ;
#6 = ORIENTED_EDGE ( 'NONE', *, *, #46, .F. ) ;
#7 = CIRCLE ( 'NONE', #4, 0.1875000000000000278 ) ;
#8 = FACE_OUTER_BOUND ( 'NONE', #74, .T. ) ;
#9 = DIRECTION ( 'NONE',  ( -1.000000000000000000, -3.061616997868380553E-17, 0.000000000000000000 ) ) ;
#10 = DIRECTION ( 'NONE',  ( -3.061616997868380553E-17, 1.000000000000000000, 0.000000000000000000 ) ) ;
#11 = FACE_OUTER_BOUND ( 'NONE', #260, .T. ) ;
#12 = UNCERTAINTY_MEASURE_WITH_UNIT (LENGTH_MEASURE( 1.000000000000000082E-05 ), #204, 'distance_accuracy_value', 'NONE');
#13 =( CONVERSION_BASED_UNIT ( 'INCH', #224 ) LENGTH_UNIT ( ) NAMED_UNIT ( #209 ) );
#14 = CARTESIAN_POINT ( 'NONE',  ( 2.296212748401287726E-17, 1.500000000000000222, 0.1875000000000000278 ) ) ;
#15 = DIRECTION ( 'NONE',  ( 0.000000000000000000, 0.000000000000000000, -1.000000000000000000 ) ) ;
#16 = CARTESIAN_POINT ( 'NONE',  ( 0.000000000000000000, 0.000000000000000000, 0.000000000000000000 ) ) ;
#17 = CARTESIAN_POINT ( 'NONE',  ( -0.1875000000000001110, 3.500000000000000000, 0.000000000000000000 ) ) ;
#18 = AXIS2_PLACEMENT_3D ( 'NONE', #221, #107, #163 ) ;
#19 = PRODUCT_DEFINITION_FORMATION_WITH_SPECIFIED_SOURCE ( 'ANY', '', #93, .NOT_KNOWN. ) ;
#20 =( CONVERSION_BASED_UNIT ( 'INCH', #210 ) LENGTH_UNIT ( ) NAMED_UNIT ( #186 ) );
#21 = DIRECTION ( 'NONE',  ( -0.000000000000000000, -1.000000000000000000, -0.000000000000000000 ) ) ;
#22 = EDGE_CURVE ( 'NONE', #129, #235, #148, .T. ) ;
#23 =( NAMED_UNIT ( * ) SI_UNIT ( $, .STERADIAN. ) SOLID_ANGLE_UNIT ( ) );
#24 = COLOUR_RGB ( '',0.7921568627450980005, 0.8196078431372548767, 0.9333333333333333481 ) ;
#25 = EDGE_CURVE ( 'NONE', #234, #32, #141, .T. ) ;
#26 = ORIENTED_EDGE ( 'NONE', *, *, #46, .T. ) ;
#27 = MANIFOLD_SOLID_BREP ( 'Revolve - Tool Body (Straight Shanked)', #162 ) ;
#28 = AXIS2_PLACEMENT_3D ( 'NONE', #267, #172, #242 ) ;
#29 =( GEOMETRIC_REPRESENTATION_CONTEXT ( 3 ) GLOBAL_UNCERTAINTY_ASSIGNED_CONTEXT ( ( #128 ) ) GLOBAL_UNIT_ASSIGNED_CONTEXT ( ( #136, #223, #109 ) ) REPRESENTATION_CONTEXT ( 'NONE', 'WORKASPACE' ) );
#30 = ORIENTED_EDGE ( 'NONE', *, *, #25, .T. ) ;
#31 =( GEOMETRIC_REPRESENTATION_CONTEXT ( 3 ) GLOBAL_UNCERTAINTY_ASSIGNED_CONTEXT ( ( #12 ) ) GLOBAL_UNIT_ASSIGNED_CONTEXT ( ( #204, #139, #65 ) ) REPRESENTATION_CONTEXT ( 'NONE', 'WORKASPACE' ) );
#32 = VERTEX_POINT ( 'NONE', #244 ) ;
#33 = ORIENTED_EDGE ( 'NONE', *, *, #22, .T. ) ;
#34 = COLOUR_RGB ( '',1.000000000000000000, 0.000000000000000000, 0.000000000000000000 ) ;
#35 = SURFACE_STYLE_FILL_AREA ( #241 ) ;
#36 = ADVANCED_FACE ( 'NONE', ( #38 ), #201, .T. ) ;
#37 = FILL_AREA_STYLE ('',( #266 ) ) ;
#38 = FACE_OUTER_BOUND ( 'NONE', #166, .T. ) ;
#39 = DIRECTION ( 'NONE',  ( 3.061616997868380553E-17, -1.000000000000000000, 0.000000000000000000 ) ) ;
#40 =( GEOMETRIC_REPRESENTATION_CONTEXT ( 3 ) GLOBAL_UNCERTAINTY_ASSIGNED_CONTEXT ( ( #124 ) ) GLOBAL_UNIT_ASSIGNED_CONTEXT ( ( #230, #143, #23 ) ) REPRESENTATION_CONTEXT ( 'NONE', 'WORKASPACE' ) );
#41 = CYLINDRICAL_SURFACE ( 'NONE', #165, 0.1875000000000000555 ) ;
#42 = DIRECTION ( 'NONE',  ( -0.000000000000000000, -1.000000000000000000, -0.000000000000000000 ) ) ;
#43 = LINE ( 'NONE', #181, #73 ) ;
#44 = DIRECTION ( 'NONE',  ( 0.000000000000000000, -1.000000000000000000, -0.000000000000000000 ) ) ;
#45 = FACE_OUTER_BOUND ( 'NONE', #132, .T. ) ;
#46 = EDGE_CURVE ( 'NONE', #262, #309, #2, .T. ) ;
#47 = AXIS2_PLACEMENT_3D ( 'NONE', #137, #42, #118 ) ;
#48 = EDGE_CURVE ( 'NONE', #194, #129, #199, .T. ) ;
#49 = PRODUCT_DEFINITION_SHAPE ( 'NONE', 'NONE',  #297 ) ;
#50 = SURFACE_SIDE_STYLE ('',( #164 ) ) ;
#51 = APPLICATION_PROTOCOL_DEFINITION ( 'draft international standard', 'automotive_design', 1998, #177 ) ;
#52 = ORIENTED_EDGE ( 'NONE', *, *, #97, .T. ) ;
#53 = ORIENTED_EDGE ( 'NONE', *, *, #231, .F. ) ;
#54 = PRESENTATION_LAYER_ASSIGNMENT (  '', '', ( #158 ) ) ;
#55 = ORIENTED_EDGE ( 'NONE', *, *, #188, .T. ) ;
#56 = ORIENTED_EDGE ( 'NONE', *, *, #76, .F. ) ;
#57 = ORIENTED_EDGE ( 'NONE', *, *, #48, .T. ) ;
#58 = DIRECTION ( 'NONE',  ( -0.000000000000000000, -1.000000000000000000, -0.000000000000000000 ) ) ;
#59 = ADVANCED_BREP_SHAPE_REPRESENTATION ( '81843', ( #115, #27, #248 ), #200 ) ;
#60 = AXIS2_PLACEMENT_3D ( 'NONE', #245, #250, #85 ) ;
#61 =( LENGTH_UNIT ( ) NAMED_UNIT ( * ) SI_UNIT ( $, .METRE. ) );
#62 = FILL_AREA_STYLE_COLOUR ( '', #24 ) ;
#63 = DIRECTION ( 'NONE',  ( -3.061616997868380553E-17, 1.000000000000000000, -0.000000000000000000 ) ) ;
#64 = STYLED_ITEM ( 'NONE', ( #72 ), #116 ) ;
#65 =( NAMED_UNIT ( * ) SI_UNIT ( $, .STERADIAN. ) SOLID_ANGLE_UNIT ( ) );
#66 = CARTESIAN_POINT ( 'NONE',  ( 0.000000000000000000, 0.000000000000000000, -0.1875000000000000278 ) ) ;
#67 = CARTESIAN_POINT ( 'NONE',  ( 0.000000000000000000, 0.000000000000000000, 0.000000000000000000 ) ) ;
#68 = ADVANCED_FACE ( 'NONE', ( #11 ), #41, .T. ) ;
#69 = VECTOR ( 'NONE', #180, 39.37007874015748143 ) ;
#70 = PRESENTATION_LAYER_ASSIGNMENT (  '', '', ( #64 ) ) ;
#71 = CARTESIAN_POINT ( 'NONE',  ( 0.000000000000000000, 1.500000000000000222, 0.000000000000000000 ) ) ;
#72 = PRESENTATION_STYLE_ASSIGNMENT (( #258 ) ) ;
#73 = VECTOR ( 'NONE', #83, 39.37007874015748143 ) ;
#74 = EDGE_LOOP ( 'NONE', ( #150, #195 ) ) ;
#75 = DIRECTION ( 'NONE',  ( -1.000000000000000000, 0.000000000000000000, 0.000000000000000000 ) ) ;
#76 = EDGE_CURVE ( 'NONE', #262, #234, #300, .T. ) ;
#77 = ORIENTED_EDGE ( 'NONE', *, *, #231, .T. ) ;
#78 = ORIENTED_EDGE ( 'NONE', *, *, #292, .F. ) ;
#79 = DIRECTION ( 'NONE',  ( -3.061616997868380553E-17, 1.000000000000000000, -0.000000000000000000 ) ) ;
#80 = SURFACE_STYLE_USAGE ( .BOTH. , #198 ) ;
#81 = AXIS2_PLACEMENT_3D ( 'NONE', #153, #58, #82 ) ;
#82 = DIRECTION ( 'NONE',  ( 0.000000000000000000, 0.000000000000000000, -1.000000000000000000 ) ) ;
#83 = DIRECTION ( 'NONE',  ( -0.000000000000000000, -1.000000000000000000, -0.000000000000000000 ) ) ;
#84 = FILL_AREA_STYLE ('',( #275 ) ) ;
#85 = DIRECTION ( 'NONE',  ( 0.000000000000000000, -0.000000000000000000, 1.000000000000000000 ) ) ;
#86 = FILL_AREA_STYLE_COLOUR ( '', #285 ) ;
#87 =( LENGTH_UNIT ( ) NAMED_UNIT ( * ) SI_UNIT ( $, .METRE. ) );
#88 = PRESENTATION_STYLE_ASSIGNMENT (( #256 ) ) ;
#89 =( NAMED_UNIT ( * ) PLANE_ANGLE_UNIT ( ) SI_UNIT ( $, .RADIAN. ) );
#90 = CARTESIAN_POINT ( 'NONE',  ( 0.000000000000000000, 1.500000000000000222, 0.000000000000000000 ) ) ;
#91 = APPLICATION_CONTEXT ( 'automotive_design' ) ;
#92 = CIRCLE ( 'NONE', #47, 0.1875000000000000278 ) ;
#93 = PRODUCT ( '81843', '81843', '', ( #123 ) ) ;
#94 = CIRCLE ( 'NONE', #18, 0.1875000000000000833 ) ;
#95 = ORIENTED_EDGE ( 'NONE', *, *, #22, .F. ) ;
#96 = UNCERTAINTY_MEASURE_WITH_UNIT (LENGTH_MEASURE( 1.000000000000000082E-05 ), #13, 'distance_accuracy_value', 'NONE');
#97 = EDGE_CURVE ( 'NONE', #235, #149, #94, .T. ) ;
#98 = DIRECTION ( 'NONE',  ( 1.000000000000000000, 0.000000000000000000, 0.000000000000000000 ) ) ;
#99 = CARTESIAN_POINT ( 'NONE',  ( -6.123233995736759873E-17, 3.500000000000000000, 0.000000000000000000 ) ) ;
#100 = STYLED_ITEM ( 'NONE', ( #219 ), #27 ) ;
#101 = STYLED_ITEM ( 'NONE', ( #88 ), #125 ) ;
#102 = EDGE_CURVE ( 'NONE', #32, #234, #175, .T. ) ;
#103 = PLANE ( 'NONE',  #106 ) ;
#104 = DIRECTION ( 'NONE',  ( -3.061616997868380553E-17, 1.000000000000000000, -0.000000000000000000 ) ) ;
#105 = DIRECTION ( 'NONE',  ( -0.000000000000000000, -1.000000000000000000, -0.000000000000000000 ) ) ;
#106 = AXIS2_PLACEMENT_3D ( 'NONE', #294, #10, #9 ) ;
#107 = DIRECTION ( 'NONE',  ( -3.061616997868380553E-17, 1.000000000000000000, -0.000000000000000000 ) ) ;
#108 = ADVANCED_FACE ( 'NONE', ( #8 ), #103, .F. ) ;
#109 =( NAMED_UNIT ( * ) SI_UNIT ( $, .STERADIAN. ) SOLID_ANGLE_UNIT ( ) );
#110 = DIMENSIONAL_EXPONENTS ( 1.000000000000000000, 0.000000000000000000, 0.000000000000000000, 0.000000000000000000, 0.000000000000000000, 0.000000000000000000, 0.000000000000000000 ) ;
#111 =( NAMED_UNIT ( * ) SI_UNIT ( $, .STERADIAN. ) SOLID_ANGLE_UNIT ( ) );
#112 = LINE ( 'NONE', #17, #189 ) ;
#113 =( NAMED_UNIT ( * ) SI_UNIT ( $, .STERADIAN. ) SOLID_ANGLE_UNIT ( ) );
#114 = SURFACE_SIDE_STYLE ('',( #279 ) ) ;
#115 = MANIFOLD_SOLID_BREP ( 'Revolve - Cutting Edge', #276 ) ;
#116 = ADVANCED_FACE ( 'NONE', ( #282 ), #281, .T. ) ;
#117 = FACE_OUTER_BOUND ( 'NONE', #263, .T. ) ;
#118 = DIRECTION ( 'NONE',  ( 0.000000000000000000, 0.000000000000000000, -1.000000000000000000 ) ) ;
#119 =( LENGTH_UNIT ( ) NAMED_UNIT ( * ) SI_UNIT ( $, .METRE. ) );
#120 = AXIS2_PLACEMENT_3D ( 'NONE', #99, #288, #75 ) ;
#121 = PRESENTATION_LAYER_ASSIGNMENT (  '', '', ( #226 ) ) ;
#122 =( NAMED_UNIT ( * ) PLANE_ANGLE_UNIT ( ) SI_UNIT ( $, .RADIAN. ) );
#123 = PRODUCT_CONTEXT ( 'NONE', #91, 'mechanical' ) ;
#124 = UNCERTAINTY_MEASURE_WITH_UNIT (LENGTH_MEASURE( 1.000000000000000082E-05 ), #230, 'distance_accuracy_value', 'NONE');
#125 = ADVANCED_FACE ( 'NONE', ( #227 ), #220, .T. ) ;
#126 = MECHANICAL_DESIGN_GEOMETRIC_PRESENTATION_REPRESENTATION (  '', ( #226 ), #192 ) ;
#127 = DIRECTION ( 'NONE',  ( 0.000000000000000000, 0.000000000000000000, 1.000000000000000000 ) ) ;
#128 = UNCERTAINTY_MEASURE_WITH_UNIT (LENGTH_MEASURE( 1.000000000000000082E-05 ), #136, 'distance_accuracy_value', 'NONE');
#129 = VERTEX_POINT ( 'NONE', #208 ) ;
#130 = UNCERTAINTY_MEASURE_WITH_UNIT (LENGTH_MEASURE( 1.000000000000000082E-05 ), #20, 'distance_accuracy_value', 'NONE');
#131 =( GEOMETRIC_REPRESENTATION_CONTEXT ( 3 ) GLOBAL_UNCERTAINTY_ASSIGNED_CONTEXT ( ( #233 ) ) GLOBAL_UNIT_ASSIGNED_CONTEXT ( ( #211, #122, #306 ) ) REPRESENTATION_CONTEXT ( 'NONE', 'WORKASPACE' ) );
#132 = EDGE_LOOP ( 'NONE', ( #26, #77, #3, #56 ) ) ;
#133 = CARTESIAN_POINT ( 'NONE',  ( 0.000000000000000000, 0.000000000000000000, -0.1875000000000000278 ) ) ;
#134 = LENGTH_MEASURE_WITH_UNIT ( LENGTH_MEASURE( 0.02539999999999999897 ), #154 );
#135 =( CONVERSION_BASED_UNIT ( 'INCH', #243 ) LENGTH_UNIT ( ) NAMED_UNIT ( #110 ) );
#136 =( CONVERSION_BASED_UNIT ( 'INCH', #134 ) LENGTH_UNIT ( ) NAMED_UNIT ( #283 ) );
#137 = CARTESIAN_POINT ( 'NONE',  ( 0.000000000000000000, 1.500000000000000222, 0.000000000000000000 ) ) ;
#138 =( GEOMETRIC_REPRESENTATION_CONTEXT ( 3 ) GLOBAL_UNCERTAINTY_ASSIGNED_CONTEXT ( ( #215 ) ) GLOBAL_UNIT_ASSIGNED_CONTEXT ( ( #135, #169, #113 ) ) REPRESENTATION_CONTEXT ( 'NONE', 'WORKASPACE' ) );
#139 =( NAMED_UNIT ( * ) PLANE_ANGLE_UNIT ( ) SI_UNIT ( $, .RADIAN. ) );
#140 = FACE_OUTER_BOUND ( 'NONE', #168, .T. ) ;
#141 = CIRCLE ( 'NONE', #81, 0.1875000000000000278 ) ;
#142 = PRESENTATION_LAYER_ASSIGNMENT (  '', '', ( #167 ) ) ;
#143 =( NAMED_UNIT ( * ) PLANE_ANGLE_UNIT ( ) SI_UNIT ( $, .RADIAN. ) );
#144 = LENGTH_MEASURE_WITH_UNIT ( LENGTH_MEASURE( 0.02539999999999999897 ), #257 );
#145 = EDGE_CURVE ( 'NONE', #129, #194, #7, .T. ) ;
#146 = ORIENTED_EDGE ( 'NONE', *, *, #76, .T. ) ;
#147 = MECHANICAL_DESIGN_GEOMETRIC_PRESENTATION_REPRESENTATION (  '', ( #101 ), #31 ) ;
#148 = LINE ( 'NONE', #176, #265 ) ;
#149 = VERTEX_POINT ( 'NONE', #274 ) ;
#150 = ORIENTED_EDGE ( 'NONE', *, *, #48, .F. ) ;
#151 = COLOUR_RGB ( '',1.000000000000000000, 0.000000000000000000, 0.000000000000000000 ) ;
#152 = DIRECTION ( 'NONE',  ( 0.000000000000000000, 0.000000000000000000, -1.000000000000000000 ) ) ;
#153 = CARTESIAN_POINT ( 'NONE',  ( 0.000000000000000000, 0.000000000000000000, 0.000000000000000000 ) ) ;
#154 =( LENGTH_UNIT ( ) NAMED_UNIT ( * ) SI_UNIT ( $, .METRE. ) );
#155 =( LENGTH_UNIT ( ) NAMED_UNIT ( * ) SI_UNIT ( $, .METRE. ) );
#156 = DIRECTION ( 'NONE',  ( -0.000000000000000000, -1.000000000000000000, -0.000000000000000000 ) ) ;
#157 = MECHANICAL_DESIGN_GEOMETRIC_PRESENTATION_REPRESENTATION (  '', ( #100 ), #29 ) ;
#158 = STYLED_ITEM ( 'NONE', ( #303 ), #228 ) ;
#159 = DIRECTION ( 'NONE',  ( 0.000000000000000000, 0.000000000000000000, -1.000000000000000000 ) ) ;
#160 = SURFACE_SIDE_STYLE ('',( #305 ) ) ;
#161 = CARTESIAN_POINT ( 'NONE',  ( 0.1875000000000000278, 3.500000000000000000, 2.296212748401288342E-17 ) ) ;
#162 = CLOSED_SHELL ( 'NONE', ( #36, #108, #68, #286 ) ) ;
#163 = DIRECTION ( 'NONE',  ( -1.000000000000000000, 0.000000000000000000, 0.000000000000000000 ) ) ;
#164 = SURFACE_STYLE_FILL_AREA ( #280 ) ;
#165 = AXIS2_PLACEMENT_3D ( 'NONE', #197, #202, #218 ) ;
#166 = EDGE_LOOP ( 'NONE', ( #57, #33, #239, #284 ) ) ;
#167 = STYLED_ITEM ( 'NONE', ( #259 ), #115 ) ;
#168 = EDGE_LOOP ( 'NONE', ( #6, #78 ) ) ;
#169 =( NAMED_UNIT ( * ) PLANE_ANGLE_UNIT ( ) SI_UNIT ( $, .RADIAN. ) );
#170 = ORIENTED_EDGE ( 'NONE', *, *, #102, .T. ) ;
#171 =( LENGTH_UNIT ( ) NAMED_UNIT ( * ) SI_UNIT ( $, .METRE. ) );
#172 = DIRECTION ( 'NONE',  ( -3.061616997868380553E-17, 1.000000000000000000, -0.000000000000000000 ) ) ;
#173 = DIRECTION ( 'NONE',  ( -0.000000000000000000, -1.000000000000000000, -0.000000000000000000 ) ) ;
#174 = AXIS2_PLACEMENT_3D ( 'NONE', #249, #63, #268 ) ;
#175 = CIRCLE ( 'NONE', #277, 0.1875000000000000278 ) ;
#176 = CARTESIAN_POINT ( 'NONE',  ( 0.1874999999999999722, 3.500000000000000000, 2.296212748401288034E-17 ) ) ;
#177 = APPLICATION_CONTEXT ( 'automotive_design' ) ;
#178 = SURFACE_SIDE_STYLE ('',( #264 ) ) ;
#179 = PLANE ( 'NONE',  #253 ) ;
#180 = DIRECTION ( 'NONE',  ( -0.000000000000000000, -1.000000000000000000, -0.000000000000000000 ) ) ;
#181 = CARTESIAN_POINT ( 'NONE',  ( 2.296212748401287726E-17, 0.000000000000000000, 0.1875000000000000278 ) ) ;
#182 = FILL_AREA_STYLE ('',( #86 ) ) ;
#183 = SURFACE_STYLE_FILL_AREA ( #225 ) ;
#184 = FILL_AREA_STYLE_COLOUR ( '', #247 ) ;
#185 = DIRECTION ( 'NONE',  ( -3.061616997868380553E-17, 1.000000000000000000, -0.000000000000000000 ) ) ;
#186 = DIMENSIONAL_EXPONENTS ( 1.000000000000000000, 0.000000000000000000, 0.000000000000000000, 0.000000000000000000, 0.000000000000000000, 0.000000000000000000, 0.000000000000000000 ) ;
#187 = DIRECTION ( 'NONE',  ( 0.000000000000000000, 0.000000000000000000, -1.000000000000000000 ) ) ;
#188 = EDGE_CURVE ( 'NONE', #194, #149, #112, .T. ) ;
#189 = VECTOR ( 'NONE', #104, 39.37007874015748143 ) ;
#190 = DIRECTION ( 'NONE',  ( -1.000000000000000000, 0.000000000000000000, 0.000000000000000000 ) ) ;
#191 = DIMENSIONAL_EXPONENTS ( 1.000000000000000000, 0.000000000000000000, 0.000000000000000000, 0.000000000000000000, 0.000000000000000000, 0.000000000000000000, 0.000000000000000000 ) ;
#192 =( GEOMETRIC_REPRESENTATION_CONTEXT ( 3 ) GLOBAL_UNCERTAINTY_ASSIGNED_CONTEXT ( ( #130 ) ) GLOBAL_UNIT_ASSIGNED_CONTEXT ( ( #20, #89, #304 ) ) REPRESENTATION_CONTEXT ( 'NONE', 'WORKASPACE' ) );
#193 = EDGE_LOOP ( 'NONE', ( #53, #261, #146, #293 ) ) ;
#194 = VERTEX_POINT ( 'NONE', #254 ) ;
#195 = ORIENTED_EDGE ( 'NONE', *, *, #145, .F. ) ;
#196 = MECHANICAL_DESIGN_GEOMETRIC_PRESENTATION_REPRESENTATION (  '', ( #167 ), #40 ) ;
#197 = CARTESIAN_POINT ( 'NONE',  ( -6.123233995736759873E-17, 3.500000000000000000, 0.000000000000000000 ) ) ;
#198 = SURFACE_SIDE_STYLE ('',( #35 ) ) ;
#199 = CIRCLE ( 'NONE', #28, 0.1875000000000000278 ) ;
#200 =( GEOMETRIC_REPRESENTATION_CONTEXT ( 3 ) GLOBAL_UNCERTAINTY_ASSIGNED_CONTEXT ( ( #96 ) ) GLOBAL_UNIT_ASSIGNED_CONTEXT ( ( #13, #298, #111 ) ) REPRESENTATION_CONTEXT ( 'NONE', 'WORKASPACE' ) );
#201 = CYLINDRICAL_SURFACE ( 'NONE', #174, 0.1875000000000000555 ) ;
#202 = DIRECTION ( 'NONE',  ( -3.061616997868380553E-17, 1.000000000000000000, -0.000000000000000000 ) ) ;
#203 = DIRECTION ( 'NONE',  ( 1.000000000000000000, 3.061616997868380553E-17, 0.000000000000000000 ) ) ;
#204 =( CONVERSION_BASED_UNIT ( 'INCH', #272 ) LENGTH_UNIT ( ) NAMED_UNIT ( #299 ) );
#205 = CARTESIAN_POINT ( 'NONE',  ( 0.1875000000000000278, 3.500000000000000000, 0.000000000000000000 ) ) ;
#206 = PRESENTATION_LAYER_ASSIGNMENT (  '', '', ( #101 ) ) ;
#207 = SURFACE_STYLE_USAGE ( .BOTH. , #114 ) ;
#208 = CARTESIAN_POINT ( 'NONE',  ( 0.1875000000000000278, 1.500000000000000222, 2.296212748401288342E-17 ) ) ;
#209 = DIMENSIONAL_EXPONENTS ( 1.000000000000000000, 0.000000000000000000, 0.000000000000000000, 0.000000000000000000, 0.000000000000000000, 0.000000000000000000, 0.000000000000000000 ) ;
#210 = LENGTH_MEASURE_WITH_UNIT ( LENGTH_MEASURE( 0.02539999999999999897 ), #155 );
#211 =( CONVERSION_BASED_UNIT ( 'INCH', #308 ) LENGTH_UNIT ( ) NAMED_UNIT ( #191 ) );
#212 = AXIS2_PLACEMENT_3D ( 'NONE', #16, #21, #187 ) ;
#213 = SHAPE_DEFINITION_REPRESENTATION ( #49, #59 ) ;
#214 = AXIS2_PLACEMENT_3D ( 'NONE', #67, #173, #159 ) ;
#215 = UNCERTAINTY_MEASURE_WITH_UNIT (LENGTH_MEASURE( 1.000000000000000082E-05 ), #135, 'distance_accuracy_value', 'NONE');
#216 = ORIENTED_EDGE ( 'NONE', *, *, #97, .F. ) ;
#217 = PRODUCT_RELATED_PRODUCT_CATEGORY ( 'part', '', ( #93 ) ) ;
#218 = DIRECTION ( 'NONE',  ( -1.000000000000000000, 0.000000000000000000, 0.000000000000000000 ) ) ;
#219 = PRESENTATION_STYLE_ASSIGNMENT (( #295 ) ) ;
#220 = PLANE ( 'NONE',  #291 ) ;
#221 = CARTESIAN_POINT ( 'NONE',  ( -6.123233995736759873E-17, 3.500000000000000000, 0.000000000000000000 ) ) ;
#222 = SURFACE_SIDE_STYLE ('',( #183 ) ) ;
#223 =( NAMED_UNIT ( * ) PLANE_ANGLE_UNIT ( ) SI_UNIT ( $, .RADIAN. ) );
#224 = LENGTH_MEASURE_WITH_UNIT ( LENGTH_MEASURE( 0.02539999999999999897 ), #87 );
#225 = FILL_AREA_STYLE ('',( #184 ) ) ;
#226 = STYLED_ITEM ( 'NONE', ( #278 ), #307 ) ;
#227 = FACE_OUTER_BOUND ( 'NONE', #240, .T. ) ;
#228 = ADVANCED_FACE ( 'NONE', ( #45 ), #301, .T. ) ;
#229 = PLANE ( 'NONE',  #60 ) ;
#230 =( CONVERSION_BASED_UNIT ( 'INCH', #144 ) LENGTH_UNIT ( ) NAMED_UNIT ( #270 ) );
#231 = EDGE_CURVE ( 'NONE', #309, #32, #43, .T. ) ;
#232 = CARTESIAN_POINT ( 'NONE',  ( 0.000000000000000000, 0.000000000000000000, 0.000000000000000000 ) ) ;
#233 = UNCERTAINTY_MEASURE_WITH_UNIT (LENGTH_MEASURE( 1.000000000000000082E-05 ), #211, 'distance_accuracy_value', 'NONE');
#234 = VERTEX_POINT ( 'NONE', #66 ) ;
#235 = VERTEX_POINT ( 'NONE', #161 ) ;
#236 = CIRCLE ( 'NONE', #120, 0.1875000000000000833 ) ;
#237 = MECHANICAL_DESIGN_GEOMETRIC_PRESENTATION_REPRESENTATION (  '', ( #64 ), #131 ) ;
#238 = PRODUCT_DEFINITION_CONTEXT ( 'detailed design', #177, 'design' ) ;
#239 = ORIENTED_EDGE ( 'NONE', *, *, #1, .F. ) ;
#240 = EDGE_LOOP ( 'NONE', ( #30, #170 ) ) ;
#241 = FILL_AREA_STYLE ('',( #62 ) ) ;
#242 = DIRECTION ( 'NONE',  ( -1.000000000000000000, 0.000000000000000000, 0.000000000000000000 ) ) ;
#243 = LENGTH_MEASURE_WITH_UNIT ( LENGTH_MEASURE( 0.02539999999999999897 ), #171 );
#244 = CARTESIAN_POINT ( 'NONE',  ( 2.296212748401287726E-17, 0.000000000000000000, 0.1875000000000000278 ) ) ;
#245 = CARTESIAN_POINT ( 'NONE',  ( 0.000000000000000000, 1.500000000000000222, 0.000000000000000000 ) ) ;
#246 = COLOUR_RGB ( '',0.7921568627450980005, 0.8196078431372548767, 0.9333333333333333481 ) ;
#247 = COLOUR_RGB ( '',1.000000000000000000, 0.000000000000000000, 0.000000000000000000 ) ;
#248 = AXIS2_PLACEMENT_3D ( 'NONE', #232, #127, #98 ) ;
#249 = CARTESIAN_POINT ( 'NONE',  ( -6.123233995736759873E-17, 3.500000000000000000, 0.000000000000000000 ) ) ;
#250 = DIRECTION ( 'NONE',  ( 0.000000000000000000, 1.000000000000000000, 0.000000000000000000 ) ) ;
#251 = CARTESIAN_POINT ( 'NONE',  ( 0.000000000000000000, 0.000000000000000000, 0.000000000000000000 ) ) ;
#252 = AXIS2_PLACEMENT_3D ( 'NONE', #71, #156, #269 ) ;
#253 = AXIS2_PLACEMENT_3D ( 'NONE', #205, #39, #203 ) ;
#254 = CARTESIAN_POINT ( 'NONE',  ( -0.1875000000000000278, 1.500000000000000222, 0.000000000000000000 ) ) ;
#255 = CARTESIAN_POINT ( 'NONE',  ( 0.000000000000000000, 0.000000000000000000, 0.000000000000000000 ) ) ;
#256 = SURFACE_STYLE_USAGE ( .BOTH. , #160 ) ;
#257 =( LENGTH_UNIT ( ) NAMED_UNIT ( * ) SI_UNIT ( $, .METRE. ) );
#258 = SURFACE_STYLE_USAGE ( .BOTH. , #50 ) ;
#259 = PRESENTATION_STYLE_ASSIGNMENT (( #80 ) ) ;
#260 = EDGE_LOOP ( 'NONE', ( #95, #289, #55, #216 ) ) ;
#261 = ORIENTED_EDGE ( 'NONE', *, *, #292, .T. ) ;
#262 = VERTEX_POINT ( 'NONE', #302 ) ;
#263 = EDGE_LOOP ( 'NONE', ( #287, #52 ) ) ;
#264 = SURFACE_STYLE_FILL_AREA ( #84 ) ;
#265 = VECTOR ( 'NONE', #79, 39.37007874015748143 ) ;
#266 = FILL_AREA_STYLE_COLOUR ( '', #34 ) ;
#267 = CARTESIAN_POINT ( 'NONE',  ( 0.000000000000000000, 1.500000000000000222, 0.000000000000000000 ) ) ;
#268 = DIRECTION ( 'NONE',  ( -1.000000000000000000, 0.000000000000000000, 0.000000000000000000 ) ) ;
#269 = DIRECTION ( 'NONE',  ( 0.000000000000000000, 0.000000000000000000, -1.000000000000000000 ) ) ;
#270 = DIMENSIONAL_EXPONENTS ( 1.000000000000000000, 0.000000000000000000, 0.000000000000000000, 0.000000000000000000, 0.000000000000000000, 0.000000000000000000, 0.000000000000000000 ) ;
#271 = MECHANICAL_DESIGN_GEOMETRIC_PRESENTATION_REPRESENTATION (  '', ( #158 ), #138 ) ;
#272 = LENGTH_MEASURE_WITH_UNIT ( LENGTH_MEASURE( 0.02539999999999999897 ), #61 );
#273 = SURFACE_STYLE_USAGE ( .BOTH. , #222 ) ;
#274 = CARTESIAN_POINT ( 'NONE',  ( -0.1875000000000001388, 3.500000000000000000, 0.000000000000000000 ) ) ;
#275 = FILL_AREA_STYLE_COLOUR ( '', #246 ) ;
#276 = CLOSED_SHELL ( 'NONE', ( #228, #307, #116, #125 ) ) ;
#277 = AXIS2_PLACEMENT_3D ( 'NONE', #255, #105, #152 ) ;
#278 = PRESENTATION_STYLE_ASSIGNMENT (( #273 ) ) ;
#279 = SURFACE_STYLE_FILL_AREA ( #182 ) ;
#280 = FILL_AREA_STYLE ('',( #296 ) ) ;
#281 = CYLINDRICAL_SURFACE ( 'NONE', #214, 0.1875000000000000278 ) ;
#282 = FACE_OUTER_BOUND ( 'NONE', #193, .T. ) ;
#283 = DIMENSIONAL_EXPONENTS ( 1.000000000000000000, 0.000000000000000000, 0.000000000000000000, 0.000000000000000000, 0.000000000000000000, 0.000000000000000000, 0.000000000000000000 ) ;
#284 = ORIENTED_EDGE ( 'NONE', *, *, #188, .F. ) ;
#285 = COLOUR_RGB ( '',1.000000000000000000, 0.000000000000000000, 0.000000000000000000 ) ;
#286 = ADVANCED_FACE ( 'NONE', ( #117 ), #179, .F. ) ;
#287 = ORIENTED_EDGE ( 'NONE', *, *, #1, .T. ) ;
#288 = DIRECTION ( 'NONE',  ( -3.061616997868380553E-17, 1.000000000000000000, -0.000000000000000000 ) ) ;
#289 = ORIENTED_EDGE ( 'NONE', *, *, #145, .T. ) ;
#290 = PRESENTATION_LAYER_ASSIGNMENT (  '', '', ( #100 ) ) ;
#291 = AXIS2_PLACEMENT_3D ( 'NONE', #251, #44, #15 ) ;
#292 = EDGE_CURVE ( 'NONE', #309, #262, #92, .T. ) ;
#293 = ORIENTED_EDGE ( 'NONE', *, *, #102, .F. ) ;
#294 = CARTESIAN_POINT ( 'NONE',  ( 8.787654976534310161E-35, 1.500000000000000222, 0.000000000000000000 ) ) ;
#295 = SURFACE_STYLE_USAGE ( .BOTH. , #178 ) ;
#296 = FILL_AREA_STYLE_COLOUR ( '', #151 ) ;
#297 = PRODUCT_DEFINITION ( 'UNKNOWN', '', #19, #238 ) ;
#298 =( NAMED_UNIT ( * ) PLANE_ANGLE_UNIT ( ) SI_UNIT ( $, .RADIAN. ) );
#299 = DIMENSIONAL_EXPONENTS ( 1.000000000000000000, 0.000000000000000000, 0.000000000000000000, 0.000000000000000000, 0.000000000000000000, 0.000000000000000000, 0.000000000000000000 ) ;
#300 = LINE ( 'NONE', #133, #69 ) ;
#301 = CYLINDRICAL_SURFACE ( 'NONE', #212, 0.1875000000000000278 ) ;
#302 = CARTESIAN_POINT ( 'NONE',  ( 0.000000000000000000, 1.500000000000000222, -0.1875000000000000278 ) ) ;
#303 = PRESENTATION_STYLE_ASSIGNMENT (( #207 ) ) ;
#304 =( NAMED_UNIT ( * ) SI_UNIT ( $, .STERADIAN. ) SOLID_ANGLE_UNIT ( ) );
#305 = SURFACE_STYLE_FILL_AREA ( #37 ) ;
#306 =( NAMED_UNIT ( * ) SI_UNIT ( $, .STERADIAN. ) SOLID_ANGLE_UNIT ( ) );
#307 = ADVANCED_FACE ( 'NONE', ( #140 ), #229, .T. ) ;
#308 = LENGTH_MEASURE_WITH_UNIT ( LENGTH_MEASURE( 0.02539999999999999897 ), #119 );
#309 = VERTEX_POINT ( 'NONE', #14 ) ;
ENDSEC;
END-ISO-10303-21;
