ISO-10303-21;
HEADER;
FILE_DESCRIPTION (( 'STEP AP214' ),
    '1' );
FILE_NAME ('81943.STEP',
    '2023-06-23T04:05:49',
    ( '' ),
    ( '' ),
    'SwSTEP 2.0',
    'SolidWorks 2023',
    '' );
FILE_SCHEMA (( 'AUTOMOTIVE_DESIGN' ));
ENDSEC;

DATA;
#1 = ORIENTED_EDGE ( 'NONE', *, *, #216, .T. ) ;
#2 = STYLED_ITEM ( 'NONE', ( #206 ), #55 ) ;
#3 = EDGE_LOOP ( 'NONE', ( #172, #99 ) ) ;
#4 =( GEOMETRIC_REPRESENTATION_CONTEXT ( 3 ) GLOBAL_UNCERTAINTY_ASSIGNED_CONTEXT ( ( #196 ) ) GLOBAL_UNIT_ASSIGNED_CONTEXT ( ( #144, #255, #304 ) ) REPRESENTATION_CONTEXT ( 'NONE', 'WORKASPACE' ) );
#5 = EDGE_CURVE ( 'NONE', #174, #81, #287, .T. ) ;
#6 = PRODUCT_CONTEXT ( 'NONE', #82, 'mechanical' ) ;
#7 = CLOSED_SHELL ( 'NONE', ( #211, #55, #78, #247 ) ) ;
#8 = CARTESIAN_POINT ( 'NONE',  ( 0.3125000000000000000, 1.625000000000000000, 3.827021247335478926E-17 ) ) ;
#9 = PRESENTATION_LAYER_ASSIGNMENT (  '', '', ( #109 ) ) ;
#10 = LENGTH_MEASURE_WITH_UNIT ( LENGTH_MEASURE( 0.02539999999999999897 ), #35 );
#11 = CYLINDRICAL_SURFACE ( 'NONE', #308, 0.3125000000000000000 ) ;
#12 = COLOUR_RGB ( '',1.000000000000000000, 0.000000000000000000, 0.000000000000000000 ) ;
#13 = ADVANCED_FACE ( 'NONE', ( #157 ), #110, .T. ) ;
#14 = LINE ( 'NONE', #298, #18 ) ;
#15 = DIRECTION ( 'NONE',  ( -1.000000000000000000, 0.000000000000000000, 0.000000000000000000 ) ) ;
#16 = DIRECTION ( 'NONE',  ( -2.578203787678638882E-17, 1.000000000000000000, -0.000000000000000000 ) ) ;
#17 =( NAMED_UNIT ( * ) SI_UNIT ( $, .STERADIAN. ) SOLID_ANGLE_UNIT ( ) );
#18 = VECTOR ( 'NONE', #205, 39.37007874015748143 ) ;
#19 = PLANE ( 'NONE',  #207 ) ;
#20 = PLANE ( 'NONE',  #193 ) ;
#21 = DIRECTION ( 'NONE',  ( 2.578203787678638882E-17, -1.000000000000000000, 0.000000000000000000 ) ) ;
#22 = DIMENSIONAL_EXPONENTS ( 1.000000000000000000, 0.000000000000000000, 0.000000000000000000, 0.000000000000000000, 0.000000000000000000, 0.000000000000000000, 0.000000000000000000 ) ;
#23 = APPLICATION_PROTOCOL_DEFINITION ( 'draft international standard', 'automotive_design', 1998, #82 ) ;
#24 = ORIENTED_EDGE ( 'NONE', *, *, #173, .T. ) ;
#25 = CARTESIAN_POINT ( 'NONE',  ( 3.827021247335478926E-17, 0.000000000000000000, 0.3125000000000000000 ) ) ;
#26 = PRODUCT ( '81943', '81943', '', ( #6 ) ) ;
#27 = VERTEX_POINT ( 'NONE', #294 ) ;
#28 = ORIENTED_EDGE ( 'NONE', *, *, #59, .T. ) ;
#29 =( LENGTH_UNIT ( ) NAMED_UNIT ( * ) SI_UNIT ( $, .METRE. ) );
#30 = MECHANICAL_DESIGN_GEOMETRIC_PRESENTATION_REPRESENTATION (  '', ( #183 ), #139 ) ;
#31 = SURFACE_STYLE_USAGE ( .BOTH. , #158 ) ;
#32 = DIRECTION ( 'NONE',  ( -2.578203787678638882E-17, 1.000000000000000000, -0.000000000000000000 ) ) ;
#33 = STYLED_ITEM ( 'NONE', ( #60 ), #211 ) ;
#34 =( NAMED_UNIT ( * ) PLANE_ANGLE_UNIT ( ) SI_UNIT ( $, .RADIAN. ) );
#35 =( LENGTH_UNIT ( ) NAMED_UNIT ( * ) SI_UNIT ( $, .METRE. ) );
#36 = SURFACE_STYLE_FILL_AREA ( #250 ) ;
#37 = DIRECTION ( 'NONE',  ( -2.578203787678638882E-17, 1.000000000000000000, -0.000000000000000000 ) ) ;
#38 = COLOUR_RGB ( '',1.000000000000000000, 0.000000000000000000, 0.000000000000000000 ) ;
#39 = MECHANICAL_DESIGN_GEOMETRIC_PRESENTATION_REPRESENTATION (  '', ( #142 ), #171 ) ;
#40 = FILL_AREA_STYLE_COLOUR ( '', #292 ) ;
#41 = LENGTH_MEASURE_WITH_UNIT ( LENGTH_MEASURE( 0.02539999999999999897 ), #166 );
#42 = PRESENTATION_STYLE_ASSIGNMENT (( #182 ) ) ;
#43 =( NAMED_UNIT ( * ) PLANE_ANGLE_UNIT ( ) SI_UNIT ( $, .RADIAN. ) );
#44 = DIMENSIONAL_EXPONENTS ( 1.000000000000000000, 0.000000000000000000, 0.000000000000000000, 0.000000000000000000, 0.000000000000000000, 0.000000000000000000, 0.000000000000000000 ) ;
#45 = CARTESIAN_POINT ( 'NONE',  ( 0.000000000000000000, 0.000000000000000000, 0.000000000000000000 ) ) ;
#46 = DIRECTION ( 'NONE',  ( 0.000000000000000000, 0.000000000000000000, -1.000000000000000000 ) ) ;
#47 = FACE_OUTER_BOUND ( 'NONE', #195, .T. ) ;
#48 =( NAMED_UNIT ( * ) SI_UNIT ( $, .STERADIAN. ) SOLID_ANGLE_UNIT ( ) );
#49 = DIRECTION ( 'NONE',  ( -0.000000000000000000, -1.000000000000000000, -0.000000000000000000 ) ) ;
#50 = EDGE_CURVE ( 'NONE', #81, #174, #91, .T. ) ;
#51 = DIMENSIONAL_EXPONENTS ( 1.000000000000000000, 0.000000000000000000, 0.000000000000000000, 0.000000000000000000, 0.000000000000000000, 0.000000000000000000, 0.000000000000000000 ) ;
#52 = VERTEX_POINT ( 'NONE', #230 ) ;
#53 = ORIENTED_EDGE ( 'NONE', *, *, #90, .T. ) ;
#54 = CARTESIAN_POINT ( 'NONE',  ( 1.516480271171051896E-32, 1.625000000000000000, 0.000000000000000000 ) ) ;
#55 = ADVANCED_FACE ( 'NONE', ( #246 ), #269, .T. ) ;
#56 = LENGTH_MEASURE_WITH_UNIT ( LENGTH_MEASURE( 0.02539999999999999897 ), #29 );
#57 = ADVANCED_FACE ( 'NONE', ( #199 ), #141, .F. ) ;
#58 = DIRECTION ( 'NONE',  ( 0.000000000000000000, 1.000000000000000000, 0.000000000000000000 ) ) ;
#59 = EDGE_CURVE ( 'NONE', #174, #284, #179, .T. ) ;
#60 = PRESENTATION_STYLE_ASSIGNMENT (( #31 ) ) ;
#61 = CYLINDRICAL_SURFACE ( 'NONE', #186, 0.3125000000000000000 ) ;
#62 = DIRECTION ( 'NONE',  ( -1.000000000000000000, 0.000000000000000000, 0.000000000000000000 ) ) ;
#63 = VECTOR ( 'NONE', #151, 39.37007874015748143 ) ;
#64 = SURFACE_STYLE_FILL_AREA ( #278 ) ;
#65 =( LENGTH_UNIT ( ) NAMED_UNIT ( * ) SI_UNIT ( $, .METRE. ) );
#66 = UNCERTAINTY_MEASURE_WITH_UNIT (LENGTH_MEASURE( 1.000000000000000082E-05 ), #197, 'distance_accuracy_value', 'NONE');
#67 = FACE_OUTER_BOUND ( 'NONE', #154, .T. ) ;
#68 = AXIS2_PLACEMENT_3D ( 'NONE', #89, #248, #62 ) ;
#69 = DIRECTION ( 'NONE',  ( -1.000000000000000000, 0.000000000000000000, 0.000000000000000000 ) ) ;
#70 = CIRCLE ( 'NONE', #164, 0.3125000000000000000 ) ;
#71 = DIRECTION ( 'NONE',  ( -0.000000000000000000, -1.000000000000000000, -0.000000000000000000 ) ) ;
#72 = MECHANICAL_DESIGN_GEOMETRIC_PRESENTATION_REPRESENTATION (  '', ( #109 ), #153 ) ;
#73 = FILL_AREA_STYLE ('',( #301 ) ) ;
#74 = PRODUCT_DEFINITION_SHAPE ( 'NONE', 'NONE',  #134 ) ;
#75 = ORIENTED_EDGE ( 'NONE', *, *, #266, .F. ) ;
#76 = SURFACE_STYLE_USAGE ( .BOTH. , #168 ) ;
#77 = ORIENTED_EDGE ( 'NONE', *, *, #50, .T. ) ;
#78 = ADVANCED_FACE ( 'NONE', ( #271 ), #61, .T. ) ;
#79 = ORIENTED_EDGE ( 'NONE', *, *, #59, .F. ) ;
#80 = PRODUCT_DEFINITION_FORMATION_WITH_SPECIFIED_SOURCE ( 'ANY', '', #26, .NOT_KNOWN. ) ;
#81 = VERTEX_POINT ( 'NONE', #96 ) ;
#82 = APPLICATION_CONTEXT ( 'automotive_design' ) ;
#83 = ORIENTED_EDGE ( 'NONE', *, *, #90, .F. ) ;
#84 = SHAPE_DEFINITION_REPRESENTATION ( #74, #190 ) ;
#85 = ADVANCED_FACE ( 'NONE', ( #67 ), #19, .F. ) ;
#86 = CARTESIAN_POINT ( 'NONE',  ( 0.000000000000000000, 0.000000000000000000, -0.3125000000000000000 ) ) ;
#87 = MECHANICAL_DESIGN_GEOMETRIC_PRESENTATION_REPRESENTATION (  '', ( #2 ), #106 ) ;
#88 = DIRECTION ( 'NONE',  ( -1.000000000000000000, 0.000000000000000000, 0.000000000000000000 ) ) ;
#89 = CARTESIAN_POINT ( 'NONE',  ( -6.123233995736766036E-17, 4.000000000000000000, 0.000000000000000000 ) ) ;
#90 = EDGE_CURVE ( 'NONE', #52, #27, #70, .T. ) ;
#91 = CIRCLE ( 'NONE', #251, 0.3125000000000000000 ) ;
#92 = DIRECTION ( 'NONE',  ( -2.578203787678638882E-17, 1.000000000000000000, -0.000000000000000000 ) ) ;
#93 = ADVANCED_FACE ( 'NONE', ( #47 ), #257, .T. ) ;
#94 = CARTESIAN_POINT ( 'NONE',  ( 1.038614807937575041E-34, 1.625000000000000000, 0.000000000000000000 ) ) ;
#95 = DIRECTION ( 'NONE',  ( -0.000000000000000000, -1.000000000000000000, -0.000000000000000000 ) ) ;
#96 = CARTESIAN_POINT ( 'NONE',  ( -0.3125000000000000000, 1.625000000000000000, 0.000000000000000000 ) ) ;
#97 = COLOUR_RGB ( '',0.7921568627450980005, 0.8196078431372548767, 0.9333333333333333481 ) ;
#98 = CARTESIAN_POINT ( 'NONE',  ( 0.3125000000000000000, 4.000000000000000000, 0.000000000000000000 ) ) ;
#99 = ORIENTED_EDGE ( 'NONE', *, *, #266, .T. ) ;
#100 = CLOSED_SHELL ( 'NONE', ( #93, #57, #13, #85 ) ) ;
#101 = DIMENSIONAL_EXPONENTS ( 1.000000000000000000, 0.000000000000000000, 0.000000000000000000, 0.000000000000000000, 0.000000000000000000, 0.000000000000000000, 0.000000000000000000 ) ;
#102 = EDGE_LOOP ( 'NONE', ( #288, #83 ) ) ;
#103 = CIRCLE ( 'NONE', #115, 0.3125000000000000555 ) ;
#104 = AXIS2_PLACEMENT_3D ( 'NONE', #227, #58, #108 ) ;
#105 = EDGE_CURVE ( 'NONE', #52, #221, #306, .T. ) ;
#106 =( GEOMETRIC_REPRESENTATION_CONTEXT ( 3 ) GLOBAL_UNCERTAINTY_ASSIGNED_CONTEXT ( ( #160 ) ) GLOBAL_UNIT_ASSIGNED_CONTEXT ( ( #180, #34, #228 ) ) REPRESENTATION_CONTEXT ( 'NONE', 'WORKASPACE' ) );
#107 = FACE_OUTER_BOUND ( 'NONE', #224, .T. ) ;
#108 = DIRECTION ( 'NONE',  ( 0.000000000000000000, -0.000000000000000000, 1.000000000000000000 ) ) ;
#109 = STYLED_ITEM ( 'NONE', ( #281 ), #247 ) ;
#110 = CYLINDRICAL_SURFACE ( 'NONE', #68, 0.3125000000000000000 ) ;
#111 = LENGTH_MEASURE_WITH_UNIT ( LENGTH_MEASURE( 0.02539999999999999897 ), #163 );
#112 = LENGTH_MEASURE_WITH_UNIT ( LENGTH_MEASURE( 0.02539999999999999897 ), #65 );
#113 = SURFACE_STYLE_FILL_AREA ( #133 ) ;
#114 =( LENGTH_UNIT ( ) NAMED_UNIT ( * ) SI_UNIT ( $, .METRE. ) );
#115 = AXIS2_PLACEMENT_3D ( 'NONE', #117, #127, #222 ) ;
#116 = COLOUR_RGB ( '',0.7921568627450980005, 0.8196078431372548767, 0.9333333333333333481 ) ;
#117 = CARTESIAN_POINT ( 'NONE',  ( -6.123233995736766036E-17, 4.000000000000000000, 0.000000000000000000 ) ) ;
#118 = DIRECTION ( 'NONE',  ( 0.000000000000000000, 0.000000000000000000, -1.000000000000000000 ) ) ;
#119 = ORIENTED_EDGE ( 'NONE', *, *, #131, .F. ) ;
#120 = DIRECTION ( 'NONE',  ( 0.000000000000000000, 0.000000000000000000, -1.000000000000000000 ) ) ;
#121 =( CONVERSION_BASED_UNIT ( 'INCH', #233 ) LENGTH_UNIT ( ) NAMED_UNIT ( #303 ) );
#122 = ORIENTED_EDGE ( 'NONE', *, *, #50, .F. ) ;
#123 = LINE ( 'NONE', #147, #213 ) ;
#124 = ORIENTED_EDGE ( 'NONE', *, *, #5, .F. ) ;
#125 = ORIENTED_EDGE ( 'NONE', *, *, #216, .F. ) ;
#126 = MANIFOLD_SOLID_BREP ( 'Revolve - Tool Body (Straight Shanked)', #100 ) ;
#127 = DIRECTION ( 'NONE',  ( -2.578203787678638882E-17, 1.000000000000000000, -0.000000000000000000 ) ) ;
#128 = PRESENTATION_LAYER_ASSIGNMENT (  '', '', ( #33 ) ) ;
#129 = EDGE_CURVE ( 'NONE', #27, #52, #272, .T. ) ;
#130 = DIRECTION ( 'NONE',  ( 1.000000000000000000, 0.000000000000000000, 0.000000000000000000 ) ) ;
#131 = EDGE_CURVE ( 'NONE', #27, #188, #123, .T. ) ;
#132 = APPLICATION_CONTEXT ( 'automotive_design' ) ;
#133 = FILL_AREA_STYLE ('',( #40 ) ) ;
#134 = PRODUCT_DEFINITION ( 'UNKNOWN', '', #80, #267 ) ;
#135 = MANIFOLD_SOLID_BREP ( 'Revolve - Cutting Edge', #7 ) ;
#136 = CARTESIAN_POINT ( 'NONE',  ( 1.516480271171051896E-32, 1.625000000000000000, 0.000000000000000000 ) ) ;
#137 = UNCERTAINTY_MEASURE_WITH_UNIT (LENGTH_MEASURE( 1.000000000000000082E-05 ), #121, 'distance_accuracy_value', 'NONE');
#138 = SURFACE_SIDE_STYLE ('',( #36 ) ) ;
#139 =( GEOMETRIC_REPRESENTATION_CONTEXT ( 3 ) GLOBAL_UNCERTAINTY_ASSIGNED_CONTEXT ( ( #249 ) ) GLOBAL_UNIT_ASSIGNED_CONTEXT ( ( #296, #209, #17 ) ) REPRESENTATION_CONTEXT ( 'NONE', 'WORKASPACE' ) );
#140 = CIRCLE ( 'NONE', #148, 0.3125000000000000555 ) ;
#141 = PLANE ( 'NONE',  #204 ) ;
#142 = STYLED_ITEM ( 'NONE', ( #42 ), #126 ) ;
#143 = SURFACE_STYLE_USAGE ( .BOTH. , #198 ) ;
#144 =( CONVERSION_BASED_UNIT ( 'INCH', #41 ) LENGTH_UNIT ( ) NAMED_UNIT ( #101 ) );
#145 =( NAMED_UNIT ( * ) SI_UNIT ( $, .STERADIAN. ) SOLID_ANGLE_UNIT ( ) );
#146 = CARTESIAN_POINT ( 'NONE',  ( 3.827021247335478926E-17, 0.000000000000000000, 0.3125000000000000000 ) ) ;
#147 = CARTESIAN_POINT ( 'NONE',  ( 0.000000000000000000, 0.000000000000000000, -0.3125000000000000000 ) ) ;
#148 = AXIS2_PLACEMENT_3D ( 'NONE', #279, #16, #69 ) ;
#149 = FACE_OUTER_BOUND ( 'NONE', #3, .T. ) ;
#150 = DIRECTION ( 'NONE',  ( 0.000000000000000000, 0.000000000000000000, -1.000000000000000000 ) ) ;
#151 = DIRECTION ( 'NONE',  ( -0.000000000000000000, -1.000000000000000000, -0.000000000000000000 ) ) ;
#152 = DIRECTION ( 'NONE',  ( 0.000000000000000000, 0.000000000000000000, -1.000000000000000000 ) ) ;
#153 =( GEOMETRIC_REPRESENTATION_CONTEXT ( 3 ) GLOBAL_UNCERTAINTY_ASSIGNED_CONTEXT ( ( #256 ) ) GLOBAL_UNIT_ASSIGNED_CONTEXT ( ( #236, #276, #48 ) ) REPRESENTATION_CONTEXT ( 'NONE', 'WORKASPACE' ) );
#154 = EDGE_LOOP ( 'NONE', ( #24, #1 ) ) ;
#155 = VECTOR ( 'NONE', #92, 39.37007874015748143 ) ;
#156 = ORIENTED_EDGE ( 'NONE', *, *, #5, .T. ) ;
#157 = FACE_OUTER_BOUND ( 'NONE', #261, .T. ) ;
#158 = SURFACE_SIDE_STYLE ('',( #270 ) ) ;
#159 = AXIS2_PLACEMENT_3D ( 'NONE', #208, #214, #120 ) ;
#160 = UNCERTAINTY_MEASURE_WITH_UNIT (LENGTH_MEASURE( 1.000000000000000082E-05 ), #180, 'distance_accuracy_value', 'NONE');
#161 =( NAMED_UNIT ( * ) SI_UNIT ( $, .STERADIAN. ) SOLID_ANGLE_UNIT ( ) );
#162 = PRODUCT_RELATED_PRODUCT_CATEGORY ( 'part', '', ( #26 ) ) ;
#163 =( LENGTH_UNIT ( ) NAMED_UNIT ( * ) SI_UNIT ( $, .METRE. ) );
#164 = AXIS2_PLACEMENT_3D ( 'NONE', #280, #260, #150 ) ;
#165 = CIRCLE ( 'NONE', #181, 0.3125000000000000000 ) ;
#166 =( LENGTH_UNIT ( ) NAMED_UNIT ( * ) SI_UNIT ( $, .METRE. ) );
#167 = DIRECTION ( 'NONE',  ( -2.578203787678638882E-17, 1.000000000000000000, -0.000000000000000000 ) ) ;
#168 = SURFACE_SIDE_STYLE ('',( #231 ) ) ;
#169 = DIRECTION ( 'NONE',  ( -0.000000000000000000, -1.000000000000000000, -0.000000000000000000 ) ) ;
#170 = DIRECTION ( 'NONE',  ( -0.000000000000000000, -1.000000000000000000, -0.000000000000000000 ) ) ;
#171 =( GEOMETRIC_REPRESENTATION_CONTEXT ( 3 ) GLOBAL_UNCERTAINTY_ASSIGNED_CONTEXT ( ( #137 ) ) GLOBAL_UNIT_ASSIGNED_CONTEXT ( ( #121, #43, #145 ) ) REPRESENTATION_CONTEXT ( 'NONE', 'WORKASPACE' ) );
#172 = ORIENTED_EDGE ( 'NONE', *, *, #277, .T. ) ;
#173 = EDGE_CURVE ( 'NONE', #262, #284, #103, .T. ) ;
#174 = VERTEX_POINT ( 'NONE', #8 ) ;
#175 =( NAMED_UNIT ( * ) SI_UNIT ( $, .STERADIAN. ) SOLID_ANGLE_UNIT ( ) );
#176 = ORIENTED_EDGE ( 'NONE', *, *, #297, .F. ) ;
#177 = FILL_AREA_STYLE_COLOUR ( '', #38 ) ;
#178 = DIRECTION ( 'NONE',  ( -1.000000000000000000, -2.578203787678638882E-17, 0.000000000000000000 ) ) ;
#179 = LINE ( 'NONE', #203, #155 ) ;
#180 =( CONVERSION_BASED_UNIT ( 'INCH', #299 ) LENGTH_UNIT ( ) NAMED_UNIT ( #51 ) );
#181 = AXIS2_PLACEMENT_3D ( 'NONE', #253, #95, #259 ) ;
#182 = SURFACE_STYLE_USAGE ( .BOTH. , #237 ) ;
#183 = STYLED_ITEM ( 'NONE', ( #202 ), #78 ) ;
#184 = CARTESIAN_POINT ( 'NONE',  ( 0.000000000000000000, 0.000000000000000000, 0.000000000000000000 ) ) ;
#185 = PRESENTATION_STYLE_ASSIGNMENT (( #302 ) ) ;
#186 = AXIS2_PLACEMENT_3D ( 'NONE', #283, #49, #152 ) ;
#187 = PRESENTATION_LAYER_ASSIGNMENT (  '', '', ( #218 ) ) ;
#188 = VERTEX_POINT ( 'NONE', #86 ) ;
#189 = CARTESIAN_POINT ( 'NONE',  ( -6.123233995736766036E-17, 4.000000000000000000, 0.000000000000000000 ) ) ;
#190 = ADVANCED_BREP_SHAPE_REPRESENTATION ( '81943', ( #135, #126, #223 ), #4 ) ;
#191 = ORIENTED_EDGE ( 'NONE', *, *, #131, .T. ) ;
#192 = ORIENTED_EDGE ( 'NONE', *, *, #277, .F. ) ;
#193 = AXIS2_PLACEMENT_3D ( 'NONE', #45, #229, #118 ) ;
#194 = ORIENTED_EDGE ( 'NONE', *, *, #129, .T. ) ;
#195 = EDGE_LOOP ( 'NONE', ( #77, #28, #217, #176 ) ) ;
#196 = UNCERTAINTY_MEASURE_WITH_UNIT (LENGTH_MEASURE( 1.000000000000000082E-05 ), #144, 'distance_accuracy_value', 'NONE');
#197 =( CONVERSION_BASED_UNIT ( 'INCH', #10 ) LENGTH_UNIT ( ) NAMED_UNIT ( #263 ) );
#198 = SURFACE_SIDE_STYLE ('',( #113 ) ) ;
#199 = FACE_OUTER_BOUND ( 'NONE', #243, .T. ) ;
#200 = MECHANICAL_DESIGN_GEOMETRIC_PRESENTATION_REPRESENTATION (  '', ( #33 ), #264 ) ;
#201 = FILL_AREA_STYLE ('',( #177 ) ) ;
#202 = PRESENTATION_STYLE_ASSIGNMENT (( #275 ) ) ;
#203 = CARTESIAN_POINT ( 'NONE',  ( 0.3124999999999999445, 4.000000000000000000, 3.827021247335478926E-17 ) ) ;
#204 = AXIS2_PLACEMENT_3D ( 'NONE', #94, #295, #178 ) ;
#205 = DIRECTION ( 'NONE',  ( -2.578203787678638882E-17, 1.000000000000000000, -0.000000000000000000 ) ) ;
#206 = PRESENTATION_STYLE_ASSIGNMENT (( #143 ) ) ;
#207 = AXIS2_PLACEMENT_3D ( 'NONE', #98, #21, #305 ) ;
#208 = CARTESIAN_POINT ( 'NONE',  ( 0.000000000000000000, 0.000000000000000000, 0.000000000000000000 ) ) ;
#209 =( NAMED_UNIT ( * ) PLANE_ANGLE_UNIT ( ) SI_UNIT ( $, .RADIAN. ) );
#210 = CARTESIAN_POINT ( 'NONE',  ( 0.3125000000000000000, 4.000000000000000000, 3.827021247335478926E-17 ) ) ;
#211 = ADVANCED_FACE ( 'NONE', ( #107 ), #11, .T. ) ;
#212 = FILL_AREA_STYLE_COLOUR ( '', #116 ) ;
#213 = VECTOR ( 'NONE', #169, 39.37007874015748143 ) ;
#214 = DIRECTION ( 'NONE',  ( -0.000000000000000000, -1.000000000000000000, -0.000000000000000000 ) ) ;
#215 = DIRECTION ( 'NONE',  ( -1.000000000000000000, 0.000000000000000000, 0.000000000000000000 ) ) ;
#216 = EDGE_CURVE ( 'NONE', #284, #262, #140, .T. ) ;
#217 = ORIENTED_EDGE ( 'NONE', *, *, #173, .F. ) ;
#218 = STYLED_ITEM ( 'NONE', ( #185 ), #135 ) ;
#219 = CARTESIAN_POINT ( 'NONE',  ( 0.000000000000000000, 0.000000000000000000, 0.000000000000000000 ) ) ;
#220 = PRESENTATION_LAYER_ASSIGNMENT (  '', '', ( #2 ) ) ;
#221 = VERTEX_POINT ( 'NONE', #146 ) ;
#222 = DIRECTION ( 'NONE',  ( -1.000000000000000000, 0.000000000000000000, 0.000000000000000000 ) ) ;
#223 = AXIS2_PLACEMENT_3D ( 'NONE', #219, #291, #130 ) ;
#224 = EDGE_LOOP ( 'NONE', ( #194, #307, #192, #119 ) ) ;
#225 =( CONVERSION_BASED_UNIT ( 'INCH', #56 ) LENGTH_UNIT ( ) NAMED_UNIT ( #44 ) );
#226 =( LENGTH_UNIT ( ) NAMED_UNIT ( * ) SI_UNIT ( $, .METRE. ) );
#227 = CARTESIAN_POINT ( 'NONE',  ( 0.000000000000000000, 1.625000000000000000, 0.000000000000000000 ) ) ;
#228 =( NAMED_UNIT ( * ) SI_UNIT ( $, .STERADIAN. ) SOLID_ANGLE_UNIT ( ) );
#229 = DIRECTION ( 'NONE',  ( 0.000000000000000000, -1.000000000000000000, -0.000000000000000000 ) ) ;
#230 = CARTESIAN_POINT ( 'NONE',  ( 3.827021247335478926E-17, 1.625000000000000000, 0.3125000000000000000 ) ) ;
#231 = SURFACE_STYLE_FILL_AREA ( #73 ) ;
#232 = UNCERTAINTY_MEASURE_WITH_UNIT (LENGTH_MEASURE( 1.000000000000000082E-05 ), #225, 'distance_accuracy_value', 'NONE');
#233 = LENGTH_MEASURE_WITH_UNIT ( LENGTH_MEASURE( 0.02539999999999999897 ), #114 );
#234 = CARTESIAN_POINT ( 'NONE',  ( -0.3125000000000001665, 4.000000000000000000, 0.000000000000000000 ) ) ;
#235 = PRESENTATION_LAYER_ASSIGNMENT (  '', '', ( #142 ) ) ;
#236 =( CONVERSION_BASED_UNIT ( 'INCH', #112 ) LENGTH_UNIT ( ) NAMED_UNIT ( #22 ) );
#237 = SURFACE_SIDE_STYLE ('',( #238 ) ) ;
#238 = SURFACE_STYLE_FILL_AREA ( #258 ) ;
#239 = ORIENTED_EDGE ( 'NONE', *, *, #105, .F. ) ;
#240 = CARTESIAN_POINT ( 'NONE',  ( 0.000000000000000000, 1.625000000000000000, 0.000000000000000000 ) ) ;
#241 = ORIENTED_EDGE ( 'NONE', *, *, #297, .T. ) ;
#242 = DIMENSIONAL_EXPONENTS ( 1.000000000000000000, 0.000000000000000000, 0.000000000000000000, 0.000000000000000000, 0.000000000000000000, 0.000000000000000000, 0.000000000000000000 ) ;
#243 = EDGE_LOOP ( 'NONE', ( #122, #124 ) ) ;
#244 =( NAMED_UNIT ( * ) PLANE_ANGLE_UNIT ( ) SI_UNIT ( $, .RADIAN. ) );
#245 = APPLICATION_PROTOCOL_DEFINITION ( 'draft international standard', 'automotive_design', 1998, #132 ) ;
#246 = FACE_OUTER_BOUND ( 'NONE', #102, .T. ) ;
#247 = ADVANCED_FACE ( 'NONE', ( #149 ), #20, .T. ) ;
#248 = DIRECTION ( 'NONE',  ( -2.578203787678638882E-17, 1.000000000000000000, -0.000000000000000000 ) ) ;
#249 = UNCERTAINTY_MEASURE_WITH_UNIT (LENGTH_MEASURE( 1.000000000000000082E-05 ), #296, 'distance_accuracy_value', 'NONE');
#250 = FILL_AREA_STYLE ('',( #265 ) ) ;
#251 = AXIS2_PLACEMENT_3D ( 'NONE', #54, #37, #88 ) ;
#252 = MECHANICAL_DESIGN_GEOMETRIC_PRESENTATION_REPRESENTATION (  '', ( #218 ), #293 ) ;
#253 = CARTESIAN_POINT ( 'NONE',  ( 0.000000000000000000, 0.000000000000000000, 0.000000000000000000 ) ) ;
#254 = SURFACE_SIDE_STYLE ('',( #64 ) ) ;
#255 =( NAMED_UNIT ( * ) PLANE_ANGLE_UNIT ( ) SI_UNIT ( $, .RADIAN. ) );
#256 = UNCERTAINTY_MEASURE_WITH_UNIT (LENGTH_MEASURE( 1.000000000000000082E-05 ), #236, 'distance_accuracy_value', 'NONE');
#257 = CYLINDRICAL_SURFACE ( 'NONE', #300, 0.3125000000000000000 ) ;
#258 = FILL_AREA_STYLE ('',( #212 ) ) ;
#259 = DIRECTION ( 'NONE',  ( 0.000000000000000000, 0.000000000000000000, -1.000000000000000000 ) ) ;
#260 = DIRECTION ( 'NONE',  ( -0.000000000000000000, -1.000000000000000000, -0.000000000000000000 ) ) ;
#261 = EDGE_LOOP ( 'NONE', ( #79, #156, #241, #125 ) ) ;
#262 = VERTEX_POINT ( 'NONE', #234 ) ;
#263 = DIMENSIONAL_EXPONENTS ( 1.000000000000000000, 0.000000000000000000, 0.000000000000000000, 0.000000000000000000, 0.000000000000000000, 0.000000000000000000, 0.000000000000000000 ) ;
#264 =( GEOMETRIC_REPRESENTATION_CONTEXT ( 3 ) GLOBAL_UNCERTAINTY_ASSIGNED_CONTEXT ( ( #66 ) ) GLOBAL_UNIT_ASSIGNED_CONTEXT ( ( #197, #273, #161 ) ) REPRESENTATION_CONTEXT ( 'NONE', 'WORKASPACE' ) );
#265 = FILL_AREA_STYLE_COLOUR ( '', #12 ) ;
#266 = EDGE_CURVE ( 'NONE', #221, #188, #165, .T. ) ;
#267 = PRODUCT_DEFINITION_CONTEXT ( 'detailed design', #132, 'design' ) ;
#268 = AXIS2_PLACEMENT_3D ( 'NONE', #136, #32, #15 ) ;
#269 = PLANE ( 'NONE',  #104 ) ;
#270 = SURFACE_STYLE_FILL_AREA ( #201 ) ;
#271 = FACE_OUTER_BOUND ( 'NONE', #290, .T. ) ;
#272 = CIRCLE ( 'NONE', #286, 0.3125000000000000000 ) ;
#273 =( NAMED_UNIT ( * ) PLANE_ANGLE_UNIT ( ) SI_UNIT ( $, .RADIAN. ) );
#274 = PRESENTATION_LAYER_ASSIGNMENT (  '', '', ( #183 ) ) ;
#275 = SURFACE_STYLE_USAGE ( .BOTH. , #138 ) ;
#276 =( NAMED_UNIT ( * ) PLANE_ANGLE_UNIT ( ) SI_UNIT ( $, .RADIAN. ) );
#277 = EDGE_CURVE ( 'NONE', #188, #221, #282, .T. ) ;
#278 = FILL_AREA_STYLE ('',( #309 ) ) ;
#279 = CARTESIAN_POINT ( 'NONE',  ( -6.123233995736766036E-17, 4.000000000000000000, 0.000000000000000000 ) ) ;
#280 = CARTESIAN_POINT ( 'NONE',  ( 0.000000000000000000, 1.625000000000000000, 0.000000000000000000 ) ) ;
#281 = PRESENTATION_STYLE_ASSIGNMENT (( #76 ) ) ;
#282 = CIRCLE ( 'NONE', #159, 0.3125000000000000000 ) ;
#283 = CARTESIAN_POINT ( 'NONE',  ( 0.000000000000000000, 0.000000000000000000, 0.000000000000000000 ) ) ;
#284 = VERTEX_POINT ( 'NONE', #210 ) ;
#285 = DIRECTION ( 'NONE',  ( 0.000000000000000000, 0.000000000000000000, -1.000000000000000000 ) ) ;
#286 = AXIS2_PLACEMENT_3D ( 'NONE', #240, #71, #46 ) ;
#287 = CIRCLE ( 'NONE', #268, 0.3125000000000000000 ) ;
#288 = ORIENTED_EDGE ( 'NONE', *, *, #129, .F. ) ;
#289 = COLOUR_RGB ( '',1.000000000000000000, 0.000000000000000000, 0.000000000000000000 ) ;
#290 = EDGE_LOOP ( 'NONE', ( #239, #53, #191, #75 ) ) ;
#291 = DIRECTION ( 'NONE',  ( 0.000000000000000000, 0.000000000000000000, 1.000000000000000000 ) ) ;
#292 = COLOUR_RGB ( '',1.000000000000000000, 0.000000000000000000, 0.000000000000000000 ) ;
#293 =( GEOMETRIC_REPRESENTATION_CONTEXT ( 3 ) GLOBAL_UNCERTAINTY_ASSIGNED_CONTEXT ( ( #232 ) ) GLOBAL_UNIT_ASSIGNED_CONTEXT ( ( #225, #244, #175 ) ) REPRESENTATION_CONTEXT ( 'NONE', 'WORKASPACE' ) );
#294 = CARTESIAN_POINT ( 'NONE',  ( 0.000000000000000000, 1.625000000000000000, -0.3125000000000000000 ) ) ;
#295 = DIRECTION ( 'NONE',  ( -2.578203787678638882E-17, 1.000000000000000000, 0.000000000000000000 ) ) ;
#296 =( CONVERSION_BASED_UNIT ( 'INCH', #111 ) LENGTH_UNIT ( ) NAMED_UNIT ( #242 ) );
#297 = EDGE_CURVE ( 'NONE', #81, #262, #14, .T. ) ;
#298 = CARTESIAN_POINT ( 'NONE',  ( -0.3125000000000000555, 4.000000000000000000, 0.000000000000000000 ) ) ;
#299 = LENGTH_MEASURE_WITH_UNIT ( LENGTH_MEASURE( 0.02539999999999999897 ), #226 );
#300 = AXIS2_PLACEMENT_3D ( 'NONE', #189, #167, #215 ) ;
#301 = FILL_AREA_STYLE_COLOUR ( '', #289 ) ;
#302 = SURFACE_STYLE_USAGE ( .BOTH. , #254 ) ;
#303 = DIMENSIONAL_EXPONENTS ( 1.000000000000000000, 0.000000000000000000, 0.000000000000000000, 0.000000000000000000, 0.000000000000000000, 0.000000000000000000, 0.000000000000000000 ) ;
#304 =( NAMED_UNIT ( * ) SI_UNIT ( $, .STERADIAN. ) SOLID_ANGLE_UNIT ( ) );
#305 = DIRECTION ( 'NONE',  ( 1.000000000000000000, 2.578203787678638882E-17, 0.000000000000000000 ) ) ;
#306 = LINE ( 'NONE', #25, #63 ) ;
#307 = ORIENTED_EDGE ( 'NONE', *, *, #105, .T. ) ;
#308 = AXIS2_PLACEMENT_3D ( 'NONE', #184, #170, #285 ) ;
#309 = FILL_AREA_STYLE_COLOUR ( '', #97 ) ;
ENDSEC;
END-ISO-10303-21;
